ISO-10303-21;
HEADER;
FILE_DESCRIPTION (( 'STEP AP214' ),
    '1' );
FILE_NAME ('Micro_DM-125-290X.STEP',
    '2021-09-02T15:58:42',
    ( '' ),
    ( '' ),
    'SwSTEP 2.0',
    'SolidWorks 2020',
    '' );
FILE_SCHEMA (( 'AUTOMOTIVE_DESIGN' ));
ENDSEC;

DATA;
#1 = CARTESIAN_POINT ( 'NONE',  ( 0.0000000000000000000, 0.0000000000000000000, 1.707404996040164512E-17 ) ) ;
#2 = ORIENTED_EDGE ( 'NONE', *, *, #275, .T. ) ;
#3 = DIRECTION ( 'NONE',  ( -0.0000000000000000000, -0.0000000000000000000, -1.000000000000000000 ) ) ;
#4 = ORIENTED_EDGE ( 'NONE', *, *, #321, .T. ) ;
#5 = DIRECTION ( 'NONE',  ( -1.000000000000000000, 0.0000000000000000000, 0.0000000000000000000 ) ) ;
#6 = PRODUCT_DEFINITION_CONTEXT ( 'detailed design', #324, 'design' ) ;
#7 = VERTEX_POINT ( 'NONE', #236 ) ;
#8 = AXIS2_PLACEMENT_3D ( 'NONE', #152, #229, #80 ) ;
#9 = FACE_OUTER_BOUND ( 'NONE', #288, .T. ) ;
#10 = CARTESIAN_POINT ( 'NONE',  ( 0.0000000000000000000, 0.0000000000000000000, 1.500000000000000222 ) ) ;
#11 = UNCERTAINTY_MEASURE_WITH_UNIT (LENGTH_MEASURE( 1.000000000000000082E-05 ), #210, 'distance_accuracy_value', 'NONE');
#12 = DIRECTION ( 'NONE',  ( -0.0000000000000000000, -0.0000000000000000000, -1.000000000000000000 ) ) ;
#13 = EDGE_CURVE ( 'NONE', #279, #225, #291, .T. ) ;
#14 = CARTESIAN_POINT ( 'NONE',  ( 0.0000000000000000000, 0.0000000000000000000, 1.485000000000000764 ) ) ;
#15 = CIRCLE ( 'NONE', #215, 0.06245000000000007490 ) ;
#16 = ADVANCED_FACE ( 'NONE', ( #111 ), #285, .T. ) ;
#17 = CIRCLE ( 'NONE', #227, 0.06250000000000000000 ) ;
#18 = COLOUR_RGB ( '',0.7921568627450980005, 0.8196078431372548767, 0.9333333333333333481 ) ;
#19 = SURFACE_STYLE_USAGE ( .BOTH. , #160 ) ;
#20 = EDGE_CURVE ( 'NONE', #31, #187, #317, .T. ) ;
#21 = VECTOR ( 'NONE', #325, 39.37007874015748143 ) ;
#22 = ORIENTED_EDGE ( 'NONE', *, *, #205, .F. ) ;
#23 = DIRECTION ( 'NONE',  ( 0.0000000000000000000, 0.0000000000000000000, 1.000000000000000000 ) ) ;
#24 = LINE ( 'NONE', #123, #21 ) ;
#25 = PRODUCT ( 'Micro_DM-125-290X', 'Micro_DM-125-290X', '', ( #174 ) ) ;
#26 = VERTEX_POINT ( 'NONE', #64 ) ;
#27 = DIRECTION ( 'NONE',  ( -1.000000000000000000, 0.0000000000000000000, 0.0000000000000000000 ) ) ;
#28 = ADVANCED_FACE ( 'NONE', ( #35 ), #92, .T. ) ;
#29 = ORIENTED_EDGE ( 'NONE', *, *, #20, .F. ) ;
#30 = FACE_OUTER_BOUND ( 'NONE', #252, .T. ) ;
#31 = VERTEX_POINT ( 'NONE', #190 ) ;
#32 = CARTESIAN_POINT ( 'NONE',  ( -0.06250000000000000000, 0.0000000000000000000, 0.5000000000000000000 ) ) ;
#33 = ORIENTED_EDGE ( 'NONE', *, *, #224, .T. ) ;
#34 = CARTESIAN_POINT ( 'NONE',  ( 0.0000000000000000000, 0.0000000000000000000, 1.500000000000000222 ) ) ;
#35 = FACE_OUTER_BOUND ( 'NONE', #257, .T. ) ;
#36 = UNCERTAINTY_MEASURE_WITH_UNIT (LENGTH_MEASURE( 1.000000000000000082E-05 ), #134, 'distance_accuracy_value', 'NONE');
#37 = VERTEX_POINT ( 'NONE', #164 ) ;
#38 = CIRCLE ( 'NONE', #266, 0.007499999999999999722 ) ;
#39 = ADVANCED_FACE ( 'NONE', ( #206, #315 ), #261, .T. ) ;
#40 = DIRECTION ( 'NONE',  ( -1.000000000000000000, 0.0000000000000000000, 0.0000000000000000000 ) ) ;
#41 = DIRECTION ( 'NONE',  ( 1.000000000000000000, 0.0000000000000000000, 0.0000000000000000000 ) ) ;
#42 = DIRECTION ( 'NONE',  ( -1.000000000000000000, 0.0000000000000000000, 0.0000000000000000000 ) ) ;
#43 = AXIS2_PLACEMENT_3D ( 'NONE', #234, #185, #238 ) ;
#44 = CARTESIAN_POINT ( 'NONE',  ( 0.0000000000000000000, 0.0000000000000000000, 0.5000000000000000000 ) ) ;
#45 = CARTESIAN_POINT ( 'NONE',  ( 0.0000000000000000000, 0.0000000000000000000, 0.0000000000000000000 ) ) ;
#46 = AXIS2_PLACEMENT_3D ( 'NONE', #196, #23, #222 ) ;
#47 = EDGE_LOOP ( 'NONE', ( #22, #247, #306, #131 ) ) ;
#48 = FILL_AREA_STYLE ('',( #245 ) ) ;
#49 = AXIS2_PLACEMENT_3D ( 'NONE', #233, #106, #312 ) ;
#50 = PLANE ( 'NONE',  #49 ) ;
#51 = PRESENTATION_LAYER_ASSIGNMENT (  '', '', ( #128 ) ) ;
#52 = ORIENTED_EDGE ( 'NONE', *, *, #93, .F. ) ;
#53 = CARTESIAN_POINT ( 'NONE',  ( 0.06245000000000001245, 0.0000000000000000000, 0.05494999999999978374 ) ) ;
#54 = FACE_OUTER_BOUND ( 'NONE', #148, .T. ) ;
#55 = DIRECTION ( 'NONE',  ( 0.0000000000000000000, 0.0000000000000000000, 1.000000000000000000 ) ) ;
#56 = VECTOR ( 'NONE', #12, 39.37007874015748143 ) ;
#57 = CIRCLE ( 'NONE', #242, 0.06250000000000000000 ) ;
#58 = ORIENTED_EDGE ( 'NONE', *, *, #228, .T. ) ;
#59 = DIMENSIONAL_EXPONENTS ( 1.000000000000000000, 0.0000000000000000000, 0.0000000000000000000, 0.0000000000000000000, 0.0000000000000000000, 0.0000000000000000000, 0.0000000000000000000 ) ;
#60 = DIRECTION ( 'NONE',  ( -0.0000000000000000000, -0.0000000000000000000, -1.000000000000000000 ) ) ;
#61 = FACE_OUTER_BOUND ( 'NONE', #97, .T. ) ;
#62 = FILL_AREA_STYLE ('',( #192 ) ) ;
#63 = CARTESIAN_POINT ( 'NONE',  ( 0.0000000000000000000, 0.0000000000000000000, 1.500000000000000222 ) ) ;
#64 = CARTESIAN_POINT ( 'NONE',  ( 0.06250000000000000000, 7.654042494670956004E-18, 0.5000000000000000000 ) ) ;
#65 = DIRECTION ( 'NONE',  ( 0.0000000000000000000, 0.0000000000000000000, 1.000000000000000000 ) ) ;
#66 = DIRECTION ( 'NONE',  ( 0.0000000000000000000, 0.0000000000000000000, 1.000000000000000000 ) ) ;
#67 = AXIS2_PLACEMENT_3D ( 'NONE', #133, #66, #85 ) ;
#68 =( NAMED_UNIT ( * ) SI_UNIT ( $, .STERADIAN. ) SOLID_ANGLE_UNIT ( ) );
#69 = CARTESIAN_POINT ( 'NONE',  ( 0.06250000000000000000, 7.654042494670956004E-18, 1.500000000000000222 ) ) ;
#70 = EDGE_CURVE ( 'NONE', #151, #279, #83, .T. ) ;
#71 = MECHANICAL_DESIGN_GEOMETRIC_PRESENTATION_REPRESENTATION (  '', ( #128 ), #163 ) ;
#72 = PRESENTATION_STYLE_ASSIGNMENT (( #269 ) ) ;
#73 = ORIENTED_EDGE ( 'NONE', *, *, #290, .F. ) ;
#74 = ORIENTED_EDGE ( 'NONE', *, *, #13, .T. ) ;
#75 = AXIS2_PLACEMENT_3D ( 'NONE', #63, #166, #283 ) ;
#76 = DIRECTION ( 'NONE',  ( 0.0000000000000000000, 0.0000000000000000000, 1.000000000000000000 ) ) ;
#77 = ORIENTED_EDGE ( 'NONE', *, *, #275, .F. ) ;
#78 = DIRECTION ( 'NONE',  ( 1.000000000000000000, 0.0000000000000000000, 0.0000000000000000000 ) ) ;
#79 = EDGE_LOOP ( 'NONE', ( #230, #259 ) ) ;
#80 = DIRECTION ( 'NONE',  ( -1.000000000000000000, 0.0000000000000000000, 0.0000000000000000000 ) ) ;
#81 = ADVANCED_FACE ( 'NONE', ( #61 ), #107, .T. ) ;
#82 = CARTESIAN_POINT ( 'NONE',  ( -0.06245000000000001245, 7.647919260675222641E-18, 0.05494999999999978374 ) ) ;
#83 = LINE ( 'NONE', #113, #280 ) ;
#84 =( LENGTH_UNIT ( ) NAMED_UNIT ( * ) SI_UNIT ( $, .METRE. ) );
#85 = DIRECTION ( 'NONE',  ( 1.000000000000000000, 0.0000000000000000000, 0.0000000000000000000 ) ) ;
#86 = DIRECTION ( 'NONE',  ( 1.000000000000000000, 0.0000000000000000000, 0.0000000000000000000 ) ) ;
#87 = ORIENTED_EDGE ( 'NONE', *, *, #243, .T. ) ;
#88 = CARTESIAN_POINT ( 'NONE',  ( -0.06250000000000000000, 0.0000000000000000000, 1.500000000000000222 ) ) ;
#89 = AXIS2_PLACEMENT_3D ( 'NONE', #208, #3, #27 ) ;
#90 = DIRECTION ( 'NONE',  ( 0.7071067811865456854, 8.659560562354911904E-17, -0.7071067811865493491 ) ) ;
#91 = CIRCLE ( 'NONE', #271, 0.04750000000000064587 ) ;
#92 = CONICAL_SURFACE ( 'NONE', #67, 0.007499999999999999722, 0.7853981633974506105 ) ;
#93 = EDGE_CURVE ( 'NONE', #26, #177, #17, .T. ) ;
#94 = ORIENTED_EDGE ( 'NONE', *, *, #216, .F. ) ;
#95 = APPLICATION_PROTOCOL_DEFINITION ( 'draft international standard', 'automotive_design', 1998, #324 ) ;
#96 = DIRECTION ( 'NONE',  ( -0.0000000000000000000, -0.0000000000000000000, -1.000000000000000000 ) ) ;
#97 = EDGE_LOOP ( 'NONE', ( #221, #203, #153, #108 ) ) ;
#98 = FACE_OUTER_BOUND ( 'NONE', #47, .T. ) ;
#99 = ORIENTED_EDGE ( 'NONE', *, *, #205, .T. ) ;
#100 = EDGE_CURVE ( 'NONE', #136, #31, #322, .T. ) ;
#101 = ADVANCED_FACE ( 'NONE', ( #231 ), #226, .T. ) ;
#102 = CARTESIAN_POINT ( 'NONE',  ( 0.0000000000000000000, 0.0000000000000000000, 0.5000000000000000000 ) ) ;
#103 = ORIENTED_EDGE ( 'NONE', *, *, #216, .T. ) ;
#104 = CARTESIAN_POINT ( 'NONE',  ( -0.04750000000000064587, 0.0000000000000000000, 1.500000000000000222 ) ) ;
#105 = ORIENTED_EDGE ( 'NONE', *, *, #329, .T. ) ;
#106 = DIRECTION ( 'NONE',  ( 0.0000000000000000000, 0.0000000000000000000, 1.000000000000000000 ) ) ;
#107 = CONICAL_SURFACE ( 'NONE', #75, 0.04750000000000064587, 0.7853981633974457255 ) ;
#108 = ORIENTED_EDGE ( 'NONE', *, *, #13, .F. ) ;
#109 = LINE ( 'NONE', #69, #303 ) ;
#110 = UNCERTAINTY_MEASURE_WITH_UNIT (LENGTH_MEASURE( 1.000000000000000082E-05 ), #323, 'distance_accuracy_value', 'NONE');
#111 = FACE_OUTER_BOUND ( 'NONE', #297, .T. ) ;
#112 =( NAMED_UNIT ( * ) SI_UNIT ( $, .STERADIAN. ) SOLID_ANGLE_UNIT ( ) );
#113 = CARTESIAN_POINT ( 'NONE',  ( 0.04750000000000064587, 5.817072295950006528E-18, 1.500000000000000222 ) ) ;
#114 = DIRECTION ( 'NONE',  ( -0.0000000000000000000, -0.0000000000000000000, -1.000000000000000000 ) ) ;
#115 = AXIS2_PLACEMENT_3D ( 'NONE', #45, #143, #165 ) ;
#116 = CONICAL_SURFACE ( 'NONE', #191, 0.007499999999999999722, 0.7853981633974506105 ) ;
#117 = PRODUCT_DEFINITION ( 'UNKNOWN', '', #169, #6 ) ;
#118 = DIRECTION ( 'NONE',  ( -0.0000000000000000000, -0.0000000000000000000, -1.000000000000000000 ) ) ;
#119 = SURFACE_SIDE_STYLE ('',( #298 ) ) ;
#120 = AXIS2_PLACEMENT_3D ( 'NONE', #251, #125, #176 ) ;
#121 = EDGE_LOOP ( 'NONE', ( #73, #74, #2, #52 ) ) ;
#122 =( LENGTH_UNIT ( ) NAMED_UNIT ( * ) SI_UNIT ( $, .METRE. ) );
#123 = CARTESIAN_POINT ( 'NONE',  ( -0.007499999999999999722, 9.184850993605147975E-19, 1.707404996040164512E-17 ) ) ;
#124 = ORIENTED_EDGE ( 'NONE', *, *, #228, .F. ) ;
#125 = DIRECTION ( 'NONE',  ( -0.0000000000000000000, -0.0000000000000000000, -1.000000000000000000 ) ) ;
#126 = EDGE_CURVE ( 'NONE', #7, #37, #38, .T. ) ;
#127 = CIRCLE ( 'NONE', #220, 0.04750000000000064587 ) ;
#128 = STYLED_ITEM ( 'NONE', ( #72 ), #267 ) ;
#129 = CARTESIAN_POINT ( 'NONE',  ( 0.0000000000000000000, 0.0000000000000000000, 1.500000000000000222 ) ) ;
#130 = DIRECTION ( 'NONE',  ( -0.0000000000000000000, -0.0000000000000000000, -1.000000000000000000 ) ) ;
#131 = ORIENTED_EDGE ( 'NONE', *, *, #188, .F. ) ;
#132 = LINE ( 'NONE', #254, #311 ) ;
#133 = CARTESIAN_POINT ( 'NONE',  ( 0.0000000000000000000, 0.0000000000000000000, 1.707404996040164512E-17 ) ) ;
#134 =( CONVERSION_BASED_UNIT ( 'INCH', #287 ) LENGTH_UNIT ( ) NAMED_UNIT ( #308 ) );
#135 = VECTOR ( 'NONE', #147, 39.37007874015748143 ) ;
#136 = VERTEX_POINT ( 'NONE', #178 ) ;
#137 = CARTESIAN_POINT ( 'NONE',  ( 0.0000000000000000000, 0.0000000000000000000, 0.05494999999999977680 ) ) ;
#138 = ORIENTED_EDGE ( 'NONE', *, *, #290, .T. ) ;
#139 = CARTESIAN_POINT ( 'NONE',  ( 0.0000000000000000000, 0.0000000000000000000, 0.5000000000000000000 ) ) ;
#140 = AXIS2_PLACEMENT_3D ( 'NONE', #102, #96, #5 ) ;
#141 = CYLINDRICAL_SURFACE ( 'NONE', #115, 0.06245000000000004020 ) ;
#142 =( GEOMETRIC_REPRESENTATION_CONTEXT ( 3 ) GLOBAL_UNCERTAINTY_ASSIGNED_CONTEXT ( ( #36 ) ) GLOBAL_UNIT_ASSIGNED_CONTEXT ( ( #134, #237, #112 ) ) REPRESENTATION_CONTEXT ( 'NONE', 'WORKASPACE' ) );
#143 = DIRECTION ( 'NONE',  ( -0.0000000000000000000, -0.0000000000000000000, -1.000000000000000000 ) ) ;
#144 =( NAMED_UNIT ( * ) SI_UNIT ( $, .STERADIAN. ) SOLID_ANGLE_UNIT ( ) );
#145 = EDGE_CURVE ( 'NONE', #37, #7, #181, .T. ) ;
#146 = AXIS2_PLACEMENT_3D ( 'NONE', #273, #60, #223 ) ;
#147 = DIRECTION ( 'NONE',  ( 0.7071067811865491270, 0.0000000000000000000, 0.7071067811865459074 ) ) ;
#148 = EDGE_LOOP ( 'NONE', ( #274, #159, #183, #326 ) ) ;
#149 = PRODUCT_DEFINITION_SHAPE ( 'NONE', 'NONE',  #117 ) ;
#150 = CARTESIAN_POINT ( 'NONE',  ( 0.0000000000000000000, 0.0000000000000000000, 1.500000000000000222 ) ) ;
#151 = VERTEX_POINT ( 'NONE', #307 ) ;
#152 = CARTESIAN_POINT ( 'NONE',  ( 0.0000000000000000000, 0.0000000000000000000, 1.500000000000000222 ) ) ;
#153 = ORIENTED_EDGE ( 'NONE', *, *, #304, .T. ) ;
#154 = PRESENTATION_LAYER_ASSIGNMENT (  '', '', ( #248 ) ) ;
#155 = DIRECTION ( 'NONE',  ( 1.000000000000000000, 0.0000000000000000000, -0.0000000000000000000 ) ) ;
#156 = ORIENTED_EDGE ( 'NONE', *, *, #224, .F. ) ;
#157 = DIMENSIONAL_EXPONENTS ( 1.000000000000000000, 0.0000000000000000000, 0.0000000000000000000, 0.0000000000000000000, 0.0000000000000000000, 0.0000000000000000000, 0.0000000000000000000 ) ;
#158 = DIRECTION ( 'NONE',  ( -0.0000000000000000000, -0.0000000000000000000, -1.000000000000000000 ) ) ;
#159 = ORIENTED_EDGE ( 'NONE', *, *, #70, .T. ) ;
#160 = SURFACE_SIDE_STYLE ('',( #235 ) ) ;
#161 = ORIENTED_EDGE ( 'NONE', *, *, #145, .F. ) ;
#162 = EDGE_CURVE ( 'NONE', #209, #151, #127, .T. ) ;
#163 =( GEOMETRIC_REPRESENTATION_CONTEXT ( 3 ) GLOBAL_UNCERTAINTY_ASSIGNED_CONTEXT ( ( #110 ) ) GLOBAL_UNIT_ASSIGNED_CONTEXT ( ( #323, #294, #144 ) ) REPRESENTATION_CONTEXT ( 'NONE', 'WORKASPACE' ) );
#164 = CARTESIAN_POINT ( 'NONE',  ( 0.007499999999999999722, 0.0000000000000000000, 1.707404996040164512E-17 ) ) ;
#165 = DIRECTION ( 'NONE',  ( -1.000000000000000000, 0.0000000000000000000, 0.0000000000000000000 ) ) ;
#166 = DIRECTION ( 'NONE',  ( 0.0000000000000000000, 0.0000000000000000000, -1.000000000000000000 ) ) ;
#167 = ADVANCED_FACE ( 'NONE', ( #54 ), #318, .T. ) ;
#168 = AXIS2_PLACEMENT_3D ( 'NONE', #204, #309, #182 ) ;
#169 = PRODUCT_DEFINITION_FORMATION_WITH_SPECIFIED_SOURCE ( 'ANY', '', #25, .NOT_KNOWN. ) ;
#170 = DIRECTION ( 'NONE',  ( 0.0000000000000000000, 0.0000000000000000000, -1.000000000000000000 ) ) ;
#171 = AXIS2_PLACEMENT_3D ( 'NONE', #10, #289, #40 ) ;
#172 = ORIENTED_EDGE ( 'NONE', *, *, #100, .F. ) ;
#173 = LINE ( 'NONE', #270, #135 ) ;
#174 = PRODUCT_CONTEXT ( 'NONE', #292, 'mechanical' ) ;
#175 = CIRCLE ( 'NONE', #281, 0.06245000000000000551 ) ;
#176 = DIRECTION ( 'NONE',  ( -1.000000000000000000, 0.0000000000000000000, 0.0000000000000000000 ) ) ;
#177 = VERTEX_POINT ( 'NONE', #32 ) ;
#178 = CARTESIAN_POINT ( 'NONE',  ( 0.06245000000000006796, 7.647919260675228804E-18, 0.5000000000000000000 ) ) ;
#179 = EDGE_LOOP ( 'NONE', ( #103, #255 ) ) ;
#180 = CARTESIAN_POINT ( 'NONE',  ( 0.0000000000000000000, 0.0000000000000000000, 1.707404996040164512E-17 ) ) ;
#181 = CIRCLE ( 'NONE', #246, 0.007499999999999999722 ) ;
#182 = DIRECTION ( 'NONE',  ( -1.000000000000000000, 0.0000000000000000000, 0.0000000000000000000 ) ) ;
#183 = ORIENTED_EDGE ( 'NONE', *, *, #319, .F. ) ;
#184 =( LENGTH_UNIT ( ) NAMED_UNIT ( * ) SI_UNIT ( $, .METRE. ) );
#185 = DIRECTION ( 'NONE',  ( -0.0000000000000000000, 0.0000000000000000000, -1.000000000000000000 ) ) ;
#186 = ADVANCED_FACE ( 'NONE', ( #249 ), #116, .T. ) ;
#187 = VERTEX_POINT ( 'NONE', #82 ) ;
#188 = EDGE_CURVE ( 'NONE', #232, #187, #213, .T. ) ;
#189 = CARTESIAN_POINT ( 'NONE',  ( 0.06250000000000000000, 7.654042494670956004E-18, 1.485000000000000764 ) ) ;
#190 = CARTESIAN_POINT ( 'NONE',  ( -0.06245000000000007490, 0.0000000000000000000, 0.5000000000000000000 ) ) ;
#191 = AXIS2_PLACEMENT_3D ( 'NONE', #180, #76, #78 ) ;
#192 = FILL_AREA_STYLE_COLOUR ( '', #207 ) ;
#193 = LENGTH_MEASURE_WITH_UNIT ( LENGTH_MEASURE( 0.02539999999999999897 ), #122 );
#194 = ADVANCED_FACE ( 'NONE', ( #30 ), #278, .T. ) ;
#195 = VECTOR ( 'NONE', #239, 39.37007874015748143 ) ;
#196 = CARTESIAN_POINT ( 'NONE',  ( 0.0000000000000000000, 0.0000000000000000000, 0.0000000000000000000 ) ) ;
#197 = APPLICATION_PROTOCOL_DEFINITION ( 'draft international standard', 'automotive_design', 1998, #292 ) ;
#198 = DIRECTION ( 'NONE',  ( -1.000000000000000000, 0.0000000000000000000, 0.0000000000000000000 ) ) ;
#199 = MECHANICAL_DESIGN_GEOMETRIC_PRESENTATION_REPRESENTATION (  '', ( #248 ), #268 ) ;
#200 = FACE_OUTER_BOUND ( 'NONE', #79, .T. ) ;
#201 = EDGE_LOOP ( 'NONE', ( #299, #172 ) ) ;
#202 = DIRECTION ( 'NONE',  ( -0.0000000000000000000, -0.0000000000000000000, -1.000000000000000000 ) ) ;
#203 = ORIENTED_EDGE ( 'NONE', *, *, #162, .F. ) ;
#204 = CARTESIAN_POINT ( 'NONE',  ( 0.0000000000000000000, 0.0000000000000000000, 0.5000000000000000000 ) ) ;
#205 = EDGE_CURVE ( 'NONE', #136, #232, #132, .T. ) ;
#206 = FACE_BOUND ( 'NONE', #201, .T. ) ;
#207 = COLOUR_RGB ( '',0.7921568627450980005, 0.8196078431372548767, 0.9333333333333333481 ) ;
#208 = CARTESIAN_POINT ( 'NONE',  ( 0.0000000000000000000, 0.0000000000000000000, 1.500000000000000222 ) ) ;
#209 = VERTEX_POINT ( 'NONE', #104 ) ;
#210 =( CONVERSION_BASED_UNIT ( 'INCH', #260 ) LENGTH_UNIT ( ) NAMED_UNIT ( #59 ) );
#211 = DIRECTION ( 'NONE',  ( 1.000000000000000000, 0.0000000000000000000, 0.0000000000000000000 ) ) ;
#212 = DIRECTION ( 'NONE',  ( 0.0000000000000000000, 0.0000000000000000000, -1.000000000000000000 ) ) ;
#213 = CIRCLE ( 'NONE', #120, 0.06245000000000000551 ) ;
#214 =( NAMED_UNIT ( * ) PLANE_ANGLE_UNIT ( ) SI_UNIT ( $, .RADIAN. ) );
#215 = AXIS2_PLACEMENT_3D ( 'NONE', #44, #284, #241 ) ;
#216 = EDGE_CURVE ( 'NONE', #177, #26, #253, .T. ) ;
#217 = ADVANCED_FACE ( 'NONE', ( #98 ), #282, .T. ) ;
#218 = DIRECTION ( 'NONE',  ( -0.0000000000000000000, -0.0000000000000000000, -1.000000000000000000 ) ) ;
#219 = ADVANCED_FACE ( 'NONE', ( #200 ), #50, .F. ) ;
#220 = AXIS2_PLACEMENT_3D ( 'NONE', #129, #256, #276 ) ;
#221 = ORIENTED_EDGE ( 'NONE', *, *, #70, .F. ) ;
#222 = DIRECTION ( 'NONE',  ( 1.000000000000000000, 0.0000000000000000000, 0.0000000000000000000 ) ) ;
#223 = DIRECTION ( 'NONE',  ( -1.000000000000000000, 0.0000000000000000000, 0.0000000000000000000 ) ) ;
#224 = EDGE_CURVE ( 'NONE', #37, #232, #173, .T. ) ;
#225 = VERTEX_POINT ( 'NONE', #305 ) ;
#226 = CYLINDRICAL_SURFACE ( 'NONE', #89, 0.06250000000000000000 ) ;
#227 = AXIS2_PLACEMENT_3D ( 'NONE', #139, #262, #42 ) ;
#228 = EDGE_CURVE ( 'NONE', #7, #187, #24, .T. ) ;
#229 = DIRECTION ( 'NONE',  ( 0.0000000000000000000, 0.0000000000000000000, -1.000000000000000000 ) ) ;
#230 = ORIENTED_EDGE ( 'NONE', *, *, #145, .T. ) ;
#231 = FACE_OUTER_BOUND ( 'NONE', #121, .T. ) ;
#232 = VERTEX_POINT ( 'NONE', #53 ) ;
#233 = CARTESIAN_POINT ( 'NONE',  ( 0.0000000000000000000, 0.0000000000000000000, 0.0000000000000000000 ) ) ;
#234 = CARTESIAN_POINT ( 'NONE',  ( 0.06245000000000007490, 0.0000000000000000000, 0.5000000000000000000 ) ) ;
#235 = SURFACE_STYLE_FILL_AREA ( #62 ) ;
#236 = CARTESIAN_POINT ( 'NONE',  ( -0.007499999999999999722, 4.283202180017868527E-18, 1.707404996040164512E-17 ) ) ;
#237 =( NAMED_UNIT ( * ) PLANE_ANGLE_UNIT ( ) SI_UNIT ( $, .RADIAN. ) );
#238 = DIRECTION ( 'NONE',  ( -1.000000000000000000, 0.0000000000000000000, 0.0000000000000000000 ) ) ;
#239 = DIRECTION ( 'NONE',  ( -0.7071067811865456854, 0.0000000000000000000, -0.7071067811865493491 ) ) ;
#240 = ORIENTED_EDGE ( 'NONE', *, *, #162, .T. ) ;
#241 = DIRECTION ( 'NONE',  ( -1.000000000000000000, 0.0000000000000000000, 0.0000000000000000000 ) ) ;
#242 = AXIS2_PLACEMENT_3D ( 'NONE', #293, #170, #86 ) ;
#243 = EDGE_CURVE ( 'NONE', #151, #209, #91, .T. ) ;
#244 = PRESENTATION_STYLE_ASSIGNMENT (( #19 ) ) ;
#245 = FILL_AREA_STYLE_COLOUR ( '', #18 ) ;
#246 = AXIS2_PLACEMENT_3D ( 'NONE', #301, #158, #327 ) ;
#247 = ORIENTED_EDGE ( 'NONE', *, *, #100, .T. ) ;
#248 = STYLED_ITEM ( 'NONE', ( #244 ), #296 ) ;
#249 = FACE_OUTER_BOUND ( 'NONE', #328, .T. ) ;
#250 = ORIENTED_EDGE ( 'NONE', *, *, #321, .F. ) ;
#251 = CARTESIAN_POINT ( 'NONE',  ( 0.0000000000000000000, 0.0000000000000000000, 0.05494999999999977680 ) ) ;
#252 = EDGE_LOOP ( 'NONE', ( #240, #87 ) ) ;
#253 = CIRCLE ( 'NONE', #168, 0.06250000000000000000 ) ;
#254 = CARTESIAN_POINT ( 'NONE',  ( 0.06245000000000004020, 7.647919260675225723E-18, 0.0000000000000000000 ) ) ;
#255 = ORIENTED_EDGE ( 'NONE', *, *, #93, .T. ) ;
#256 = DIRECTION ( 'NONE',  ( 0.0000000000000000000, 0.0000000000000000000, 1.000000000000000000 ) ) ;
#257 = EDGE_LOOP ( 'NONE', ( #124, #161, #33, #310 ) ) ;
#258 = LINE ( 'NONE', #314, #195 ) ;
#259 = ORIENTED_EDGE ( 'NONE', *, *, #126, .T. ) ;
#260 = LENGTH_MEASURE_WITH_UNIT ( LENGTH_MEASURE( 0.02539999999999999897 ), #184 );
#261 = PLANE ( 'NONE',  #43 ) ;
#262 = DIRECTION ( 'NONE',  ( -0.0000000000000000000, -0.0000000000000000000, -1.000000000000000000 ) ) ;
#263 = AXIS2_PLACEMENT_3D ( 'NONE', #14, #212, #211 ) ;
#264 = DIRECTION ( 'NONE',  ( -1.000000000000000000, 0.0000000000000000000, 0.0000000000000000000 ) ) ;
#265 = PRODUCT_RELATED_PRODUCT_CATEGORY ( 'part', '', ( #25 ) ) ;
#266 = AXIS2_PLACEMENT_3D ( 'NONE', #1, #202, #198 ) ;
#267 = ADVANCED_BREP_SHAPE_REPRESENTATION ( 'Micro_DM-125-290X', ( #296, #46 ), #142 ) ;
#268 =( GEOMETRIC_REPRESENTATION_CONTEXT ( 3 ) GLOBAL_UNCERTAINTY_ASSIGNED_CONTEXT ( ( #11 ) ) GLOBAL_UNIT_ASSIGNED_CONTEXT ( ( #210, #214, #68 ) ) REPRESENTATION_CONTEXT ( 'NONE', 'WORKASPACE' ) );
#269 = SURFACE_STYLE_USAGE ( .BOTH. , #119 ) ;
#270 = CARTESIAN_POINT ( 'NONE',  ( 0.007499999999999999722, 0.0000000000000000000, 1.707404996040164512E-17 ) ) ;
#271 = AXIS2_PLACEMENT_3D ( 'NONE', #150, #65, #41 ) ;
#272 = ORIENTED_EDGE ( 'NONE', *, *, #319, .T. ) ;
#273 = CARTESIAN_POINT ( 'NONE',  ( 0.0000000000000000000, 0.0000000000000000000, 0.0000000000000000000 ) ) ;
#274 = ORIENTED_EDGE ( 'NONE', *, *, #243, .F. ) ;
#275 = EDGE_CURVE ( 'NONE', #225, #177, #316, .T. ) ;
#276 = DIRECTION ( 'NONE',  ( 1.000000000000000000, 0.0000000000000000000, 0.0000000000000000000 ) ) ;
#277 = ORIENTED_EDGE ( 'NONE', *, *, #126, .F. ) ;
#278 = PLANE ( 'NONE',  #302 ) ;
#279 = VERTEX_POINT ( 'NONE', #189 ) ;
#280 = VECTOR ( 'NONE', #90, 39.37007874015748143 ) ;
#281 = AXIS2_PLACEMENT_3D ( 'NONE', #137, #118, #264 ) ;
#282 = CYLINDRICAL_SURFACE ( 'NONE', #146, 0.06245000000000004020 ) ;
#283 = DIRECTION ( 'NONE',  ( -1.000000000000000000, 0.0000000000000000000, 0.0000000000000000000 ) ) ;
#284 = DIRECTION ( 'NONE',  ( -0.0000000000000000000, -0.0000000000000000000, -1.000000000000000000 ) ) ;
#285 = CYLINDRICAL_SURFACE ( 'NONE', #171, 0.06250000000000000000 ) ;
#286 = ADVANCED_FACE ( 'NONE', ( #9 ), #141, .T. ) ;
#287 = LENGTH_MEASURE_WITH_UNIT ( LENGTH_MEASURE( 0.02539999999999999897 ), #84 );
#288 = EDGE_LOOP ( 'NONE', ( #105, #99, #250, #29 ) ) ;
#289 = DIRECTION ( 'NONE',  ( -0.0000000000000000000, -0.0000000000000000000, -1.000000000000000000 ) ) ;
#290 = EDGE_CURVE ( 'NONE', #279, #26, #109, .T. ) ;
#291 = CIRCLE ( 'NONE', #263, 0.06250000000000000000 ) ;
#292 = APPLICATION_CONTEXT ( 'automotive_design' ) ;
#293 = CARTESIAN_POINT ( 'NONE',  ( 0.0000000000000000000, 0.0000000000000000000, 1.485000000000000764 ) ) ;
#294 =( NAMED_UNIT ( * ) PLANE_ANGLE_UNIT ( ) SI_UNIT ( $, .RADIAN. ) );
#295 = CLOSED_SHELL ( 'NONE', ( #286, #186, #167, #16, #101, #194, #81, #39, #28, #217, #219 ) ) ;
#296 = MANIFOLD_SOLID_BREP ( 'Cut-Revolve4', #295 ) ;
#297 = EDGE_LOOP ( 'NONE', ( #272, #138, #94, #77 ) ) ;
#298 = SURFACE_STYLE_FILL_AREA ( #48 ) ;
#299 = ORIENTED_EDGE ( 'NONE', *, *, #329, .F. ) ;
#300 = SHAPE_DEFINITION_REPRESENTATION ( #149, #267 ) ;
#301 = CARTESIAN_POINT ( 'NONE',  ( 0.0000000000000000000, 0.0000000000000000000, 1.707404996040164512E-17 ) ) ;
#302 = AXIS2_PLACEMENT_3D ( 'NONE', #34, #55, #155 ) ;
#303 = VECTOR ( 'NONE', #218, 39.37007874015748143 ) ;
#304 = EDGE_CURVE ( 'NONE', #209, #225, #258, .T. ) ;
#305 = CARTESIAN_POINT ( 'NONE',  ( -0.06250000000000000000, 0.0000000000000000000, 1.485000000000000764 ) ) ;
#306 = ORIENTED_EDGE ( 'NONE', *, *, #20, .T. ) ;
#307 = CARTESIAN_POINT ( 'NONE',  ( 0.04750000000000064587, 6.735557395310482421E-18, 1.500000000000000222 ) ) ;
#308 = DIMENSIONAL_EXPONENTS ( 1.000000000000000000, 0.0000000000000000000, 0.0000000000000000000, 0.0000000000000000000, 0.0000000000000000000, 0.0000000000000000000, 0.0000000000000000000 ) ;
#309 = DIRECTION ( 'NONE',  ( -0.0000000000000000000, -0.0000000000000000000, -1.000000000000000000 ) ) ;
#310 = ORIENTED_EDGE ( 'NONE', *, *, #188, .T. ) ;
#311 = VECTOR ( 'NONE', #130, 39.37007874015748143 ) ;
#312 = DIRECTION ( 'NONE',  ( 1.000000000000000000, 0.0000000000000000000, -0.0000000000000000000 ) ) ;
#313 = CARTESIAN_POINT ( 'NONE',  ( -0.06245000000000004020, 0.0000000000000000000, 0.0000000000000000000 ) ) ;
#314 = CARTESIAN_POINT ( 'NONE',  ( -0.04750000000000064587, 0.0000000000000000000, 1.500000000000000222 ) ) ;
#315 = FACE_OUTER_BOUND ( 'NONE', #179, .T. ) ;
#316 = LINE ( 'NONE', #88, #320 ) ;
#317 = LINE ( 'NONE', #313, #56 ) ;
#318 = CONICAL_SURFACE ( 'NONE', #8, 0.04750000000000064587, 0.7853981633974457255 ) ;
#319 = EDGE_CURVE ( 'NONE', #225, #279, #57, .T. ) ;
#320 = VECTOR ( 'NONE', #114, 39.37007874015748143 ) ;
#321 = EDGE_CURVE ( 'NONE', #187, #232, #175, .T. ) ;
#322 = CIRCLE ( 'NONE', #140, 0.06245000000000007490 ) ;
#323 =( CONVERSION_BASED_UNIT ( 'INCH', #193 ) LENGTH_UNIT ( ) NAMED_UNIT ( #157 ) );
#324 = APPLICATION_CONTEXT ( 'automotive_design' ) ;
#325 = DIRECTION ( 'NONE',  ( -0.7071067811865491270, 8.659560562354952580E-17, 0.7071067811865459074 ) ) ;
#326 = ORIENTED_EDGE ( 'NONE', *, *, #304, .F. ) ;
#327 = DIRECTION ( 'NONE',  ( -1.000000000000000000, 0.0000000000000000000, 0.0000000000000000000 ) ) ;
#328 = EDGE_LOOP ( 'NONE', ( #277, #58, #4, #156 ) ) ;
#329 = EDGE_CURVE ( 'NONE', #31, #136, #15, .T. ) ;
ENDSEC;
END-ISO-10303-21;
