ISO-10303-21;
HEADER;
FILE_DESCRIPTION (( 'STEP AP214' ),
    '1' );
FILE_NAME ('Micro_RSC-312-14.STEP',
    '2021-09-03T17:50:34',
    ( '' ),
    ( '' ),
    'SwSTEP 2.0',
    'SolidWorks 2020',
    '' );
FILE_SCHEMA (( 'AUTOMOTIVE_DESIGN' ));
ENDSEC;

DATA;
#1 = CIRCLE ( 'NONE', #198, 0.1562500000000000000 ) ;
#2 = DIRECTION ( 'NONE',  ( -1.000000000000000000, 0.0000000000000000000, 0.0000000000000000000 ) ) ;
#3 = SHAPE_DEFINITION_REPRESENTATION ( #81, #80 ) ;
#4 = AXIS2_PLACEMENT_3D ( 'NONE', #125, #246, #158 ) ;
#5 = CARTESIAN_POINT ( 'NONE',  ( -0.1412500000000000422, 0.0000000000000000000, 4.000000000000000000 ) ) ;
#6 = ORIENTED_EDGE ( 'NONE', *, *, #150, .F. ) ;
#7 = LENGTH_MEASURE_WITH_UNIT ( LENGTH_MEASURE( 0.02539999999999999897 ), #48 );
#8 = CONICAL_SURFACE ( 'NONE', #142, 0.1412500000000000422, 0.7853981633974391752 ) ;
#9 = ORIENTED_EDGE ( 'NONE', *, *, #177, .T. ) ;
#10 = EDGE_CURVE ( 'NONE', #139, #191, #118, .T. ) ;
#11 = ORIENTED_EDGE ( 'NONE', *, *, #108, .T. ) ;
#12 = ORIENTED_EDGE ( 'NONE', *, *, #108, .F. ) ;
#13 = FACE_OUTER_BOUND ( 'NONE', #116, .T. ) ;
#14 = CIRCLE ( 'NONE', #71, 0.003999999999999999216 ) ;
#15 = CARTESIAN_POINT ( 'NONE',  ( 0.0000000000000000000, 0.0000000000000000000, 3.984999999999999876 ) ) ;
#16 = PRODUCT_RELATED_PRODUCT_CATEGORY ( 'part', '', ( #162 ) ) ;
#17 = FACE_OUTER_BOUND ( 'NONE', #194, .T. ) ;
#18 = ORIENTED_EDGE ( 'NONE', *, *, #214, .F. ) ;
#19 = DIRECTION ( 'NONE',  ( -1.000000000000000000, 0.0000000000000000000, 0.0000000000000000000 ) ) ;
#20 = CARTESIAN_POINT ( 'NONE',  ( 0.0000000000000000000, 0.0000000000000000000, 0.0000000000000000000 ) ) ;
#21 = ADVANCED_FACE ( 'NONE', ( #13 ), #8, .T. ) ;
#22 = DIRECTION ( 'NONE',  ( 0.0000000000000000000, 0.0000000000000000000, 1.000000000000000000 ) ) ;
#23 = DIRECTION ( 'NONE',  ( 0.0000000000000000000, 0.0000000000000000000, 1.000000000000000000 ) ) ;
#24 = CARTESIAN_POINT ( 'NONE',  ( 0.0000000000000000000, 0.0000000000000000000, 4.000000000000000000 ) ) ;
#25 = CIRCLE ( 'NONE', #176, 0.1562500000000000000 ) ;
#26 = DIRECTION ( 'NONE',  ( -0.5000000000000012212, 6.123233995736780827E-17, 0.8660254037844377084 ) ) ;
#27 = VECTOR ( 'NONE', #26, 39.37007874015748854 ) ;
#28 = PLANE ( 'NONE',  #93 ) ;
#29 =( CONVERSION_BASED_UNIT ( 'INCH', #171 ) LENGTH_UNIT ( ) NAMED_UNIT ( #119 ) );
#30 = EDGE_CURVE ( 'NONE', #151, #172, #1, .T. ) ;
#31 = PRESENTATION_STYLE_ASSIGNMENT (( #173 ) ) ;
#32 = EDGE_LOOP ( 'NONE', ( #9, #221 ) ) ;
#33 = ORIENTED_EDGE ( 'NONE', *, *, #10, .F. ) ;
#34 = EDGE_LOOP ( 'NONE', ( #75, #195, #117, #98 ) ) ;
#35 = ORIENTED_EDGE ( 'NONE', *, *, #196, .F. ) ;
#36 = CARTESIAN_POINT ( 'NONE',  ( 0.0000000000000000000, 0.0000000000000000000, 0.0000000000000000000 ) ) ;
#37 = AXIS2_PLACEMENT_3D ( 'NONE', #178, #85, #218 ) ;
#38 = CARTESIAN_POINT ( 'NONE',  ( 0.003999999999999999216, 0.0000000000000000000, 0.0000000000000000000 ) ) ;
#39 = DIRECTION ( 'NONE',  ( 0.0000000000000000000, 0.0000000000000000000, -1.000000000000000000 ) ) ;
#40 = DIRECTION ( 'NONE',  ( 1.000000000000000000, 0.0000000000000000000, 0.0000000000000000000 ) ) ;
#41 = SURFACE_SIDE_STYLE ('',( #219 ) ) ;
#42 = PRESENTATION_LAYER_ASSIGNMENT (  '', '', ( #231 ) ) ;
#43 = LINE ( 'NONE', #133, #27 ) ;
#44 = EDGE_CURVE ( 'NONE', #151, #120, #233, .T. ) ;
#45 = DIRECTION ( 'NONE',  ( -1.000000000000000000, 0.0000000000000000000, 0.0000000000000000000 ) ) ;
#46 = CARTESIAN_POINT ( 'NONE',  ( 0.1562500000000000000, 1.913510623667739463E-17, 0.2637047354523606724 ) ) ;
#47 = EDGE_LOOP ( 'NONE', ( #6, #123, #78, #33 ) ) ;
#48 =( LENGTH_UNIT ( ) NAMED_UNIT ( * ) SI_UNIT ( $, .METRE. ) );
#49 =( LENGTH_UNIT ( ) NAMED_UNIT ( * ) SI_UNIT ( $, .METRE. ) );
#50 = ORIENTED_EDGE ( 'NONE', *, *, #44, .T. ) ;
#51 = ORIENTED_EDGE ( 'NONE', *, *, #192, .T. ) ;
#52 = ORIENTED_EDGE ( 'NONE', *, *, #192, .F. ) ;
#53 = ORIENTED_EDGE ( 'NONE', *, *, #214, .T. ) ;
#54 = CIRCLE ( 'NONE', #203, 0.1412500000000000422 ) ;
#55 = ORIENTED_EDGE ( 'NONE', *, *, #82, .F. ) ;
#56 = LINE ( 'NONE', #88, #152 ) ;
#57 = EDGE_CURVE ( 'NONE', #241, #151, #128, .T. ) ;
#58 = DIRECTION ( 'NONE',  ( 1.000000000000000000, 0.0000000000000000000, 0.0000000000000000000 ) ) ;
#59 = DIRECTION ( 'NONE',  ( -0.0000000000000000000, -0.0000000000000000000, -1.000000000000000000 ) ) ;
#60 = CARTESIAN_POINT ( 'NONE',  ( 0.0000000000000000000, 0.0000000000000000000, 0.2637047354523606724 ) ) ;
#61 = MECHANICAL_DESIGN_GEOMETRIC_PRESENTATION_REPRESENTATION (  '', ( #62 ), #135 ) ;
#62 = STYLED_ITEM ( 'NONE', ( #202 ), #169 ) ;
#63 = PRODUCT_DEFINITION_FORMATION_WITH_SPECIFIED_SOURCE ( 'ANY', '', #162, .NOT_KNOWN. ) ;
#64 = DIRECTION ( 'NONE',  ( 1.000000000000000000, 0.0000000000000000000, 0.0000000000000000000 ) ) ;
#65 = PRODUCT_CONTEXT ( 'NONE', #89, 'mechanical' ) ;
#66 = PLANE ( 'NONE',  #222 ) ;
#67 =( CONVERSION_BASED_UNIT ( 'INCH', #7 ) LENGTH_UNIT ( ) NAMED_UNIT ( #170 ) );
#68 = CARTESIAN_POINT ( 'NONE',  ( 0.0000000000000000000, 0.0000000000000000000, 4.000000000000000000 ) ) ;
#69 = UNCERTAINTY_MEASURE_WITH_UNIT (LENGTH_MEASURE( 1.000000000000000082E-05 ), #29, 'distance_accuracy_value', 'NONE');
#70 = DIRECTION ( 'NONE',  ( 1.000000000000000000, 0.0000000000000000000, 0.0000000000000000000 ) ) ;
#71 = AXIS2_PLACEMENT_3D ( 'NONE', #141, #132, #149 ) ;
#72 = UNCERTAINTY_MEASURE_WITH_UNIT (LENGTH_MEASURE( 1.000000000000000082E-05 ), #186, 'distance_accuracy_value', 'NONE');
#73 = FILL_AREA_STYLE ('',( #79 ) ) ;
#74 = CONICAL_SURFACE ( 'NONE', #110, 0.003999999999999999216, 0.5235987755983003700 ) ;
#75 = ORIENTED_EDGE ( 'NONE', *, *, #240, .F. ) ;
#76 = ORIENTED_EDGE ( 'NONE', *, *, #234, .F. ) ;
#77 = ORIENTED_EDGE ( 'NONE', *, *, #136, .F. ) ;
#78 = ORIENTED_EDGE ( 'NONE', *, *, #136, .T. ) ;
#79 = FILL_AREA_STYLE_COLOUR ( '', #111 ) ;
#80 = ADVANCED_BREP_SHAPE_REPRESENTATION ( 'Micro_RSC-312-14', ( #169, #244 ), #157 ) ;
#81 = PRODUCT_DEFINITION_SHAPE ( 'NONE', 'NONE',  #229 ) ;
#82 = EDGE_CURVE ( 'NONE', #153, #172, #56, .T. ) ;
#83 = VECTOR ( 'NONE', #197, 39.37007874015748143 ) ;
#84 = MECHANICAL_DESIGN_GEOMETRIC_PRESENTATION_REPRESENTATION (  '', ( #231 ), #127 ) ;
#85 = DIRECTION ( 'NONE',  ( -0.0000000000000000000, -0.0000000000000000000, -1.000000000000000000 ) ) ;
#86 = DIRECTION ( 'NONE',  ( 0.0000000000000000000, 0.0000000000000000000, 1.000000000000000000 ) ) ;
#87 = FILL_AREA_STYLE_COLOUR ( '', #174 ) ;
#88 = CARTESIAN_POINT ( 'NONE',  ( 0.1412500000000000422, 1.729813603795636273E-17, 4.000000000000000000 ) ) ;
#89 = APPLICATION_CONTEXT ( 'automotive_design' ) ;
#90 = DIRECTION ( 'NONE',  ( -1.000000000000000000, 0.0000000000000000000, 0.0000000000000000000 ) ) ;
#91 = ADVANCED_FACE ( 'NONE', ( #215 ), #131, .T. ) ;
#92 = CIRCLE ( 'NONE', #217, 0.1562500000000000000 ) ;
#93 = AXIS2_PLACEMENT_3D ( 'NONE', #24, #22, #223 ) ;
#94 = CYLINDRICAL_SURFACE ( 'NONE', #99, 0.1562500000000000000 ) ;
#95 = DIRECTION ( 'NONE',  ( -0.0000000000000000000, -0.0000000000000000000, -1.000000000000000000 ) ) ;
#96 =( NAMED_UNIT ( * ) PLANE_ANGLE_UNIT ( ) SI_UNIT ( $, .RADIAN. ) );
#97 = AXIS2_PLACEMENT_3D ( 'NONE', #113, #165, #70 ) ;
#98 = ORIENTED_EDGE ( 'NONE', *, *, #196, .T. ) ;
#99 = AXIS2_PLACEMENT_3D ( 'NONE', #68, #112, #90 ) ;
#100 = ORIENTED_EDGE ( 'NONE', *, *, #30, .T. ) ;
#101 = DIRECTION ( 'NONE',  ( 0.0000000000000000000, 0.0000000000000000000, -1.000000000000000000 ) ) ;
#102 = CYLINDRICAL_SURFACE ( 'NONE', #37, 0.1562500000000000000 ) ;
#103 = CARTESIAN_POINT ( 'NONE',  ( 0.1412500000000000422, 1.821662113731687868E-17, 4.000000000000000000 ) ) ;
#104 = ADVANCED_FACE ( 'NONE', ( #17 ), #102, .T. ) ;
#105 = DIRECTION ( 'NONE',  ( 1.000000000000000000, 0.0000000000000000000, 0.0000000000000000000 ) ) ;
#106 = DIRECTION ( 'NONE',  ( 0.0000000000000000000, 0.0000000000000000000, -1.000000000000000000 ) ) ;
#107 = CIRCLE ( 'NONE', #247, 0.1562500000000000000 ) ;
#108 = EDGE_CURVE ( 'NONE', #172, #151, #92, .T. ) ;
#109 = DIRECTION ( 'NONE',  ( -0.0000000000000000000, -0.0000000000000000000, -1.000000000000000000 ) ) ;
#110 = AXIS2_PLACEMENT_3D ( 'NONE', #161, #86, #235 ) ;
#111 = COLOUR_RGB ( '',0.7921568627450980005, 0.8196078431372548767, 0.9333333333333333481 ) ;
#112 = DIRECTION ( 'NONE',  ( -0.0000000000000000000, -0.0000000000000000000, -1.000000000000000000 ) ) ;
#113 = CARTESIAN_POINT ( 'NONE',  ( 0.0000000000000000000, 0.0000000000000000000, 4.000000000000000000 ) ) ;
#114 = ADVANCED_FACE ( 'NONE', ( #237 ), #213, .T. ) ;
#115 = APPLICATION_PROTOCOL_DEFINITION ( 'draft international standard', 'automotive_design', 1998, #89 ) ;
#116 = EDGE_LOOP ( 'NONE', ( #55, #52, #189, #12 ) ) ;
#117 = ORIENTED_EDGE ( 'NONE', *, *, #10, .T. ) ;
#118 = LINE ( 'NONE', #38, #121 ) ;
#119 = DIMENSIONAL_EXPONENTS ( 1.000000000000000000, 0.0000000000000000000, 0.0000000000000000000, 0.0000000000000000000, 0.0000000000000000000, 0.0000000000000000000, 0.0000000000000000000 ) ;
#120 = VERTEX_POINT ( 'NONE', #180 ) ;
#121 = VECTOR ( 'NONE', #193, 39.37007874015748854 ) ;
#122 = DIRECTION ( 'NONE',  ( 0.0000000000000000000, 0.0000000000000000000, 1.000000000000000000 ) ) ;
#123 = ORIENTED_EDGE ( 'NONE', *, *, #240, .T. ) ;
#124 = DIRECTION ( 'NONE',  ( 0.0000000000000000000, 0.0000000000000000000, 1.000000000000000000 ) ) ;
#125 = CARTESIAN_POINT ( 'NONE',  ( 0.0000000000000000000, 0.0000000000000000000, 0.0000000000000000000 ) ) ;
#126 = CIRCLE ( 'NONE', #4, 0.003999999999999999216 ) ;
#127 =( GEOMETRIC_REPRESENTATION_CONTEXT ( 3 ) GLOBAL_UNCERTAINTY_ASSIGNED_CONTEXT ( ( #69 ) ) GLOBAL_UNIT_ASSIGNED_CONTEXT ( ( #29, #210, #228 ) ) REPRESENTATION_CONTEXT ( 'NONE', 'WORKASPACE' ) );
#128 = LINE ( 'NONE', #200, #168 ) ;
#129 = SURFACE_STYLE_USAGE ( .BOTH. , #41 ) ;
#130 =( NAMED_UNIT ( * ) SI_UNIT ( $, .STERADIAN. ) SOLID_ANGLE_UNIT ( ) );
#131 = CONICAL_SURFACE ( 'NONE', #148, 0.1412500000000000422, 0.7853981633974391752 ) ;
#132 = DIRECTION ( 'NONE',  ( -0.0000000000000000000, -0.0000000000000000000, -1.000000000000000000 ) ) ;
#133 = CARTESIAN_POINT ( 'NONE',  ( -0.003999999999999999216, 4.898587196589411612E-19, 0.0000000000000000000 ) ) ;
#134 = DIRECTION ( 'NONE',  ( 1.000000000000000000, 0.0000000000000000000, 0.0000000000000000000 ) ) ;
#135 =( GEOMETRIC_REPRESENTATION_CONTEXT ( 3 ) GLOBAL_UNCERTAINTY_ASSIGNED_CONTEXT ( ( #238 ) ) GLOBAL_UNIT_ASSIGNED_CONTEXT ( ( #67, #96, #130 ) ) REPRESENTATION_CONTEXT ( 'NONE', 'WORKASPACE' ) );
#136 = EDGE_CURVE ( 'NONE', #120, #191, #25, .T. ) ;
#137 = ADVANCED_FACE ( 'NONE', ( #160 ), #66, .F. ) ;
#138 = ORIENTED_EDGE ( 'NONE', *, *, #82, .T. ) ;
#139 = VERTEX_POINT ( 'NONE', #175 ) ;
#140 = CARTESIAN_POINT ( 'NONE',  ( -0.1562500000000000000, 0.0000000000000000000, 4.000000000000000000 ) ) ;
#141 = CARTESIAN_POINT ( 'NONE',  ( 0.0000000000000000000, 0.0000000000000000000, 0.0000000000000000000 ) ) ;
#142 = AXIS2_PLACEMENT_3D ( 'NONE', #144, #249, #163 ) ;
#143 = FILL_AREA_STYLE ('',( #87 ) ) ;
#144 = CARTESIAN_POINT ( 'NONE',  ( 0.0000000000000000000, 0.0000000000000000000, 4.000000000000000000 ) ) ;
#145 = ORIENTED_EDGE ( 'NONE', *, *, #57, .F. ) ;
#146 =( NAMED_UNIT ( * ) PLANE_ANGLE_UNIT ( ) SI_UNIT ( $, .RADIAN. ) );
#147 =( NAMED_UNIT ( * ) SI_UNIT ( $, .STERADIAN. ) SOLID_ANGLE_UNIT ( ) );
#148 = AXIS2_PLACEMENT_3D ( 'NONE', #164, #106, #19 ) ;
#149 = DIRECTION ( 'NONE',  ( -1.000000000000000000, 0.0000000000000000000, 0.0000000000000000000 ) ) ;
#150 = EDGE_CURVE ( 'NONE', #242, #139, #126, .T. ) ;
#151 = VERTEX_POINT ( 'NONE', #199 ) ;
#152 = VECTOR ( 'NONE', #216, 39.37007874015748143 ) ;
#153 = VERTEX_POINT ( 'NONE', #103 ) ;
#154 = EDGE_LOOP ( 'NONE', ( #18, #11, #50, #35 ) ) ;
#155 = ORIENTED_EDGE ( 'NONE', *, *, #44, .F. ) ;
#156 = AXIS2_PLACEMENT_3D ( 'NONE', #20, #124, #64 ) ;
#157 =( GEOMETRIC_REPRESENTATION_CONTEXT ( 3 ) GLOBAL_UNCERTAINTY_ASSIGNED_CONTEXT ( ( #72 ) ) GLOBAL_UNIT_ASSIGNED_CONTEXT ( ( #186, #146, #147 ) ) REPRESENTATION_CONTEXT ( 'NONE', 'WORKASPACE' ) );
#158 = DIRECTION ( 'NONE',  ( -1.000000000000000000, 0.0000000000000000000, 0.0000000000000000000 ) ) ;
#159 = ADVANCED_FACE ( 'NONE', ( #248 ), #74, .T. ) ;
#160 = FACE_OUTER_BOUND ( 'NONE', #32, .T. ) ;
#161 = CARTESIAN_POINT ( 'NONE',  ( 0.0000000000000000000, 0.0000000000000000000, 0.0000000000000000000 ) ) ;
#162 = PRODUCT ( 'Micro_RSC-312-14', 'Micro_RSC-312-14', '', ( #65 ) ) ;
#163 = DIRECTION ( 'NONE',  ( -1.000000000000000000, 0.0000000000000000000, 0.0000000000000000000 ) ) ;
#164 = CARTESIAN_POINT ( 'NONE',  ( 0.0000000000000000000, 0.0000000000000000000, 4.000000000000000000 ) ) ;
#165 = DIRECTION ( 'NONE',  ( 0.0000000000000000000, 0.0000000000000000000, 1.000000000000000000 ) ) ;
#166 = LENGTH_MEASURE_WITH_UNIT ( LENGTH_MEASURE( 0.02539999999999999897 ), #184 );
#167 = LINE ( 'NONE', #224, #190 ) ;
#168 = VECTOR ( 'NONE', #179, 39.37007874015748143 ) ;
#169 = MANIFOLD_SOLID_BREP ( 'Cut-Revolve1', #226 ) ;
#170 = DIMENSIONAL_EXPONENTS ( 1.000000000000000000, 0.0000000000000000000, 0.0000000000000000000, 0.0000000000000000000, 0.0000000000000000000, 0.0000000000000000000, 0.0000000000000000000 ) ;
#171 = LENGTH_MEASURE_WITH_UNIT ( LENGTH_MEASURE( 0.02539999999999999897 ), #49 );
#172 = VERTEX_POINT ( 'NONE', #208 ) ;
#173 = SURFACE_STYLE_USAGE ( .BOTH. , #188 ) ;
#174 = COLOUR_RGB ( '',0.7921568627450980005, 0.8196078431372548767, 0.9333333333333333481 ) ;
#175 = CARTESIAN_POINT ( 'NONE',  ( 0.003999999999999999216, 0.0000000000000000000, 0.0000000000000000000 ) ) ;
#176 = AXIS2_PLACEMENT_3D ( 'NONE', #60, #59, #2 ) ;
#177 = EDGE_CURVE ( 'NONE', #139, #242, #14, .T. ) ;
#178 = CARTESIAN_POINT ( 'NONE',  ( 0.0000000000000000000, 0.0000000000000000000, 4.000000000000000000 ) ) ;
#179 = DIRECTION ( 'NONE',  ( -0.7071067811865411334, 0.0000000000000000000, -0.7071067811865539010 ) ) ;
#180 = CARTESIAN_POINT ( 'NONE',  ( -0.1562500000000000000, 0.0000000000000000000, 0.2637047354523606724 ) ) ;
#181 = DIRECTION ( 'NONE',  ( 1.000000000000000000, 0.0000000000000000000, -0.0000000000000000000 ) ) ;
#182 = APPLICATION_PROTOCOL_DEFINITION ( 'draft international standard', 'automotive_design', 1998, #187 ) ;
#183 = FACE_OUTER_BOUND ( 'NONE', #154, .T. ) ;
#184 =( LENGTH_UNIT ( ) NAMED_UNIT ( * ) SI_UNIT ( $, .METRE. ) );
#185 = FACE_OUTER_BOUND ( 'NONE', #212, .T. ) ;
#186 =( CONVERSION_BASED_UNIT ( 'INCH', #166 ) LENGTH_UNIT ( ) NAMED_UNIT ( #209 ) );
#187 = APPLICATION_CONTEXT ( 'automotive_design' ) ;
#188 = SURFACE_SIDE_STYLE ('',( #211 ) ) ;
#189 = ORIENTED_EDGE ( 'NONE', *, *, #57, .T. ) ;
#190 = VECTOR ( 'NONE', #95, 39.37007874015748143 ) ;
#191 = VERTEX_POINT ( 'NONE', #46 ) ;
#192 = EDGE_CURVE ( 'NONE', #241, #153, #54, .T. ) ;
#193 = DIRECTION ( 'NONE',  ( 0.5000000000000012212, 0.0000000000000000000, 0.8660254037844377084 ) ) ;
#194 = EDGE_LOOP ( 'NONE', ( #100, #53, #77, #155 ) ) ;
#195 = ORIENTED_EDGE ( 'NONE', *, *, #177, .F. ) ;
#196 = EDGE_CURVE ( 'NONE', #191, #120, #107, .T. ) ;
#197 = DIRECTION ( 'NONE',  ( -0.0000000000000000000, -0.0000000000000000000, -1.000000000000000000 ) ) ;
#198 = AXIS2_PLACEMENT_3D ( 'NONE', #15, #101, #40 ) ;
#199 = CARTESIAN_POINT ( 'NONE',  ( -0.1562500000000000000, 0.0000000000000000000, 3.984999999999999876 ) ) ;
#200 = CARTESIAN_POINT ( 'NONE',  ( -0.1412500000000000422, 0.0000000000000000000, 4.000000000000000000 ) ) ;
#201 = ADVANCED_FACE ( 'NONE', ( #185 ), #28, .T. ) ;
#202 = PRESENTATION_STYLE_ASSIGNMENT (( #129 ) ) ;
#203 = AXIS2_PLACEMENT_3D ( 'NONE', #205, #23, #134 ) ;
#204 = CIRCLE ( 'NONE', #97, 0.1412500000000000422 ) ;
#205 = CARTESIAN_POINT ( 'NONE',  ( 0.0000000000000000000, 0.0000000000000000000, 4.000000000000000000 ) ) ;
#206 = CARTESIAN_POINT ( 'NONE',  ( 0.0000000000000000000, 0.0000000000000000000, 0.2637047354523606724 ) ) ;
#207 = PRESENTATION_LAYER_ASSIGNMENT (  '', '', ( #62 ) ) ;
#208 = CARTESIAN_POINT ( 'NONE',  ( 0.1562500000000000000, 1.913510623667739463E-17, 3.984999999999999876 ) ) ;
#209 = DIMENSIONAL_EXPONENTS ( 1.000000000000000000, 0.0000000000000000000, 0.0000000000000000000, 0.0000000000000000000, 0.0000000000000000000, 0.0000000000000000000, 0.0000000000000000000 ) ;
#210 =( NAMED_UNIT ( * ) PLANE_ANGLE_UNIT ( ) SI_UNIT ( $, .RADIAN. ) );
#211 = SURFACE_STYLE_FILL_AREA ( #73 ) ;
#212 = EDGE_LOOP ( 'NONE', ( #51, #243 ) ) ;
#213 = CONICAL_SURFACE ( 'NONE', #156, 0.003999999999999999216, 0.5235987755983003700 ) ;
#214 = EDGE_CURVE ( 'NONE', #172, #191, #167, .T. ) ;
#215 = FACE_OUTER_BOUND ( 'NONE', #225, .T. ) ;
#216 = DIRECTION ( 'NONE',  ( 0.7071067811865411334, 8.659560562354852739E-17, -0.7071067811865539010 ) ) ;
#217 = AXIS2_PLACEMENT_3D ( 'NONE', #236, #39, #105 ) ;
#218 = DIRECTION ( 'NONE',  ( -1.000000000000000000, 0.0000000000000000000, 0.0000000000000000000 ) ) ;
#219 = SURFACE_STYLE_FILL_AREA ( #143 ) ;
#220 = CARTESIAN_POINT ( 'NONE',  ( 0.0000000000000000000, 0.0000000000000000000, 0.0000000000000000000 ) ) ;
#221 = ORIENTED_EDGE ( 'NONE', *, *, #150, .T. ) ;
#222 = AXIS2_PLACEMENT_3D ( 'NONE', #220, #232, #181 ) ;
#223 = DIRECTION ( 'NONE',  ( 1.000000000000000000, 0.0000000000000000000, -0.0000000000000000000 ) ) ;
#224 = CARTESIAN_POINT ( 'NONE',  ( 0.1562500000000000000, 1.913510623667739463E-17, 4.000000000000000000 ) ) ;
#225 = EDGE_LOOP ( 'NONE', ( #76, #138, #230, #145 ) ) ;
#226 = CLOSED_SHELL ( 'NONE', ( #159, #91, #104, #245, #201, #21, #114, #137 ) ) ;
#227 = PRODUCT_DEFINITION_CONTEXT ( 'detailed design', #187, 'design' ) ;
#228 =( NAMED_UNIT ( * ) SI_UNIT ( $, .STERADIAN. ) SOLID_ANGLE_UNIT ( ) );
#229 = PRODUCT_DEFINITION ( 'UNKNOWN', '', #63, #227 ) ;
#230 = ORIENTED_EDGE ( 'NONE', *, *, #30, .F. ) ;
#231 = STYLED_ITEM ( 'NONE', ( #31 ), #80 ) ;
#232 = DIRECTION ( 'NONE',  ( 0.0000000000000000000, 0.0000000000000000000, 1.000000000000000000 ) ) ;
#233 = LINE ( 'NONE', #140, #83 ) ;
#234 = EDGE_CURVE ( 'NONE', #153, #241, #204, .T. ) ;
#235 = DIRECTION ( 'NONE',  ( 1.000000000000000000, 0.0000000000000000000, 0.0000000000000000000 ) ) ;
#236 = CARTESIAN_POINT ( 'NONE',  ( 0.0000000000000000000, 0.0000000000000000000, 3.984999999999999876 ) ) ;
#237 = FACE_OUTER_BOUND ( 'NONE', #34, .T. ) ;
#238 = UNCERTAINTY_MEASURE_WITH_UNIT (LENGTH_MEASURE( 1.000000000000000082E-05 ), #67, 'distance_accuracy_value', 'NONE');
#239 = CARTESIAN_POINT ( 'NONE',  ( -0.003999999999999999216, 9.812482478168165875E-18, 0.0000000000000000000 ) ) ;
#240 = EDGE_CURVE ( 'NONE', #242, #120, #43, .T. ) ;
#241 = VERTEX_POINT ( 'NONE', #5 ) ;
#242 = VERTEX_POINT ( 'NONE', #239 ) ;
#243 = ORIENTED_EDGE ( 'NONE', *, *, #234, .T. ) ;
#244 = AXIS2_PLACEMENT_3D ( 'NONE', #36, #122, #58 ) ;
#245 = ADVANCED_FACE ( 'NONE', ( #183 ), #94, .T. ) ;
#246 = DIRECTION ( 'NONE',  ( -0.0000000000000000000, -0.0000000000000000000, -1.000000000000000000 ) ) ;
#247 = AXIS2_PLACEMENT_3D ( 'NONE', #206, #109, #45 ) ;
#248 = FACE_OUTER_BOUND ( 'NONE', #47, .T. ) ;
#249 = DIRECTION ( 'NONE',  ( 0.0000000000000000000, 0.0000000000000000000, -1.000000000000000000 ) ) ;
ENDSEC;
END-ISO-10303-21;
