ISO-10303-21;
HEADER;
FILE_DESCRIPTION (( 'STEP AP214' ),
    '1' );
FILE_NAME ('06225.STEP',
    '2023-07-05T16:01:06',
    ( '' ),
    ( '' ),
    'SwSTEP 2.0',
    'SolidWorks 2023',
    '' );
FILE_SCHEMA (( 'AUTOMOTIVE_DESIGN' ));
ENDSEC;

DATA;
#1 =( NAMED_UNIT ( * ) SI_UNIT ( $, .STERADIAN. ) SOLID_ANGLE_UNIT ( ) );
#2 = VECTOR ( 'NONE', #69, 39.37007874015748143 ) ;
#3 = CARTESIAN_POINT ( 'NONE',  ( 0.06249999999999995143, 2.000000000000000000, 0.000000000000000000 ) ) ;
#4 = PRODUCT_CONTEXT ( 'NONE', #205, 'mechanical' ) ;
#5 = PLANE ( 'NONE',  #119 ) ;
#6 = PRESENTATION_LAYER_ASSIGNMENT (  '', '', ( #91 ) ) ;
#7 = LENGTH_MEASURE_WITH_UNIT ( LENGTH_MEASURE( 0.02539999999999999897 ), #254 );
#8 =( NAMED_UNIT ( * ) SI_UNIT ( $, .STERADIAN. ) SOLID_ANGLE_UNIT ( ) );
#9 = FILL_AREA_STYLE ('',( #240 ) ) ;
#10 = SURFACE_STYLE_USAGE ( .BOTH. , #35 ) ;
#11 = FILL_AREA_STYLE ('',( #148 ) ) ;
#12 = DIRECTION ( 'NONE',  ( -1.067490991472360598E-16, 1.000000000000000000, -0.000000000000000000 ) ) ;
#13 = VERTEX_POINT ( 'NONE', #41 ) ;
#14 = PRODUCT_DEFINITION ( 'UNKNOWN', '', #187, #261 ) ;
#15 = MECHANICAL_DESIGN_GEOMETRIC_PRESENTATION_REPRESENTATION (  '', ( #39 ), #184 ) ;
#16 = EDGE_CURVE ( 'NONE', #98, #140, #265, .T. ) ;
#17 = ORIENTED_EDGE ( 'NONE', *, *, #81, .F. ) ;
#18 = LENGTH_MEASURE_WITH_UNIT ( LENGTH_MEASURE( 0.02539999999999999897 ), #61 );
#19 = CONICAL_SURFACE ( 'NONE', #139, 22.73032555864674009, 0.5235987755982999259 ) ;
#20 = UNCERTAINTY_MEASURE_WITH_UNIT (LENGTH_MEASURE( 1.000000000000000082E-05 ), #244, 'distance_accuracy_value', 'NONE');
#21 = MECHANICAL_DESIGN_GEOMETRIC_PRESENTATION_REPRESENTATION (  '', ( #122 ), #202 ) ;
#22 = EDGE_LOOP ( 'NONE', ( #84, #197 ) ) ;
#23 = EDGE_LOOP ( 'NONE', ( #143, #204 ) ) ;
#24 = AXIS2_PLACEMENT_3D ( 'NONE', #47, #129, #238 ) ;
#25 = CYLINDRICAL_SURFACE ( 'NONE', #158, 0.06249999999999972938 ) ;
#26 = DIRECTION ( 'NONE',  ( -1.067490991472360598E-16, 1.000000000000000000, -0.000000000000000000 ) ) ;
#27 = DIRECTION ( 'NONE',  ( -1.067490991472360598E-16, 1.000000000000000000, -0.000000000000000000 ) ) ;
#28 = FILL_AREA_STYLE_COLOUR ( '', #258 ) ;
#29 = VECTOR ( 'NONE', #71, 39.37007874015748143 ) ;
#30 = FACE_OUTER_BOUND ( 'NONE', #262, .T. ) ;
#31 = PRODUCT_DEFINITION_SHAPE ( 'NONE', 'NONE',  #14 ) ;
#32 = MECHANICAL_DESIGN_GEOMETRIC_PRESENTATION_REPRESENTATION (  '', ( #91 ), #100 ) ;
#33 = CARTESIAN_POINT ( 'NONE',  ( 0.000000000000000000, 39.37007874015748143, 0.000000000000000000 ) ) ;
#34 =( CONVERSION_BASED_UNIT ( 'INCH', #255 ) LENGTH_UNIT ( ) NAMED_UNIT ( #218 ) );
#35 = SURFACE_SIDE_STYLE ('',( #78 ) ) ;
#36 = SURFACE_SIDE_STYLE ('',( #174 ) ) ;
#37 = EDGE_CURVE ( 'NONE', #64, #153, #141, .T. ) ;
#38 = AXIS2_PLACEMENT_3D ( 'NONE', #206, #180, #264 ) ;
#39 = STYLED_ITEM ( 'NONE', ( #118 ), #207 ) ;
#40 = STYLED_ITEM ( 'NONE', ( #201 ), #53 ) ;
#41 = CARTESIAN_POINT ( 'NONE',  ( -0.06249999999999929917, 0.1082531754730544776, 0.000000000000000000 ) ) ;
#42 = ORIENTED_EDGE ( 'NONE', *, *, #37, .T. ) ;
#43 = LINE ( 'NONE', #88, #2 ) ;
#44 = CARTESIAN_POINT ( 'NONE',  ( -0.06249999999999960448, 2.000000000000000000, 0.000000000000000000 ) ) ;
#45 = EDGE_CURVE ( 'NONE', #98, #79, #43, .T. ) ;
#46 = SURFACE_STYLE_FILL_AREA ( #132 ) ;
#47 = CARTESIAN_POINT ( 'NONE',  ( 0.000000000000000000, 0.000000000000000000, 0.000000000000000000 ) ) ;
#48 = AXIS2_PLACEMENT_3D ( 'NONE', #246, #235, #189 ) ;
#49 = SURFACE_SIDE_STYLE ('',( #193 ) ) ;
#50 = AXIS2_PLACEMENT_3D ( 'NONE', #51, #12, #192 ) ;
#51 = CARTESIAN_POINT ( 'NONE',  ( 3.244069492476312449E-16, 0.1082531754730544776, 0.000000000000000000 ) ) ;
#52 = CARTESIAN_POINT ( 'NONE',  ( 0.06249999999999995837, 0.1082531754730544776, 7.654042494670931352E-18 ) ) ;
#53 = ADVANCED_FACE ( 'NONE', ( #247 ), #19, .T. ) ;
#54 = AXIS2_PLACEMENT_3D ( 'NONE', #213, #116, #252 ) ;
#55 = DIMENSIONAL_EXPONENTS ( 1.000000000000000000, 0.000000000000000000, 0.000000000000000000, 0.000000000000000000, 0.000000000000000000, 0.000000000000000000, 0.000000000000000000 ) ;
#56 = APPLICATION_PROTOCOL_DEFINITION ( 'draft international standard', 'automotive_design', 1998, #205 ) ;
#57 = SHAPE_DEFINITION_REPRESENTATION ( #31, #169 ) ;
#58 = ORIENTED_EDGE ( 'NONE', *, *, #67, .T. ) ;
#59 = EDGE_CURVE ( 'NONE', #153, #105, #226, .T. ) ;
#60 = DIRECTION ( 'NONE',  ( 0.000000000000000000, 1.000000000000000000, 0.000000000000000000 ) ) ;
#61 =( LENGTH_UNIT ( ) NAMED_UNIT ( * ) SI_UNIT ( $, .METRE. ) );
#62 = PRESENTATION_LAYER_ASSIGNMENT (  '', '', ( #40 ) ) ;
#63 =( GEOMETRIC_REPRESENTATION_CONTEXT ( 3 ) GLOBAL_UNCERTAINTY_ASSIGNED_CONTEXT ( ( #120 ) ) GLOBAL_UNIT_ASSIGNED_CONTEXT ( ( #125, #232, #211 ) ) REPRESENTATION_CONTEXT ( 'NONE', 'WORKASPACE' ) );
#64 = VERTEX_POINT ( 'NONE', #52 ) ;
#65 = CARTESIAN_POINT ( 'NONE',  ( 0.000000000000000000, 0.000000000000000000, 0.000000000000000000 ) ) ;
#66 = COLOUR_RGB ( '',0.7921568627450980005, 0.8196078431372548767, 0.9333333333333333481 ) ;
#67 = EDGE_CURVE ( 'NONE', #13, #105, #237, .T. ) ;
#68 = PRESENTATION_STYLE_ASSIGNMENT (( #223 ) ) ;
#69 = DIRECTION ( 'NONE',  ( 6.123233995736777129E-17, 0.8660254037844380415, -0.5000000000000008882 ) ) ;
#70 =( NAMED_UNIT ( * ) PLANE_ANGLE_UNIT ( ) SI_UNIT ( $, .RADIAN. ) );
#71 = DIRECTION ( 'NONE',  ( 0.000000000000000000, 0.8660254037844380415, 0.5000000000000008882 ) ) ;
#72 = SURFACE_STYLE_USAGE ( .BOTH. , #49 ) ;
#73 =( LENGTH_UNIT ( ) NAMED_UNIT ( * ) SI_UNIT ( $, .METRE. ) );
#74 = PLANE ( 'NONE',  #200 ) ;
#75 = DIRECTION ( 'NONE',  ( -0.000000000000000000, -1.000000000000000000, -0.000000000000000000 ) ) ;
#76 = CARTESIAN_POINT ( 'NONE',  ( -0.06249999999999970857, 2.000000000000000000, 0.000000000000000000 ) ) ;
#77 = DIRECTION ( 'NONE',  ( 0.000000000000000000, 0.000000000000000000, -1.000000000000000000 ) ) ;
#78 = SURFACE_STYLE_FILL_AREA ( #9 ) ;
#79 = VERTEX_POINT ( 'NONE', #233 ) ;
#80 = CLOSED_SHELL ( 'NONE', ( #155, #183, #152, #96 ) ) ;
#81 = EDGE_CURVE ( 'NONE', #105, #153, #163, .T. ) ;
#82 = SURFACE_SIDE_STYLE ('',( #181 ) ) ;
#83 = UNCERTAINTY_MEASURE_WITH_UNIT (LENGTH_MEASURE( 1.000000000000000082E-05 ), #102, 'distance_accuracy_value', 'NONE');
#84 = ORIENTED_EDGE ( 'NONE', *, *, #81, .T. ) ;
#85 =( NAMED_UNIT ( * ) SI_UNIT ( $, .STERADIAN. ) SOLID_ANGLE_UNIT ( ) );
#86 = AXIS2_PLACEMENT_3D ( 'NONE', #114, #75, #77 ) ;
#87 = CARTESIAN_POINT ( 'NONE',  ( 1.224646799147353700E-16, 2.000000000000000000, 0.000000000000000000 ) ) ;
#88 = CARTESIAN_POINT ( 'NONE',  ( 0.000000000000000000, 0.000000000000000000, 0.000000000000000000 ) ) ;
#89 = ORIENTED_EDGE ( 'NONE', *, *, #243, .T. ) ;
#90 = PRESENTATION_STYLE_ASSIGNMENT (( #72 ) ) ;
#91 = STYLED_ITEM ( 'NONE', ( #127 ), #109 ) ;
#92 = CARTESIAN_POINT ( 'NONE',  ( 3.244069492476312449E-16, 0.1082531754730545470, 0.000000000000000000 ) ) ;
#93 = FACE_OUTER_BOUND ( 'NONE', #22, .T. ) ;
#94 = CARTESIAN_POINT ( 'NONE',  ( 0.000000000000000000, 0.1082531754730545470, 0.000000000000000000 ) ) ;
#95 =( NAMED_UNIT ( * ) SI_UNIT ( $, .STERADIAN. ) SOLID_ANGLE_UNIT ( ) );
#96 = ADVANCED_FACE ( 'NONE', ( #93 ), #74, .F. ) ;
#97 = LENGTH_MEASURE_WITH_UNIT ( LENGTH_MEASURE( 0.02539999999999999897 ), #194 );
#98 = VERTEX_POINT ( 'NONE', #166 ) ;
#99 = EDGE_CURVE ( 'NONE', #64, #13, #190, .T. ) ;
#100 =( GEOMETRIC_REPRESENTATION_CONTEXT ( 3 ) GLOBAL_UNCERTAINTY_ASSIGNED_CONTEXT ( ( #178 ) ) GLOBAL_UNIT_ASSIGNED_CONTEXT ( ( #168, #149, #1 ) ) REPRESENTATION_CONTEXT ( 'NONE', 'WORKASPACE' ) );
#101 = MANIFOLD_SOLID_BREP ( 'Revolve - Tool Body (Pointed)', #80 ) ;
#102 =( CONVERSION_BASED_UNIT ( 'INCH', #18 ) LENGTH_UNIT ( ) NAMED_UNIT ( #195 ) );
#103 = SURFACE_STYLE_USAGE ( .BOTH. , #82 ) ;
#104 = COLOUR_RGB ( '',1.000000000000000000, 0.000000000000000000, 0.000000000000000000 ) ;
#105 = VERTEX_POINT ( 'NONE', #76 ) ;
#106 = UNCERTAINTY_MEASURE_WITH_UNIT (LENGTH_MEASURE( 1.000000000000000082E-05 ), #34, 'distance_accuracy_value', 'NONE');
#107 =( NAMED_UNIT ( * ) PLANE_ANGLE_UNIT ( ) SI_UNIT ( $, .RADIAN. ) );
#108 = FACE_OUTER_BOUND ( 'NONE', #171, .T. ) ;
#109 = MANIFOLD_SOLID_BREP ( 'Revolve - Cutting Edge', #151 ) ;
#110 = CIRCLE ( 'NONE', #50, 0.06249999999999962530 ) ;
#111 =( LENGTH_UNIT ( ) NAMED_UNIT ( * ) SI_UNIT ( $, .METRE. ) );
#112 = DIRECTION ( 'NONE',  ( -1.000000000000000000, 0.000000000000000000, 0.000000000000000000 ) ) ;
#113 = VECTOR ( 'NONE', #188, 39.37007874015748143 ) ;
#114 = CARTESIAN_POINT ( 'NONE',  ( 0.000000000000000000, 0.1082531754730545470, 0.000000000000000000 ) ) ;
#115 = LENGTH_MEASURE_WITH_UNIT ( LENGTH_MEASURE( 0.02539999999999999897 ), #111 );
#116 = DIRECTION ( 'NONE',  ( -1.067490991472360598E-16, 1.000000000000000000, -0.000000000000000000 ) ) ;
#117 = FILL_AREA_STYLE_COLOUR ( '', #66 ) ;
#118 = PRESENTATION_STYLE_ASSIGNMENT (( #10 ) ) ;
#119 = AXIS2_PLACEMENT_3D ( 'NONE', #92, #165, #253 ) ;
#120 = UNCERTAINTY_MEASURE_WITH_UNIT (LENGTH_MEASURE( 1.000000000000000082E-05 ), #125, 'distance_accuracy_value', 'NONE');
#121 = COLOUR_RGB ( '',1.000000000000000000, 0.000000000000000000, 0.000000000000000000 ) ;
#122 = STYLED_ITEM ( 'NONE', ( #90 ), #101 ) ;
#123 = ORIENTED_EDGE ( 'NONE', *, *, #245, .F. ) ;
#124 = FACE_OUTER_BOUND ( 'NONE', #23, .T. ) ;
#125 =( CONVERSION_BASED_UNIT ( 'INCH', #115 ) LENGTH_UNIT ( ) NAMED_UNIT ( #170 ) );
#126 = SURFACE_SIDE_STYLE ('',( #46 ) ) ;
#127 = PRESENTATION_STYLE_ASSIGNMENT (( #133 ) ) ;
#128 =( GEOMETRIC_REPRESENTATION_CONTEXT ( 3 ) GLOBAL_UNCERTAINTY_ASSIGNED_CONTEXT ( ( #106 ) ) GLOBAL_UNIT_ASSIGNED_CONTEXT ( ( #34, #172, #8 ) ) REPRESENTATION_CONTEXT ( 'NONE', 'WORKASPACE' ) );
#129 = DIRECTION ( 'NONE',  ( 0.000000000000000000, 0.000000000000000000, 1.000000000000000000 ) ) ;
#130 = CONICAL_SURFACE ( 'NONE', #182, 22.73032555864674009, 0.5235987755982999259 ) ;
#131 = COLOUR_RGB ( '',1.000000000000000000, 0.000000000000000000, 0.000000000000000000 ) ;
#132 = FILL_AREA_STYLE ('',( #28 ) ) ;
#133 = SURFACE_STYLE_USAGE ( .BOTH. , #126 ) ;
#134 = AXIS2_PLACEMENT_3D ( 'NONE', #225, #191, #112 ) ;
#135 = DIMENSIONAL_EXPONENTS ( 1.000000000000000000, 0.000000000000000000, 0.000000000000000000, 0.000000000000000000, 0.000000000000000000, 0.000000000000000000, 0.000000000000000000 ) ;
#136 = ADVANCED_FACE ( 'NONE', ( #199 ), #130, .T. ) ;
#137 = ORIENTED_EDGE ( 'NONE', *, *, #196, .T. ) ;
#138 = ORIENTED_EDGE ( 'NONE', *, *, #99, .T. ) ;
#139 = AXIS2_PLACEMENT_3D ( 'NONE', #229, #60, #231 ) ;
#140 = VERTEX_POINT ( 'NONE', #162 ) ;
#141 = LINE ( 'NONE', #260, #186 ) ;
#142 =( NAMED_UNIT ( * ) SI_UNIT ( $, .STERADIAN. ) SOLID_ANGLE_UNIT ( ) );
#143 = ORIENTED_EDGE ( 'NONE', *, *, #243, .F. ) ;
#144 = PRODUCT_RELATED_PRODUCT_CATEGORY ( 'part', '', ( #145 ) ) ;
#145 = PRODUCT ( '06225', '06225', '', ( #4 ) ) ;
#146 = DIRECTION ( 'NONE',  ( 1.067490991472360598E-16, -1.000000000000000000, 0.000000000000000000 ) ) ;
#147 = CIRCLE ( 'NONE', #38, 0.06249999999999997918 ) ;
#148 = FILL_AREA_STYLE_COLOUR ( '', #104 ) ;
#149 =( NAMED_UNIT ( * ) PLANE_ANGLE_UNIT ( ) SI_UNIT ( $, .RADIAN. ) );
#150 = ORIENTED_EDGE ( 'NONE', *, *, #196, .F. ) ;
#151 = CLOSED_SHELL ( 'NONE', ( #136, #207, #53 ) ) ;
#152 = ADVANCED_FACE ( 'NONE', ( #30 ), #25, .T. ) ;
#153 = VERTEX_POINT ( 'NONE', #248 ) ;
#154 = LENGTH_MEASURE_WITH_UNIT ( LENGTH_MEASURE( 0.02539999999999999897 ), #179 );
#155 = ADVANCED_FACE ( 'NONE', ( #108 ), #250, .T. ) ;
#156 = ORIENTED_EDGE ( 'NONE', *, *, #67, .F. ) ;
#157 = EDGE_LOOP ( 'NONE', ( #123, #150 ) ) ;
#158 = AXIS2_PLACEMENT_3D ( 'NONE', #87, #27, #160 ) ;
#159 = AXIS2_PLACEMENT_3D ( 'NONE', #94, #167, #220 ) ;
#160 = DIRECTION ( 'NONE',  ( -1.000000000000000000, 0.000000000000000000, 0.000000000000000000 ) ) ;
#161 = ORIENTED_EDGE ( 'NONE', *, *, #16, .F. ) ;
#162 = CARTESIAN_POINT ( 'NONE',  ( 0.000000000000000000, 0.1082531754730545470, 0.06249999999999997918 ) ) ;
#163 = CIRCLE ( 'NONE', #54, 0.06249999999999982653 ) ;
#164 = DIRECTION ( 'NONE',  ( 1.000000000000000000, 1.067490991472360598E-16, 0.000000000000000000 ) ) ;
#165 = DIRECTION ( 'NONE',  ( -1.067490991472360598E-16, 1.000000000000000000, 0.000000000000000000 ) ) ;
#166 = CARTESIAN_POINT ( 'NONE',  ( 0.000000000000000000, 0.000000000000000000, 0.000000000000000000 ) ) ;
#167 = DIRECTION ( 'NONE',  ( 0.000000000000000000, 1.000000000000000000, 0.000000000000000000 ) ) ;
#168 =( CONVERSION_BASED_UNIT ( 'INCH', #97 ) LENGTH_UNIT ( ) NAMED_UNIT ( #173 ) );
#169 = ADVANCED_BREP_SHAPE_REPRESENTATION ( '06225', ( #109, #101, #24 ), #128 ) ;
#170 = DIMENSIONAL_EXPONENTS ( 1.000000000000000000, 0.000000000000000000, 0.000000000000000000, 0.000000000000000000, 0.000000000000000000, 0.000000000000000000, 0.000000000000000000 ) ;
#171 = EDGE_LOOP ( 'NONE', ( #89, #42, #17, #156 ) ) ;
#172 =( NAMED_UNIT ( * ) PLANE_ANGLE_UNIT ( ) SI_UNIT ( $, .RADIAN. ) );
#173 = DIMENSIONAL_EXPONENTS ( 1.000000000000000000, 0.000000000000000000, 0.000000000000000000, 0.000000000000000000, 0.000000000000000000, 0.000000000000000000, 0.000000000000000000 ) ;
#174 = SURFACE_STYLE_FILL_AREA ( #11 ) ;
#175 = ORIENTED_EDGE ( 'NONE', *, *, #16, .T. ) ;
#176 = FILL_AREA_STYLE ('',( #203 ) ) ;
#177 = APPLICATION_PROTOCOL_DEFINITION ( 'draft international standard', 'automotive_design', 1998, #222 ) ;
#178 = UNCERTAINTY_MEASURE_WITH_UNIT (LENGTH_MEASURE( 1.000000000000000082E-05 ), #168, 'distance_accuracy_value', 'NONE');
#179 =( LENGTH_UNIT ( ) NAMED_UNIT ( * ) SI_UNIT ( $, .METRE. ) );
#180 = DIRECTION ( 'NONE',  ( -0.000000000000000000, -1.000000000000000000, -0.000000000000000000 ) ) ;
#181 = SURFACE_STYLE_FILL_AREA ( #176 ) ;
#182 = AXIS2_PLACEMENT_3D ( 'NONE', #33, #210, #230 ) ;
#183 = ADVANCED_FACE ( 'NONE', ( #124 ), #5, .F. ) ;
#184 =( GEOMETRIC_REPRESENTATION_CONTEXT ( 3 ) GLOBAL_UNCERTAINTY_ASSIGNED_CONTEXT ( ( #83 ) ) GLOBAL_UNIT_ASSIGNED_CONTEXT ( ( #102, #70, #142 ) ) REPRESENTATION_CONTEXT ( 'NONE', 'WORKASPACE' ) );
#185 = DIRECTION ( 'NONE',  ( -1.000000000000000000, 0.000000000000000000, 0.000000000000000000 ) ) ;
#186 = VECTOR ( 'NONE', #26, 39.37007874015748143 ) ;
#187 = PRODUCT_DEFINITION_FORMATION_WITH_SPECIFIED_SOURCE ( 'ANY', '', #145, .NOT_KNOWN. ) ;
#188 = DIRECTION ( 'NONE',  ( -1.067490991472360598E-16, 1.000000000000000000, -0.000000000000000000 ) ) ;
#189 = DIRECTION ( 'NONE',  ( -1.000000000000000000, 0.000000000000000000, 0.000000000000000000 ) ) ;
#190 = CIRCLE ( 'NONE', #228, 0.06249999999999962530 ) ;
#191 = DIRECTION ( 'NONE',  ( -1.067490991472360598E-16, 1.000000000000000000, -0.000000000000000000 ) ) ;
#192 = DIRECTION ( 'NONE',  ( -1.000000000000000000, 0.000000000000000000, 0.000000000000000000 ) ) ;
#193 = SURFACE_STYLE_FILL_AREA ( #249 ) ;
#194 =( LENGTH_UNIT ( ) NAMED_UNIT ( * ) SI_UNIT ( $, .METRE. ) );
#195 = DIMENSIONAL_EXPONENTS ( 1.000000000000000000, 0.000000000000000000, 0.000000000000000000, 0.000000000000000000, 0.000000000000000000, 0.000000000000000000, 0.000000000000000000 ) ;
#196 = EDGE_CURVE ( 'NONE', #79, #140, #147, .T. ) ;
#197 = ORIENTED_EDGE ( 'NONE', *, *, #59, .T. ) ;
#198 = PRESENTATION_LAYER_ASSIGNMENT (  '', '', ( #251 ) ) ;
#199 = FACE_OUTER_BOUND ( 'NONE', #234, .T. ) ;
#200 = AXIS2_PLACEMENT_3D ( 'NONE', #3, #146, #164 ) ;
#201 = PRESENTATION_STYLE_ASSIGNMENT (( #103 ) ) ;
#202 =( GEOMETRIC_REPRESENTATION_CONTEXT ( 3 ) GLOBAL_UNCERTAINTY_ASSIGNED_CONTEXT ( ( #259 ) ) GLOBAL_UNIT_ASSIGNED_CONTEXT ( ( #256, #236, #95 ) ) REPRESENTATION_CONTEXT ( 'NONE', 'WORKASPACE' ) );
#203 = FILL_AREA_STYLE_COLOUR ( '', #121 ) ;
#204 = ORIENTED_EDGE ( 'NONE', *, *, #99, .F. ) ;
#205 = APPLICATION_CONTEXT ( 'automotive_design' ) ;
#206 = CARTESIAN_POINT ( 'NONE',  ( 0.000000000000000000, 0.1082531754730545470, 0.000000000000000000 ) ) ;
#207 = ADVANCED_FACE ( 'NONE', ( #214 ), #221, .T. ) ;
#208 = ORIENTED_EDGE ( 'NONE', *, *, #45, .T. ) ;
#209 = ORIENTED_EDGE ( 'NONE', *, *, #45, .F. ) ;
#210 = DIRECTION ( 'NONE',  ( 0.000000000000000000, 1.000000000000000000, 0.000000000000000000 ) ) ;
#211 =( NAMED_UNIT ( * ) SI_UNIT ( $, .STERADIAN. ) SOLID_ANGLE_UNIT ( ) );
#212 = MECHANICAL_DESIGN_GEOMETRIC_PRESENTATION_REPRESENTATION (  '', ( #40 ), #241 ) ;
#213 = CARTESIAN_POINT ( 'NONE',  ( 1.224646799147353700E-16, 2.000000000000000000, 0.000000000000000000 ) ) ;
#214 = FACE_OUTER_BOUND ( 'NONE', #157, .T. ) ;
#215 = PRESENTATION_LAYER_ASSIGNMENT (  '', '', ( #39 ) ) ;
#216 = DIRECTION ( 'NONE',  ( -1.067490991472360598E-16, 1.000000000000000000, -0.000000000000000000 ) ) ;
#217 = CARTESIAN_POINT ( 'NONE',  ( 3.244069492476312449E-16, 0.1082531754730544776, 0.000000000000000000 ) ) ;
#218 = DIMENSIONAL_EXPONENTS ( 1.000000000000000000, 0.000000000000000000, 0.000000000000000000, 0.000000000000000000, 0.000000000000000000, 0.000000000000000000, 0.000000000000000000 ) ;
#219 = PRESENTATION_LAYER_ASSIGNMENT (  '', '', ( #122 ) ) ;
#220 = DIRECTION ( 'NONE',  ( 0.000000000000000000, -0.000000000000000000, 1.000000000000000000 ) ) ;
#221 = PLANE ( 'NONE',  #159 ) ;
#222 = APPLICATION_CONTEXT ( 'automotive_design' ) ;
#223 = SURFACE_STYLE_USAGE ( .BOTH. , #36 ) ;
#224 = ORIENTED_EDGE ( 'NONE', *, *, #245, .T. ) ;
#225 = CARTESIAN_POINT ( 'NONE',  ( 1.224646799147353700E-16, 2.000000000000000000, 0.000000000000000000 ) ) ;
#226 = CIRCLE ( 'NONE', #134, 0.06249999999999982653 ) ;
#227 = CIRCLE ( 'NONE', #86, 0.06249999999999997918 ) ;
#228 = AXIS2_PLACEMENT_3D ( 'NONE', #217, #216, #185 ) ;
#229 = CARTESIAN_POINT ( 'NONE',  ( 0.000000000000000000, 39.37007874015748143, 0.000000000000000000 ) ) ;
#230 = DIRECTION ( 'NONE',  ( 0.000000000000000000, 0.000000000000000000, 1.000000000000000000 ) ) ;
#231 = DIRECTION ( 'NONE',  ( 0.000000000000000000, 0.000000000000000000, 1.000000000000000000 ) ) ;
#232 =( NAMED_UNIT ( * ) PLANE_ANGLE_UNIT ( ) SI_UNIT ( $, .RADIAN. ) );
#233 = CARTESIAN_POINT ( 'NONE',  ( 7.654042494670956004E-18, 0.1082531754730545470, -0.06249999999999997918 ) ) ;
#234 = EDGE_LOOP ( 'NONE', ( #161, #208, #137 ) ) ;
#235 = DIRECTION ( 'NONE',  ( -1.067490991472360598E-16, 1.000000000000000000, -0.000000000000000000 ) ) ;
#236 =( NAMED_UNIT ( * ) PLANE_ANGLE_UNIT ( ) SI_UNIT ( $, .RADIAN. ) );
#237 = LINE ( 'NONE', #44, #113 ) ;
#238 = DIRECTION ( 'NONE',  ( 1.000000000000000000, 0.000000000000000000, 0.000000000000000000 ) ) ;
#239 = MECHANICAL_DESIGN_GEOMETRIC_PRESENTATION_REPRESENTATION (  '', ( #251 ), #63 ) ;
#240 = FILL_AREA_STYLE_COLOUR ( '', #131 ) ;
#241 =( GEOMETRIC_REPRESENTATION_CONTEXT ( 3 ) GLOBAL_UNCERTAINTY_ASSIGNED_CONTEXT ( ( #20 ) ) GLOBAL_UNIT_ASSIGNED_CONTEXT ( ( #244, #107, #85 ) ) REPRESENTATION_CONTEXT ( 'NONE', 'WORKASPACE' ) );
#242 = ORIENTED_EDGE ( 'NONE', *, *, #59, .F. ) ;
#243 = EDGE_CURVE ( 'NONE', #13, #64, #110, .T. ) ;
#244 =( CONVERSION_BASED_UNIT ( 'INCH', #154 ) LENGTH_UNIT ( ) NAMED_UNIT ( #55 ) );
#245 = EDGE_CURVE ( 'NONE', #140, #79, #227, .T. ) ;
#246 = CARTESIAN_POINT ( 'NONE',  ( 1.224646799147353700E-16, 2.000000000000000000, 0.000000000000000000 ) ) ;
#247 = FACE_OUTER_BOUND ( 'NONE', #263, .T. ) ;
#248 = CARTESIAN_POINT ( 'NONE',  ( 0.06249999999999995837, 2.000000000000000000, 7.654042494670931352E-18 ) ) ;
#249 = FILL_AREA_STYLE ('',( #117 ) ) ;
#250 = CYLINDRICAL_SURFACE ( 'NONE', #48, 0.06249999999999972938 ) ;
#251 = STYLED_ITEM ( 'NONE', ( #68 ), #136 ) ;
#252 = DIRECTION ( 'NONE',  ( -1.000000000000000000, 0.000000000000000000, 0.000000000000000000 ) ) ;
#253 = DIRECTION ( 'NONE',  ( -1.000000000000000000, -1.067490991472360598E-16, 0.000000000000000000 ) ) ;
#254 =( LENGTH_UNIT ( ) NAMED_UNIT ( * ) SI_UNIT ( $, .METRE. ) );
#255 = LENGTH_MEASURE_WITH_UNIT ( LENGTH_MEASURE( 0.02539999999999999897 ), #73 );
#256 =( CONVERSION_BASED_UNIT ( 'INCH', #7 ) LENGTH_UNIT ( ) NAMED_UNIT ( #135 ) );
#257 = ORIENTED_EDGE ( 'NONE', *, *, #37, .F. ) ;
#258 = COLOUR_RGB ( '',0.7921568627450980005, 0.8196078431372548767, 0.9333333333333333481 ) ;
#259 = UNCERTAINTY_MEASURE_WITH_UNIT (LENGTH_MEASURE( 1.000000000000000082E-05 ), #256, 'distance_accuracy_value', 'NONE');
#260 = CARTESIAN_POINT ( 'NONE',  ( 0.06249999999999984734, 2.000000000000000000, 7.654042494670923648E-18 ) ) ;
#261 = PRODUCT_DEFINITION_CONTEXT ( 'detailed design', #222, 'design' ) ;
#262 = EDGE_LOOP ( 'NONE', ( #257, #138, #58, #242 ) ) ;
#263 = EDGE_LOOP ( 'NONE', ( #209, #175, #224 ) ) ;
#264 = DIRECTION ( 'NONE',  ( 0.000000000000000000, 0.000000000000000000, -1.000000000000000000 ) ) ;
#265 = LINE ( 'NONE', #65, #29 ) ;
ENDSEC;
END-ISO-10303-21;
