ISO-10303-21;
HEADER;
FILE_DESCRIPTION (( 'STEP AP214' ),
    '1' );
FILE_NAME ('Micro_BMRM-015-2X.STEP',
    '2021-09-03T14:28:47',
    ( '' ),
    ( '' ),
    'SwSTEP 2.0',
    'SolidWorks 2020',
    '' );
FILE_SCHEMA (( 'AUTOMOTIVE_DESIGN' ));
ENDSEC;

DATA;
#1 = DIRECTION ( 'NONE',  ( -1.000000000000000000, 0.0000000000000000000, 0.0000000000000000000 ) ) ;
#2 = CARTESIAN_POINT ( 'NONE',  ( -0.07874000000000000443, 0.0000000000000000000, 1.953504000000000129 ) ) ;
#3 = EDGE_CURVE ( 'NONE', #277, #165, #133, .T. ) ;
#4 = DIRECTION ( 'NONE',  ( 1.000000000000000000, 0.0000000000000000000, -0.0000000000000000000 ) ) ;
#5 = SPHERICAL_SURFACE ( 'NONE', #176, 0.02949797249999999704 ) ;
#6 = ADVANCED_FACE ( 'NONE', ( #249 ), #195, .T. ) ;
#7 = DIRECTION ( 'NONE',  ( -0.0000000000000000000, -0.0000000000000000000, -1.000000000000000000 ) ) ;
#8 = ORIENTED_EDGE ( 'NONE', *, *, #292, .F. ) ;
#9 = PRESENTATION_STYLE_ASSIGNMENT (( #212 ) ) ;
#10 = AXIS2_PLACEMENT_3D ( 'NONE', #70, #269, #288 ) ;
#11 = CIRCLE ( 'NONE', #255, 0.02949797249999999704 ) ;
#12 = ORIENTED_EDGE ( 'NONE', *, *, #317, .F. ) ;
#13 = DIRECTION ( 'NONE',  ( -1.000000000000000000, 0.0000000000000000000, 1.224646799147352961E-16 ) ) ;
#14 = CARTESIAN_POINT ( 'NONE',  ( 5.445017438126880810E-17, 0.0000000000000000000, 0.4446194153218638312 ) ) ;
#15 = ORIENTED_EDGE ( 'NONE', *, *, #302, .F. ) ;
#16 = CIRCLE ( 'NONE', #22, 0.07874000000000000443 ) ;
#17 = ORIENTED_EDGE ( 'NONE', *, *, #187, .T. ) ;
#18 = DIRECTION ( 'NONE',  ( 1.000000000000000000, 0.0000000000000000000, 0.0000000000000000000 ) ) ;
#19 = DIRECTION ( 'NONE',  ( -0.1736481776669311639, 2.126576849575782392E-17, 0.9848077530122080203 ) ) ;
#20 = VECTOR ( 'NONE', #19, 39.37007874015747433 ) ;
#21 = DIRECTION ( 'NONE',  ( 1.000000000000000000, 0.0000000000000000000, 0.0000000000000000000 ) ) ;
#22 = AXIS2_PLACEMENT_3D ( 'NONE', #14, #267, #313 ) ;
#23 = CARTESIAN_POINT ( 'NONE',  ( 0.07874000000000000443, 9.642868896486258509E-18, 1.968503999999999809 ) ) ;
#24 = DIRECTION ( 'NONE',  ( 0.0000000000000000000, 0.0000000000000000000, 1.000000000000000000 ) ) ;
#25 = CARTESIAN_POINT ( 'NONE',  ( 2.025002468262114287E-17, 0.0000000000000000000, 0.1653539999999999732 ) ) ;
#26 = ADVANCED_FACE ( 'NONE', ( #98 ), #271, .T. ) ;
#27 = AXIS2_PLACEMENT_3D ( 'NONE', #124, #103, #199 ) ;
#28 = CIRCLE ( 'NONE', #208, 0.02949797249999999704 ) ;
#29 = CARTESIAN_POINT ( 'NONE',  ( 0.0000000000000000000, 0.0000000000000000000, 0.0000000000000000000 ) ) ;
#30 = EDGE_LOOP ( 'NONE', ( #164, #298, #54, #15 ) ) ;
#31 = DIRECTION ( 'NONE',  ( -1.000000000000000000, 0.0000000000000000000, 1.447052840699614406E-16 ) ) ;
#32 = ORIENTED_EDGE ( 'NONE', *, *, #324, .F. ) ;
#33 = LENGTH_MEASURE_WITH_UNIT ( LENGTH_MEASURE( 0.02539999999999999897 ), #268 );
#34 = DIMENSIONAL_EXPONENTS ( 1.000000000000000000, 0.0000000000000000000, 0.0000000000000000000, 0.0000000000000000000, 0.0000000000000000000, 0.0000000000000000000, 0.0000000000000000000 ) ;
#35 = DIRECTION ( 'NONE',  ( 1.000000000000000000, 0.0000000000000000000, 0.0000000000000000000 ) ) ;
#36 = VECTOR ( 'NONE', #264, 39.37007874015748143 ) ;
#37 = ADVANCED_FACE ( 'NONE', ( #56 ), #228, .T. ) ;
#38 = MECHANICAL_DESIGN_GEOMETRIC_PRESENTATION_REPRESENTATION (  '', ( #170 ), #151 ) ;
#39 = CARTESIAN_POINT ( 'NONE',  ( 2.025002468262114287E-17, 0.0000000000000000000, 0.1653539999999999732 ) ) ;
#40 = ORIENTED_EDGE ( 'NONE', *, *, #324, .T. ) ;
#41 = CARTESIAN_POINT ( 'NONE',  ( 0.0000000000000000000, 0.0000000000000000000, 1.968503999999999809 ) ) ;
#42 = DIMENSIONAL_EXPONENTS ( 1.000000000000000000, 0.0000000000000000000, 0.0000000000000000000, 0.0000000000000000000, 0.0000000000000000000, 0.0000000000000000000, 0.0000000000000000000 ) ;
#43 = AXIS2_PLACEMENT_3D ( 'NONE', #29, #130, #236 ) ;
#44 = ORIENTED_EDGE ( 'NONE', *, *, #57, .T. ) ;
#45 = PRODUCT ( 'Micro_BMRM-015-2X', 'Micro_BMRM-015-2X', '', ( #100 ) ) ;
#46 = PRODUCT_DEFINITION_CONTEXT ( 'detailed design', #150, 'design' ) ;
#47 =( LENGTH_UNIT ( ) NAMED_UNIT ( * ) SI_UNIT ( $, .METRE. ) );
#48 =( NAMED_UNIT ( * ) SI_UNIT ( $, .STERADIAN. ) SOLID_ANGLE_UNIT ( ) );
#49 = VERTEX_POINT ( 'NONE', #178 ) ;
#50 = CARTESIAN_POINT ( 'NONE',  ( -0.06374000000000018540, 0.0000000000000000000, 1.968503999999999809 ) ) ;
#51 = EDGE_CURVE ( 'NONE', #172, #277, #104, .T. ) ;
#52 = CARTESIAN_POINT ( 'NONE',  ( -0.02949797250000000398, 0.0000000000000000000, 3.612459760346164844E-18 ) ) ;
#53 =( GEOMETRIC_REPRESENTATION_CONTEXT ( 3 ) GLOBAL_UNCERTAINTY_ASSIGNED_CONTEXT ( ( #242 ) ) GLOBAL_UNIT_ASSIGNED_CONTEXT ( ( #132, #237, #64 ) ) REPRESENTATION_CONTEXT ( 'NONE', 'WORKASPACE' ) );
#54 = ORIENTED_EDGE ( 'NONE', *, *, #168, .T. ) ;
#55 = PLANE ( 'NONE',  #106 ) ;
#56 = FACE_OUTER_BOUND ( 'NONE', #84, .T. ) ;
#57 = EDGE_CURVE ( 'NONE', #63, #220, #28, .T. ) ;
#58 = CARTESIAN_POINT ( 'NONE',  ( 0.0000000000000000000, 0.0000000000000000000, 1.968503999999999809 ) ) ;
#59 = STYLED_ITEM ( 'NONE', ( #9 ), #309 ) ;
#60 = CARTESIAN_POINT ( 'NONE',  ( 0.02949797250000002133, 0.0000000000000000000, 0.1653539999999999732 ) ) ;
#61 = EDGE_LOOP ( 'NONE', ( #12, #32, #184, #117 ) ) ;
#62 = DIRECTION ( 'NONE',  ( -1.000000000000000000, 1.224646799147353454E-16, 0.0000000000000000000 ) ) ;
#63 = VERTEX_POINT ( 'NONE', #202 ) ;
#64 =( NAMED_UNIT ( * ) SI_UNIT ( $, .STERADIAN. ) SOLID_ANGLE_UNIT ( ) );
#65 = AXIS2_PLACEMENT_3D ( 'NONE', #182, #225, #251 ) ;
#66 = CONICAL_SURFACE ( 'NONE', #322, 0.06374000000000018540, 0.7853981633974522758 ) ;
#67 = AXIS2_PLACEMENT_3D ( 'NONE', #306, #126, #287 ) ;
#68 = CARTESIAN_POINT ( 'NONE',  ( 0.07874000000000004607, 9.642868896486264672E-18, 0.4446194153218638312 ) ) ;
#69 = EDGE_LOOP ( 'NONE', ( #238, #226, #97 ) ) ;
#70 = CARTESIAN_POINT ( 'NONE',  ( 2.025002468262114287E-17, 0.0000000000000000000, 0.1653539999999999732 ) ) ;
#71 = VERTEX_POINT ( 'NONE', #2 ) ;
#72 = LINE ( 'NONE', #219, #20 ) ;
#73 = CIRCLE ( 'NONE', #189, 0.02949797249999999704 ) ;
#74 = APPLICATION_PROTOCOL_DEFINITION ( 'draft international standard', 'automotive_design', 1998, #150 ) ;
#75 = LENGTH_MEASURE_WITH_UNIT ( LENGTH_MEASURE( 0.02539999999999999897 ), #320 );
#76 = PRODUCT_RELATED_PRODUCT_CATEGORY ( 'part', '', ( #45 ) ) ;
#77 = DIRECTION ( 'NONE',  ( -1.224646799147353207E-16, -0.0000000000000000000, -1.000000000000000000 ) ) ;
#78 = FACE_OUTER_BOUND ( 'NONE', #82, .T. ) ;
#79 = DIRECTION ( 'NONE',  ( 0.7071067811865502373, 8.659560562354966138E-17, -0.7071067811865446862 ) ) ;
#80 = CARTESIAN_POINT ( 'NONE',  ( 0.0000000000000000000, 0.0000000000000000000, 1.953504000000000129 ) ) ;
#81 = EDGE_LOOP ( 'NONE', ( #44, #17, #113, #185 ) ) ;
#82 = EDGE_LOOP ( 'NONE', ( #148, #295, #323, #142 ) ) ;
#83 = FACE_OUTER_BOUND ( 'NONE', #248, .T. ) ;
#84 = EDGE_LOOP ( 'NONE', ( #191, #235, #95, #129 ) ) ;
#85 = VERTEX_POINT ( 'NONE', #153 ) ;
#86 =( GEOMETRIC_REPRESENTATION_CONTEXT ( 3 ) GLOBAL_UNCERTAINTY_ASSIGNED_CONTEXT ( ( #110 ) ) GLOBAL_UNIT_ASSIGNED_CONTEXT ( ( #169, #94, #48 ) ) REPRESENTATION_CONTEXT ( 'NONE', 'WORKASPACE' ) );
#87 = VERTEX_POINT ( 'NONE', #230 ) ;
#88 = CARTESIAN_POINT ( 'NONE',  ( 0.0000000000000000000, 0.0000000000000000000, 0.0000000000000000000 ) ) ;
#89 = ORIENTED_EDGE ( 'NONE', *, *, #278, .T. ) ;
#90 = DIRECTION ( 'NONE',  ( -1.224646799147353207E-16, -0.0000000000000000000, -1.000000000000000000 ) ) ;
#91 = CIRCLE ( 'NONE', #99, 0.06374000000000018540 ) ;
#92 = DIRECTION ( 'NONE',  ( 1.224646799147353207E-16, 0.0000000000000000000, 1.000000000000000000 ) ) ;
#93 = ORIENTED_EDGE ( 'NONE', *, *, #231, .F. ) ;
#94 =( NAMED_UNIT ( * ) PLANE_ANGLE_UNIT ( ) SI_UNIT ( $, .RADIAN. ) );
#95 = ORIENTED_EDGE ( 'NONE', *, *, #307, .F. ) ;
#96 = DIMENSIONAL_EXPONENTS ( 1.000000000000000000, 0.0000000000000000000, 0.0000000000000000000, 0.0000000000000000000, 0.0000000000000000000, 0.0000000000000000000, 0.0000000000000000000 ) ;
#97 = ORIENTED_EDGE ( 'NONE', *, *, #278, .F. ) ;
#98 = FACE_OUTER_BOUND ( 'NONE', #61, .T. ) ;
#99 = AXIS2_PLACEMENT_3D ( 'NONE', #105, #159, #134 ) ;
#100 = PRODUCT_CONTEXT ( 'NONE', #303, 'mechanical' ) ;
#101 = PRESENTATION_LAYER_ASSIGNMENT (  '', '', ( #170 ) ) ;
#102 = FACE_OUTER_BOUND ( 'NONE', #81, .T. ) ;
#103 = DIRECTION ( 'NONE',  ( 0.0000000000000000000, 1.000000000000000000, 0.0000000000000000000 ) ) ;
#104 = LINE ( 'NONE', #23, #120 ) ;
#105 = CARTESIAN_POINT ( 'NONE',  ( 0.0000000000000000000, 0.0000000000000000000, 1.968503999999999809 ) ) ;
#106 = AXIS2_PLACEMENT_3D ( 'NONE', #260, #24, #4 ) ;
#107 = CARTESIAN_POINT ( 'NONE',  ( 3.612459760346164844E-18, 0.0000000000000000000, 0.02949797249999999704 ) ) ;
#108 = FILL_AREA_STYLE_COLOUR ( '', #201 ) ;
#109 = CARTESIAN_POINT ( 'NONE',  ( -0.06374000000000018540, 0.0000000000000000000, 1.968503999999999809 ) ) ;
#110 = UNCERTAINTY_MEASURE_WITH_UNIT (LENGTH_MEASURE( 1.000000000000000082E-05 ), #169, 'distance_accuracy_value', 'NONE');
#111 = CARTESIAN_POINT ( 'NONE',  ( 3.612459760346164844E-18, 0.0000000000000000000, 0.02949797249999999704 ) ) ;
#112 = DIRECTION ( 'NONE',  ( 0.0000000000000000000, 0.0000000000000000000, 1.000000000000000000 ) ) ;
#113 = ORIENTED_EDGE ( 'NONE', *, *, #312, .T. ) ;
#114 = VECTOR ( 'NONE', #79, 39.37007874015748854 ) ;
#115 = LENGTH_MEASURE_WITH_UNIT ( LENGTH_MEASURE( 0.02539999999999999897 ), #47 );
#116 = EDGE_LOOP ( 'NONE', ( #8, #194, #263 ) ) ;
#117 = ORIENTED_EDGE ( 'NONE', *, *, #3, .T. ) ;
#118 = APPLICATION_PROTOCOL_DEFINITION ( 'draft international standard', 'automotive_design', 1998, #303 ) ;
#119 = ADVANCED_FACE ( 'NONE', ( #78 ), #127, .T. ) ;
#120 = VECTOR ( 'NONE', #7, 39.37007874015748143 ) ;
#121 = CIRCLE ( 'NONE', #203, 0.02949797250000000398 ) ;
#122 = DIRECTION ( 'NONE',  ( -1.000000000000000000, 0.0000000000000000000, 0.0000000000000000000 ) ) ;
#123 = VECTOR ( 'NONE', #308, 39.37007874015748143 ) ;
#124 = CARTESIAN_POINT ( 'NONE',  ( 3.612459760346164844E-18, 0.0000000000000000000, 0.02949797249999999704 ) ) ;
#125 = CARTESIAN_POINT ( 'NONE',  ( 0.02949797250000000398, 3.612459760346164844E-18, -3.612459760346164844E-18 ) ) ;
#126 = DIRECTION ( 'NONE',  ( -0.0000000000000000000, -0.0000000000000000000, -1.000000000000000000 ) ) ;
#127 = CYLINDRICAL_SURFACE ( 'NONE', #67, 0.07874000000000000443 ) ;
#128 = CONICAL_SURFACE ( 'NONE', #213, 0.06374000000000018540, 0.7853981633974522758 ) ;
#129 = ORIENTED_EDGE ( 'NONE', *, *, #143, .F. ) ;
#130 = DIRECTION ( 'NONE',  ( -1.224646799147353207E-16, -0.0000000000000000000, -1.000000000000000000 ) ) ;
#131 = ORIENTED_EDGE ( 'NONE', *, *, #317, .T. ) ;
#132 =( CONVERSION_BASED_UNIT ( 'INCH', #33 ) LENGTH_UNIT ( ) NAMED_UNIT ( #96 ) );
#133 = CIRCLE ( 'NONE', #65, 0.07874000000000000443 ) ;
#134 = DIRECTION ( 'NONE',  ( 1.000000000000000000, 0.0000000000000000000, 0.0000000000000000000 ) ) ;
#135 = AXIS2_PLACEMENT_3D ( 'NONE', #294, #92, #31 ) ;
#136 = PRODUCT_DEFINITION_FORMATION_WITH_SPECIFIED_SOURCE ( 'ANY', '', #45, .NOT_KNOWN. ) ;
#137 = DIRECTION ( 'NONE',  ( 1.224646799147353207E-16, 1.000000000000000000, -0.0000000000000000000 ) ) ;
#138 = DIRECTION ( 'NONE',  ( 0.1736481776669313304, 0.0000000000000000000, 0.9848077530122077983 ) ) ;
#139 = EDGE_LOOP ( 'NONE', ( #280, #40, #290, #89 ) ) ;
#140 = FACE_OUTER_BOUND ( 'NONE', #139, .T. ) ;
#141 =( NAMED_UNIT ( * ) SI_UNIT ( $, .STERADIAN. ) SOLID_ANGLE_UNIT ( ) );
#142 = ORIENTED_EDGE ( 'NONE', *, *, #3, .F. ) ;
#143 = EDGE_CURVE ( 'NONE', #71, #165, #147, .T. ) ;
#144 = AXIS2_PLACEMENT_3D ( 'NONE', #88, #90, #13 ) ;
#145 = ADVANCED_FACE ( 'NONE', ( #154 ), #66, .T. ) ;
#146 = SURFACE_STYLE_FILL_AREA ( #192 ) ;
#147 = LINE ( 'NONE', #304, #36 ) ;
#148 = ORIENTED_EDGE ( 'NONE', *, *, #51, .F. ) ;
#149 = DIRECTION ( 'NONE',  ( -1.224646799147353207E-16, -0.0000000000000000000, -1.000000000000000000 ) ) ;
#150 = APPLICATION_CONTEXT ( 'automotive_design' ) ;
#151 =( GEOMETRIC_REPRESENTATION_CONTEXT ( 3 ) GLOBAL_UNCERTAINTY_ASSIGNED_CONTEXT ( ( #177 ) ) GLOBAL_UNIT_ASSIGNED_CONTEXT ( ( #321, #300, #141 ) ) REPRESENTATION_CONTEXT ( 'NONE', 'WORKASPACE' ) );
#152 = ADVANCED_FACE ( 'NONE', ( #102 ), #305, .T. ) ;
#153 = CARTESIAN_POINT ( 'NONE',  ( 0.02949797250000000745, 3.612459760346164844E-18, 0.02949797249999999357 ) ) ;
#154 = FACE_OUTER_BOUND ( 'NONE', #30, .T. ) ;
#155 = DIRECTION ( 'NONE',  ( -1.000000000000000000, 0.0000000000000000000, 0.0000000000000000000 ) ) ;
#156 = AXIS2_PLACEMENT_3D ( 'NONE', #160, #163, #293 ) ;
#157 = ADVANCED_FACE ( 'NONE', ( #232 ), #5, .T. ) ;
#158 = FACE_OUTER_BOUND ( 'NONE', #216, .T. ) ;
#159 = DIRECTION ( 'NONE',  ( 0.0000000000000000000, 0.0000000000000000000, 1.000000000000000000 ) ) ;
#160 = CARTESIAN_POINT ( 'NONE',  ( 0.0000000000000000000, 0.0000000000000000000, 1.953504000000000129 ) ) ;
#161 = SURFACE_STYLE_FILL_AREA ( #241 ) ;
#162 = ORIENTED_EDGE ( 'NONE', *, *, #299, .T. ) ;
#163 = DIRECTION ( 'NONE',  ( 0.0000000000000000000, 0.0000000000000000000, -1.000000000000000000 ) ) ;
#164 = ORIENTED_EDGE ( 'NONE', *, *, #218, .F. ) ;
#165 = VERTEX_POINT ( 'NONE', #171 ) ;
#166 = CIRCLE ( 'NONE', #233, 0.06374000000000018540 ) ;
#167 = DIRECTION ( 'NONE',  ( 0.0000000000000000000, 0.0000000000000000000, 1.000000000000000000 ) ) ;
#168 = EDGE_CURVE ( 'NONE', #245, #71, #283, .T. ) ;
#169 =( CONVERSION_BASED_UNIT ( 'INCH', #75 ) LENGTH_UNIT ( ) NAMED_UNIT ( #34 ) );
#170 = STYLED_ITEM ( 'NONE', ( #325 ), #196 ) ;
#171 = CARTESIAN_POINT ( 'NONE',  ( -0.07873999999999994892, 0.0000000000000000000, 0.4446194153218638312 ) ) ;
#172 = VERTEX_POINT ( 'NONE', #284 ) ;
#173 = LINE ( 'NONE', #52, #265 ) ;
#174 = EDGE_CURVE ( 'NONE', #71, #172, #217, .T. ) ;
#175 = DIRECTION ( 'NONE',  ( 1.000000000000000000, 0.0000000000000000000, 0.0000000000000000000 ) ) ;
#176 = AXIS2_PLACEMENT_3D ( 'NONE', #107, #211, #175 ) ;
#177 = UNCERTAINTY_MEASURE_WITH_UNIT (LENGTH_MEASURE( 1.000000000000000082E-05 ), #321, 'distance_accuracy_value', 'NONE');
#178 = CARTESIAN_POINT ( 'NONE',  ( 0.06374000000000018540, 8.724383797125754882E-18, 1.968503999999999809 ) ) ;
#179 = DIRECTION ( 'NONE',  ( -0.0000000000000000000, -0.0000000000000000000, -1.000000000000000000 ) ) ;
#180 = EDGE_CURVE ( 'NONE', #63, #87, #173, .T. ) ;
#181 = DIRECTION ( 'NONE',  ( 0.0000000000000000000, -1.000000000000000000, 0.0000000000000000000 ) ) ;
#182 = CARTESIAN_POINT ( 'NONE',  ( 5.445017438126880810E-17, 0.0000000000000000000, 0.4446194153218638312 ) ) ;
#183 = AXIS2_PLACEMENT_3D ( 'NONE', #247, #181, #215 ) ;
#184 = ORIENTED_EDGE ( 'NONE', *, *, #240, .T. ) ;
#185 = ORIENTED_EDGE ( 'NONE', *, *, #180, .F. ) ;
#186 = CARTESIAN_POINT ( 'NONE',  ( 5.418689640519246881E-18, 0.0000000000000000000, 0.0000000000000000000 ) ) ;
#187 = EDGE_CURVE ( 'NONE', #220, #85, #259, .T. ) ;
#188 = SURFACE_SIDE_STYLE ('',( #161 ) ) ;
#189 = AXIS2_PLACEMENT_3D ( 'NONE', #316, #137, #62 ) ;
#190 = AXIS2_PLACEMENT_3D ( 'NONE', #252, #167, #18 ) ;
#191 = ORIENTED_EDGE ( 'NONE', *, *, #174, .T. ) ;
#192 = FILL_AREA_STYLE ('',( #296 ) ) ;
#193 = PRODUCT_DEFINITION ( 'UNKNOWN', '', #136, #46 ) ;
#194 = ORIENTED_EDGE ( 'NONE', *, *, #262, .T. ) ;
#195 = SPHERICAL_SURFACE ( 'NONE', #27, 0.02949797249999999704 ) ;
#196 = ADVANCED_BREP_SHAPE_REPRESENTATION ( 'Micro_BMRM-015-2X', ( #309, #190 ), #86 ) ;
#197 = AXIS2_PLACEMENT_3D ( 'NONE', #58, #179, #122 ) ;
#198 = DIRECTION ( 'NONE',  ( -1.224646799147353207E-16, -0.0000000000000000000, -1.000000000000000000 ) ) ;
#199 = DIRECTION ( 'NONE',  ( 1.000000000000000000, 0.0000000000000000000, 0.0000000000000000000 ) ) ;
#200 = ORIENTED_EDGE ( 'NONE', *, *, #168, .F. ) ;
#201 = COLOUR_RGB ( '',0.7921568627450980005, 0.8196078431372548767, 0.9333333333333333481 ) ;
#202 = CARTESIAN_POINT ( 'NONE',  ( -0.02949797249999997623, 6.627664328416212062E-18, 0.1653539999999999732 ) ) ;
#203 = AXIS2_PLACEMENT_3D ( 'NONE', #111, #270, #275 ) ;
#204 = DIRECTION ( 'NONE',  ( 0.0000000000000000000, 0.0000000000000000000, -1.000000000000000000 ) ) ;
#205 = CARTESIAN_POINT ( 'NONE',  ( 0.06374000000000018540, 7.805898697765251255E-18, 1.968503999999999809 ) ) ;
#206 = FACE_OUTER_BOUND ( 'NONE', #276, .T. ) ;
#207 = VECTOR ( 'NONE', #138, 39.37007874015748143 ) ;
#208 = AXIS2_PLACEMENT_3D ( 'NONE', #25, #77, #155 ) ;
#209 = PRODUCT_DEFINITION_SHAPE ( 'NONE', 'NONE',  #193 ) ;
#210 = ORIENTED_EDGE ( 'NONE', *, *, #57, .F. ) ;
#211 = DIRECTION ( 'NONE',  ( 0.0000000000000000000, 1.000000000000000000, 0.0000000000000000000 ) ) ;
#212 = SURFACE_STYLE_USAGE ( .BOTH. , #188 ) ;
#213 = AXIS2_PLACEMENT_3D ( 'NONE', #41, #244, #273 ) ;
#214 = DIRECTION ( 'NONE',  ( 1.224646799147353207E-16, 0.0000000000000000000, 1.000000000000000000 ) ) ;
#215 = DIRECTION ( 'NONE',  ( 0.0000000000000000000, 0.0000000000000000000, -1.000000000000000000 ) ) ;
#216 = EDGE_LOOP ( 'NONE', ( #210, #131, #319, #243 ) ) ;
#217 = CIRCLE ( 'NONE', #285, 0.07874000000000000443 ) ;
#218 = EDGE_CURVE ( 'NONE', #49, #172, #229, .T. ) ;
#219 = CARTESIAN_POINT ( 'NONE',  ( -0.02949797249999997623, 3.612459760346164844E-18, 0.1653539999999999732 ) ) ;
#220 = VERTEX_POINT ( 'NONE', #286 ) ;
#221 = DIRECTION ( 'NONE',  ( -1.000000000000000000, 0.0000000000000000000, 0.0000000000000000000 ) ) ;
#222 = VECTOR ( 'NONE', #310, 39.37007874015748854 ) ;
#223 = ADVANCED_FACE ( 'NONE', ( #206 ), #55, .T. ) ;
#224 = SURFACE_STYLE_USAGE ( .BOTH. , #254 ) ;
#225 = DIRECTION ( 'NONE',  ( -1.224646799147353207E-16, -0.0000000000000000000, -1.000000000000000000 ) ) ;
#226 = ORIENTED_EDGE ( 'NONE', *, *, #292, .T. ) ;
#227 = CONICAL_SURFACE ( 'NONE', #253, 0.02949797249999999704, 0.1745329251994338360 ) ;
#228 = CYLINDRICAL_SURFACE ( 'NONE', #197, 0.07874000000000000443 ) ;
#229 = LINE ( 'NONE', #205, #114 ) ;
#230 = CARTESIAN_POINT ( 'NONE',  ( -0.02949797249999999704, 0.0000000000000000000, 0.02949797250000000398 ) ) ;
#231 = EDGE_CURVE ( 'NONE', #49, #245, #91, .T. ) ;
#232 = FACE_OUTER_BOUND ( 'NONE', #69, .T. ) ;
#233 = AXIS2_PLACEMENT_3D ( 'NONE', #239, #112, #291 ) ;
#234 = COLOUR_RGB ( '',0.7921568627450980005, 0.8196078431372548767, 0.9333333333333333481 ) ;
#235 = ORIENTED_EDGE ( 'NONE', *, *, #51, .T. ) ;
#236 = DIRECTION ( 'NONE',  ( -1.000000000000000000, 0.0000000000000000000, 1.224646799147352961E-16 ) ) ;
#237 =( NAMED_UNIT ( * ) PLANE_ANGLE_UNIT ( ) SI_UNIT ( $, .RADIAN. ) );
#238 = ORIENTED_EDGE ( 'NONE', *, *, #262, .F. ) ;
#239 = CARTESIAN_POINT ( 'NONE',  ( 0.0000000000000000000, 0.0000000000000000000, 1.968503999999999809 ) ) ;
#240 = EDGE_CURVE ( 'NONE', #220, #277, #315, .T. ) ;
#241 = FILL_AREA_STYLE ('',( #108 ) ) ;
#242 = UNCERTAINTY_MEASURE_WITH_UNIT (LENGTH_MEASURE( 1.000000000000000082E-05 ), #132, 'distance_accuracy_value', 'NONE');
#243 = ORIENTED_EDGE ( 'NONE', *, *, #240, .F. ) ;
#244 = DIRECTION ( 'NONE',  ( 0.0000000000000000000, 0.0000000000000000000, -1.000000000000000000 ) ) ;
#245 = VERTEX_POINT ( 'NONE', #109 ) ;
#246 = ADVANCED_FACE ( 'NONE', ( #158 ), #227, .T. ) ;
#247 = CARTESIAN_POINT ( 'NONE',  ( 3.612459760346164844E-18, 0.0000000000000000000, 0.02949797249999999704 ) ) ;
#248 = EDGE_LOOP ( 'NONE', ( #93, #272, #266, #200 ) ) ;
#249 = FACE_OUTER_BOUND ( 'NONE', #116, .T. ) ;
#250 = PRESENTATION_LAYER_ASSIGNMENT (  '', '', ( #59 ) ) ;
#251 = DIRECTION ( 'NONE',  ( 1.000000000000000000, 0.0000000000000000000, 0.0000000000000000000 ) ) ;
#252 = CARTESIAN_POINT ( 'NONE',  ( 0.0000000000000000000, 0.0000000000000000000, 0.0000000000000000000 ) ) ;
#253 = AXIS2_PLACEMENT_3D ( 'NONE', #39, #214, #35 ) ;
#254 = SURFACE_SIDE_STYLE ('',( #146 ) ) ;
#255 = AXIS2_PLACEMENT_3D ( 'NONE', #301, #198, #221 ) ;
#256 = ADVANCED_FACE ( 'NONE', ( #140 ), #289, .T. ) ;
#257 = DIRECTION ( 'NONE',  ( 0.0000000000000000000, 0.0000000000000000000, -1.000000000000000000 ) ) ;
#258 = MECHANICAL_DESIGN_GEOMETRIC_PRESENTATION_REPRESENTATION (  '', ( #59 ), #53 ) ;
#259 = LINE ( 'NONE', #125, #123 ) ;
#260 = CARTESIAN_POINT ( 'NONE',  ( 0.0000000000000000000, 0.0000000000000000000, 1.968503999999999809 ) ) ;
#261 = CARTESIAN_POINT ( 'NONE',  ( 0.0000000000000000000, 0.0000000000000000000, 1.968503999999999809 ) ) ;
#262 = EDGE_CURVE ( 'NONE', #274, #87, #73, .T. ) ;
#263 = ORIENTED_EDGE ( 'NONE', *, *, #312, .F. ) ;
#264 = DIRECTION ( 'NONE',  ( -0.0000000000000000000, -0.0000000000000000000, -1.000000000000000000 ) ) ;
#265 = VECTOR ( 'NONE', #149, 39.37007874015748143 ) ;
#266 = ORIENTED_EDGE ( 'NONE', *, *, #174, .F. ) ;
#267 = DIRECTION ( 'NONE',  ( -1.224646799147353207E-16, -0.0000000000000000000, -1.000000000000000000 ) ) ;
#268 =( LENGTH_UNIT ( ) NAMED_UNIT ( * ) SI_UNIT ( $, .METRE. ) );
#269 = DIRECTION ( 'NONE',  ( 1.224646799147353207E-16, 0.0000000000000000000, 1.000000000000000000 ) ) ;
#270 = DIRECTION ( 'NONE',  ( 1.224646799147353207E-16, 0.0000000000000000000, 1.000000000000000000 ) ) ;
#271 = CONICAL_SURFACE ( 'NONE', #10, 0.02949797249999999704, 0.1745329251994338360 ) ;
#272 = ORIENTED_EDGE ( 'NONE', *, *, #218, .T. ) ;
#273 = DIRECTION ( 'NONE',  ( -1.000000000000000000, 0.0000000000000000000, 0.0000000000000000000 ) ) ;
#274 = VERTEX_POINT ( 'NONE', #186 ) ;
#275 = DIRECTION ( 'NONE',  ( -1.000000000000000000, 0.0000000000000000000, 1.447052840699614406E-16 ) ) ;
#276 = EDGE_LOOP ( 'NONE', ( #162, #311 ) ) ;
#277 = VERTEX_POINT ( 'NONE', #68 ) ;
#278 = EDGE_CURVE ( 'NONE', #87, #85, #281, .T. ) ;
#279 = SHAPE_DEFINITION_REPRESENTATION ( #209, #196 ) ;
#280 = ORIENTED_EDGE ( 'NONE', *, *, #187, .F. ) ;
#281 = CIRCLE ( 'NONE', #135, 0.02949797250000000398 ) ;
#282 = ADVANCED_FACE ( 'NONE', ( #83 ), #128, .T. ) ;
#283 = LINE ( 'NONE', #50, #222 ) ;
#284 = CARTESIAN_POINT ( 'NONE',  ( 0.07874000000000000443, 9.642868896486258509E-18, 1.953504000000000129 ) ) ;
#285 = AXIS2_PLACEMENT_3D ( 'NONE', #80, #257, #21 ) ;
#286 = CARTESIAN_POINT ( 'NONE',  ( 0.02949797250000002133, 0.0000000000000000000, 0.1653539999999999732 ) ) ;
#287 = DIRECTION ( 'NONE',  ( -1.000000000000000000, 0.0000000000000000000, 0.0000000000000000000 ) ) ;
#288 = DIRECTION ( 'NONE',  ( 1.000000000000000000, 0.0000000000000000000, 0.0000000000000000000 ) ) ;
#289 = CYLINDRICAL_SURFACE ( 'NONE', #144, 0.02949797250000000398 ) ;
#290 = ORIENTED_EDGE ( 'NONE', *, *, #180, .T. ) ;
#291 = DIRECTION ( 'NONE',  ( 1.000000000000000000, 0.0000000000000000000, 0.0000000000000000000 ) ) ;
#292 = EDGE_CURVE ( 'NONE', #274, #85, #314, .T. ) ;
#293 = DIRECTION ( 'NONE',  ( 1.000000000000000000, 0.0000000000000000000, 0.0000000000000000000 ) ) ;
#294 = CARTESIAN_POINT ( 'NONE',  ( 3.612459760346164844E-18, 0.0000000000000000000, 0.02949797249999999704 ) ) ;
#295 = ORIENTED_EDGE ( 'NONE', *, *, #302, .T. ) ;
#296 = FILL_AREA_STYLE_COLOUR ( '', #234 ) ;
#297 = CLOSED_SHELL ( 'NONE', ( #6, #152, #246, #282, #37, #119, #223, #145, #26, #256, #157 ) ) ;
#298 = ORIENTED_EDGE ( 'NONE', *, *, #299, .F. ) ;
#299 = EDGE_CURVE ( 'NONE', #245, #49, #166, .T. ) ;
#300 =( NAMED_UNIT ( * ) PLANE_ANGLE_UNIT ( ) SI_UNIT ( $, .RADIAN. ) );
#301 = CARTESIAN_POINT ( 'NONE',  ( 2.025002468262114287E-17, 0.0000000000000000000, 0.1653539999999999732 ) ) ;
#302 = EDGE_CURVE ( 'NONE', #172, #71, #318, .T. ) ;
#303 = APPLICATION_CONTEXT ( 'automotive_design' ) ;
#304 = CARTESIAN_POINT ( 'NONE',  ( -0.07874000000000000443, 0.0000000000000000000, 1.968503999999999809 ) ) ;
#305 = CYLINDRICAL_SURFACE ( 'NONE', #43, 0.02949797250000000398 ) ;
#306 = CARTESIAN_POINT ( 'NONE',  ( 0.0000000000000000000, 0.0000000000000000000, 1.968503999999999809 ) ) ;
#307 = EDGE_CURVE ( 'NONE', #165, #277, #16, .T. ) ;
#308 = DIRECTION ( 'NONE',  ( -1.224646799147353207E-16, -0.0000000000000000000, -1.000000000000000000 ) ) ;
#309 = MANIFOLD_SOLID_BREP ( 'Fillet1', #297 ) ;
#310 = DIRECTION ( 'NONE',  ( -0.7071067811865502373, 0.0000000000000000000, -0.7071067811865446862 ) ) ;
#311 = ORIENTED_EDGE ( 'NONE', *, *, #231, .T. ) ;
#312 = EDGE_CURVE ( 'NONE', #85, #87, #121, .T. ) ;
#313 = DIRECTION ( 'NONE',  ( 1.000000000000000000, 0.0000000000000000000, 0.0000000000000000000 ) ) ;
#314 = CIRCLE ( 'NONE', #183, 0.02949797249999999704 ) ;
#315 = LINE ( 'NONE', #60, #207 ) ;
#316 = CARTESIAN_POINT ( 'NONE',  ( 3.612459760346164844E-18, 0.0000000000000000000, 0.02949797249999999704 ) ) ;
#317 = EDGE_CURVE ( 'NONE', #63, #165, #72, .T. ) ;
#318 = CIRCLE ( 'NONE', #156, 0.07874000000000000443 ) ;
#319 = ORIENTED_EDGE ( 'NONE', *, *, #307, .T. ) ;
#320 =( LENGTH_UNIT ( ) NAMED_UNIT ( * ) SI_UNIT ( $, .METRE. ) );
#321 =( CONVERSION_BASED_UNIT ( 'INCH', #115 ) LENGTH_UNIT ( ) NAMED_UNIT ( #42 ) );
#322 = AXIS2_PLACEMENT_3D ( 'NONE', #261, #204, #1 ) ;
#323 = ORIENTED_EDGE ( 'NONE', *, *, #143, .T. ) ;
#324 = EDGE_CURVE ( 'NONE', #220, #63, #11, .T. ) ;
#325 = PRESENTATION_STYLE_ASSIGNMENT (( #224 ) ) ;
ENDSEC;
END-ISO-10303-21;
