ISO-10303-21;
HEADER;
FILE_DESCRIPTION (( 'STEP AP214' ),
    '1' );
FILE_NAME ('84585.STEP',
    '2023-07-12T13:08:35',
    ( '' ),
    ( '' ),
    'SwSTEP 2.0',
    'SolidWorks 2023',
    '' );
FILE_SCHEMA (( 'AUTOMOTIVE_DESIGN' ));
ENDSEC;

DATA;
#1 = DIRECTION ( 'NONE',  ( -1.000000000000000000, -2.996036790656715962E-33, 0.000000000000000000 ) ) ;
#2 = PLANE ( 'NONE',  #115 ) ;
#3 = SURFACE_STYLE_FILL_AREA ( #278 ) ;
#4 = LINE ( 'NONE', #247, #206 ) ;
#5 = EDGE_CURVE ( 'NONE', #109, #236, #242, .T. ) ;
#6 = LENGTH_MEASURE_WITH_UNIT ( LENGTH_MEASURE( 0.02539999999999999897 ), #99 );
#7 = CARTESIAN_POINT ( 'NONE',  ( 0.09374999999999998612, 0.07908782799644412109, 1.148106374200643401E-17 ) ) ;
#8 = SURFACE_STYLE_USAGE ( .BOTH. , #230 ) ;
#9 = CARTESIAN_POINT ( 'NONE',  ( -0.09375000000000001388, 2.000000000000000000, 0.000000000000000000 ) ) ;
#10 = DIRECTION ( 'NONE',  ( -1.000000000000000000, 0.000000000000000000, 0.000000000000000000 ) ) ;
#11 = ORIENTED_EDGE ( 'NONE', *, *, #263, .T. ) ;
#12 = ADVANCED_FACE ( 'NONE', ( #262 ), #129, .T. ) ;
#13 = PLANE ( 'NONE',  #113 ) ;
#14 = EDGE_LOOP ( 'NONE', ( #267, #303, #33, #86 ) ) ;
#15 = STYLED_ITEM ( 'NONE', ( #297 ), #89 ) ;
#16 = AXIS2_PLACEMENT_3D ( 'NONE', #145, #244, #26 ) ;
#17 = ORIENTED_EDGE ( 'NONE', *, *, #270, .F. ) ;
#18 = SURFACE_SIDE_STYLE ('',( #42 ) ) ;
#19 = FACE_OUTER_BOUND ( 'NONE', #294, .T. ) ;
#20 = DIMENSIONAL_EXPONENTS ( 1.000000000000000000, 0.000000000000000000, 0.000000000000000000, 0.000000000000000000, 0.000000000000000000, 0.000000000000000000, 0.000000000000000000 ) ;
#21 = DIRECTION ( 'NONE',  ( -1.221677243039647880E-16, 1.000000000000000000, -0.000000000000000000 ) ) ;
#22 = AXIS2_PLACEMENT_3D ( 'NONE', #277, #49, #225 ) ;
#23 = UNCERTAINTY_MEASURE_WITH_UNIT (LENGTH_MEASURE( 1.000000000000000082E-05 ), #31, 'distance_accuracy_value', 'NONE');
#24 = FACE_OUTER_BOUND ( 'NONE', #216, .T. ) ;
#25 = DIRECTION ( 'NONE',  ( 0.000000000000000000, 0.000000000000000000, 1.000000000000000000 ) ) ;
#26 = DIRECTION ( 'NONE',  ( 1.000000000000000000, 0.000000000000000000, 0.000000000000000000 ) ) ;
#27 = LENGTH_MEASURE_WITH_UNIT ( LENGTH_MEASURE( 0.02539999999999999897 ), #51 );
#28 = FACE_OUTER_BOUND ( 'NONE', #156, .T. ) ;
#29 = UNCERTAINTY_MEASURE_WITH_UNIT (LENGTH_MEASURE( 1.000000000000000082E-05 ), #82, 'distance_accuracy_value', 'NONE');
#30 = MECHANICAL_DESIGN_GEOMETRIC_PRESENTATION_REPRESENTATION (  '', ( #281 ), #249 ) ;
#31 =( CONVERSION_BASED_UNIT ( 'INCH', #27 ) LENGTH_UNIT ( ) NAMED_UNIT ( #205 ) );
#32 = DIRECTION ( 'NONE',  ( -1.000000000000000000, -2.996036790656715962E-33, 0.000000000000000000 ) ) ;
#33 = ORIENTED_EDGE ( 'NONE', *, *, #270, .T. ) ;
#34 = MECHANICAL_DESIGN_GEOMETRIC_PRESENTATION_REPRESENTATION (  '', ( #188 ), #40 ) ;
#35 = CIRCLE ( 'NONE', #22, 0.09374999999999981959 ) ;
#36 = CARTESIAN_POINT ( 'NONE',  ( 0.09374999999999998612, 2.000000000000000000, 1.148106374200643555E-17 ) ) ;
#37 = DIRECTION ( 'NONE',  ( -1.000000000000000000, 0.000000000000000000, 0.000000000000000000 ) ) ;
#38 = DIRECTION ( 'NONE',  ( -1.221677243039647880E-16, 1.000000000000000000, 0.000000000000000000 ) ) ;
#39 = ORIENTED_EDGE ( 'NONE', *, *, #59, .T. ) ;
#40 =( GEOMETRIC_REPRESENTATION_CONTEXT ( 3 ) GLOBAL_UNCERTAINTY_ASSIGNED_CONTEXT ( ( #253 ) ) GLOBAL_UNIT_ASSIGNED_CONTEXT ( ( #174, #146, #124 ) ) REPRESENTATION_CONTEXT ( 'NONE', 'WORKASPACE' ) );
#41 = STYLED_ITEM ( 'NONE', ( #273 ), #254 ) ;
#42 = SURFACE_STYLE_FILL_AREA ( #192 ) ;
#43 = VERTEX_POINT ( 'NONE', #199 ) ;
#44 = DIRECTION ( 'NONE',  ( 1.000000000000000000, 2.996036790656715962E-33, 0.000000000000000000 ) ) ;
#45 = FILL_AREA_STYLE ('',( #168 ) ) ;
#46 =( CONVERSION_BASED_UNIT ( 'INCH', #268 ) LENGTH_UNIT ( ) NAMED_UNIT ( #20 ) );
#47 = ORIENTED_EDGE ( 'NONE', *, *, #241, .T. ) ;
#48 = PRODUCT_CONTEXT ( 'NONE', #116, 'mechanical' ) ;
#49 = DIRECTION ( 'NONE',  ( -1.221677243039647880E-16, 1.000000000000000000, -0.000000000000000000 ) ) ;
#50 = FILL_AREA_STYLE_COLOUR ( '', #265 ) ;
#51 =( LENGTH_UNIT ( ) NAMED_UNIT ( * ) SI_UNIT ( $, .METRE. ) );
#52 = FILL_AREA_STYLE ('',( #283 ) ) ;
#53 = COLOUR_RGB ( '',0.7921568627450980005, 0.8196078431372548767, 0.9333333333333333481 ) ;
#54 = PRODUCT_RELATED_PRODUCT_CATEGORY ( 'part', '', ( #252 ) ) ;
#55 = SURFACE_SIDE_STYLE ('',( #144 ) ) ;
#56 = DIRECTION ( 'NONE',  ( -1.221677243039647880E-16, 1.000000000000000000, -0.000000000000000000 ) ) ;
#57 = AXIS2_PLACEMENT_3D ( 'NONE', #280, #301, #123 ) ;
#58 = APPLICATION_CONTEXT ( 'automotive_design' ) ;
#59 = EDGE_CURVE ( 'NONE', #193, #43, #284, .T. ) ;
#60 = DIRECTION ( 'NONE',  ( 2.996036790656715962E-33, -1.000000000000000000, -0.000000000000000000 ) ) ;
#61 = DIRECTION ( 'NONE',  ( -1.000000000000000000, 0.000000000000000000, 0.000000000000000000 ) ) ;
#62 = VERTEX_POINT ( 'NONE', #202 ) ;
#63 = ORIENTED_EDGE ( 'NONE', *, *, #65, .T. ) ;
#64 = ORIENTED_EDGE ( 'NONE', *, *, #59, .F. ) ;
#65 = EDGE_CURVE ( 'NONE', #68, #219, #72, .T. ) ;
#66 = MANIFOLD_SOLID_BREP ( 'Revolve - Tool Body (Tipped Off)', #182 ) ;
#67 =( GEOMETRIC_REPRESENTATION_CONTEXT ( 3 ) GLOBAL_UNCERTAINTY_ASSIGNED_CONTEXT ( ( #308 ) ) GLOBAL_UNIT_ASSIGNED_CONTEXT ( ( #218, #96, #201 ) ) REPRESENTATION_CONTEXT ( 'NONE', 'WORKASPACE' ) );
#68 = VERTEX_POINT ( 'NONE', #118 ) ;
#69 = FILL_AREA_STYLE ('',( #50 ) ) ;
#70 = DIRECTION ( 'NONE',  ( -1.221677243039647880E-16, 1.000000000000000000, -0.000000000000000000 ) ) ;
#71 =( NAMED_UNIT ( * ) PLANE_ANGLE_UNIT ( ) SI_UNIT ( $, .RADIAN. ) );
#72 = CIRCLE ( 'NONE', #127, 0.09374999999999998612 ) ;
#73 = APPLICATION_PROTOCOL_DEFINITION ( 'draft international standard', 'automotive_design', 1998, #58 ) ;
#74 = SURFACE_SIDE_STYLE ('',( #276 ) ) ;
#75 =( LENGTH_UNIT ( ) NAMED_UNIT ( * ) SI_UNIT ( $, .METRE. ) );
#76 = DIRECTION ( 'NONE',  ( 0.6560590289905084971, 0.7547095802227710148, 8.034405899049468590E-17 ) ) ;
#77 = DIRECTION ( 'NONE',  ( -1.000000000000000000, -2.996036790656715962E-33, 0.000000000000000000 ) ) ;
#78 = LINE ( 'NONE', #9, #153 ) ;
#79 = COLOUR_RGB ( '',1.000000000000000000, 0.000000000000000000, 0.000000000000000000 ) ;
#80 = EDGE_CURVE ( 'NONE', #109, #62, #78, .T. ) ;
#81 = AXIS2_PLACEMENT_3D ( 'NONE', #119, #56, #10 ) ;
#82 =( CONVERSION_BASED_UNIT ( 'INCH', #215 ) LENGTH_UNIT ( ) NAMED_UNIT ( #181 ) );
#83 = ORIENTED_EDGE ( 'NONE', *, *, #5, .F. ) ;
#84 = EDGE_LOOP ( 'NONE', ( #292, #47, #194, #258 ) ) ;
#85 = PRODUCT_DEFINITION_FORMATION_WITH_SPECIFIED_SOURCE ( 'ANY', '', #252, .NOT_KNOWN. ) ;
#86 = ORIENTED_EDGE ( 'NONE', *, *, #231, .F. ) ;
#87 = SURFACE_STYLE_FILL_AREA ( #157 ) ;
#88 = FILL_AREA_STYLE_COLOUR ( '', #53 ) ;
#89 = ADVANCED_FACE ( 'NONE', ( #120 ), #245, .T. ) ;
#90 = DIRECTION ( 'NONE',  ( -1.000000000000000000, -1.821231995776178930E-16, 0.000000000000000000 ) ) ;
#91 = AXIS2_PLACEMENT_3D ( 'NONE', #298, #92, #198 ) ;
#92 = DIRECTION ( 'NONE',  ( 2.996036790656716304E-33, -1.000000000000000000, -0.000000000000000000 ) ) ;
#93 = DIRECTION ( 'NONE',  ( 1.000000000000000000, 1.221677243039647880E-16, 0.000000000000000000 ) ) ;
#94 = SURFACE_STYLE_USAGE ( .BOTH. , #74 ) ;
#95 =( GEOMETRIC_REPRESENTATION_CONTEXT ( 3 ) GLOBAL_UNCERTAINTY_ASSIGNED_CONTEXT ( ( #23 ) ) GLOBAL_UNIT_ASSIGNED_CONTEXT ( ( #31, #155, #152 ) ) REPRESENTATION_CONTEXT ( 'NONE', 'WORKASPACE' ) );
#96 =( NAMED_UNIT ( * ) PLANE_ANGLE_UNIT ( ) SI_UNIT ( $, .RADIAN. ) );
#97 = LENGTH_MEASURE_WITH_UNIT ( LENGTH_MEASURE( 0.02539999999999999897 ), #75 );
#98 = ADVANCED_FACE ( 'NONE', ( #187 ), #304, .T. ) ;
#99 =( LENGTH_UNIT ( ) NAMED_UNIT ( * ) SI_UNIT ( $, .METRE. ) );
#100 = PRESENTATION_LAYER_ASSIGNMENT (  '', '', ( #184 ) ) ;
#101 = MECHANICAL_DESIGN_GEOMETRIC_PRESENTATION_REPRESENTATION (  '', ( #15 ), #95 ) ;
#102 = PRESENTATION_LAYER_ASSIGNMENT (  '', '', ( #214 ) ) ;
#103 = CYLINDRICAL_SURFACE ( 'NONE', #151, 0.09374999999999994449 ) ;
#104 =( NAMED_UNIT ( * ) PLANE_ANGLE_UNIT ( ) SI_UNIT ( $, .RADIAN. ) );
#105 = ORIENTED_EDGE ( 'NONE', *, *, #279, .T. ) ;
#106 = EDGE_CURVE ( 'NONE', #62, #111, #150, .T. ) ;
#107 = UNCERTAINTY_MEASURE_WITH_UNIT (LENGTH_MEASURE( 1.000000000000000082E-05 ), #204, 'distance_accuracy_value', 'NONE');
#108 = PRESENTATION_STYLE_ASSIGNMENT (( #186 ) ) ;
#109 = VERTEX_POINT ( 'NONE', #158 ) ;
#110 = CARTESIAN_POINT ( 'NONE',  ( -6.123233995736763571E-17, 2.000000000000000000, 0.000000000000000000 ) ) ;
#111 = VERTEX_POINT ( 'NONE', #36 ) ;
#112 = ADVANCED_FACE ( 'NONE', ( #132 ), #13, .F. ) ;
#113 = AXIS2_PLACEMENT_3D ( 'NONE', #211, #38, #133 ) ;
#114 = CARTESIAN_POINT ( 'NONE',  ( 2.244059112742149073E-67, -7.490091976641790545E-35, 0.000000000000000000 ) ) ;
#115 = AXIS2_PLACEMENT_3D ( 'NONE', #117, #266, #93 ) ;
#116 = APPLICATION_CONTEXT ( 'automotive_design' ) ;
#117 = CARTESIAN_POINT ( 'NONE',  ( 0.09374999999999998612, 2.000000000000000000, 0.000000000000000000 ) ) ;
#118 = CARTESIAN_POINT ( 'NONE',  ( -0.09374999999999998612, 0.07908782799644412109, 0.000000000000000000 ) ) ;
#119 = CARTESIAN_POINT ( 'NONE',  ( -6.123233995736763571E-17, 2.000000000000000000, 0.000000000000000000 ) ) ;
#120 = FACE_OUTER_BOUND ( 'NONE', #212, .T. ) ;
#121 = DIRECTION ( 'NONE',  ( -1.221677243039647880E-16, 1.000000000000000000, -0.000000000000000000 ) ) ;
#122 = CIRCLE ( 'NONE', #16, 0.09374999999999998612 ) ;
#123 = DIRECTION ( 'NONE',  ( 1.000000000000000000, 2.996036790656715962E-33, 0.000000000000000000 ) ) ;
#124 =( NAMED_UNIT ( * ) SI_UNIT ( $, .STERADIAN. ) SOLID_ANGLE_UNIT ( ) );
#125 = ADVANCED_BREP_SHAPE_REPRESENTATION ( '84585', ( #176, #66, #164 ), #207 ) ;
#126 = PRODUCT_DEFINITION_CONTEXT ( 'detailed design', #58, 'design' ) ;
#127 = AXIS2_PLACEMENT_3D ( 'NONE', #299, #177, #180 ) ;
#128 = VECTOR ( 'NONE', #76, 39.37007874015748854 ) ;
#129 = CONICAL_SURFACE ( 'NONE', #179, 0.02500000000000000139, 0.7155849933176767763 ) ;
#130 =( GEOMETRIC_REPRESENTATION_CONTEXT ( 3 ) GLOBAL_UNCERTAINTY_ASSIGNED_CONTEXT ( ( #29 ) ) GLOBAL_UNIT_ASSIGNED_CONTEXT ( ( #82, #104, #191 ) ) REPRESENTATION_CONTEXT ( 'NONE', 'WORKASPACE' ) );
#131 =( LENGTH_UNIT ( ) NAMED_UNIT ( * ) SI_UNIT ( $, .METRE. ) );
#132 = FACE_OUTER_BOUND ( 'NONE', #234, .T. ) ;
#133 = DIRECTION ( 'NONE',  ( -1.000000000000000000, -1.221677243039647880E-16, 0.000000000000000000 ) ) ;
#134 = SURFACE_STYLE_FILL_AREA ( #45 ) ;
#135 = VECTOR ( 'NONE', #300, 39.37007874015748854 ) ;
#136 = ORIENTED_EDGE ( 'NONE', *, *, #241, .F. ) ;
#137 =( LENGTH_UNIT ( ) NAMED_UNIT ( * ) SI_UNIT ( $, .METRE. ) );
#138 = SURFACE_SIDE_STYLE ('',( #134 ) ) ;
#139 =( NAMED_UNIT ( * ) PLANE_ANGLE_UNIT ( ) SI_UNIT ( $, .RADIAN. ) );
#140 = SURFACE_STYLE_USAGE ( .BOTH. , #18 ) ;
#141 = SHAPE_DEFINITION_REPRESENTATION ( #149, #125 ) ;
#142 = DIMENSIONAL_EXPONENTS ( 1.000000000000000000, 0.000000000000000000, 0.000000000000000000, 0.000000000000000000, 0.000000000000000000, 0.000000000000000000, 0.000000000000000000 ) ;
#143 =( GEOMETRIC_REPRESENTATION_CONTEXT ( 3 ) GLOBAL_UNCERTAINTY_ASSIGNED_CONTEXT ( ( #248 ) ) GLOBAL_UNIT_ASSIGNED_CONTEXT ( ( #46, #139, #197 ) ) REPRESENTATION_CONTEXT ( 'NONE', 'WORKASPACE' ) );
#144 = SURFACE_STYLE_FILL_AREA ( #52 ) ;
#145 = CARTESIAN_POINT ( 'NONE',  ( -2.369500423704768587E-34, 0.07908782799644412109, 0.000000000000000000 ) ) ;
#146 =( NAMED_UNIT ( * ) PLANE_ANGLE_UNIT ( ) SI_UNIT ( $, .RADIAN. ) );
#147 = UNCERTAINTY_MEASURE_WITH_UNIT (LENGTH_MEASURE( 1.000000000000000082E-05 ), #162, 'distance_accuracy_value', 'NONE');
#148 = DIRECTION ( 'NONE',  ( -2.996036790656716304E-33, 1.000000000000000000, 0.000000000000000000 ) ) ;
#149 = PRODUCT_DEFINITION_SHAPE ( 'NONE', 'NONE',  #196 ) ;
#150 = CIRCLE ( 'NONE', #256, 0.09375000000000005551 ) ;
#151 = AXIS2_PLACEMENT_3D ( 'NONE', #237, #209, #37 ) ;
#152 =( NAMED_UNIT ( * ) SI_UNIT ( $, .STERADIAN. ) SOLID_ANGLE_UNIT ( ) );
#153 = VECTOR ( 'NONE', #21, 39.37007874015748143 ) ;
#154 = DIRECTION ( 'NONE',  ( -2.996036790656715962E-33, 1.000000000000000000, 0.000000000000000000 ) ) ;
#155 =( NAMED_UNIT ( * ) PLANE_ANGLE_UNIT ( ) SI_UNIT ( $, .RADIAN. ) );
#156 = EDGE_LOOP ( 'NONE', ( #163, #17 ) ) ;
#157 = FILL_AREA_STYLE ('',( #302 ) ) ;
#158 = CARTESIAN_POINT ( 'NONE',  ( -0.09374999999999965306, 0.07908782799644424599, 0.000000000000000000 ) ) ;
#159 = CARTESIAN_POINT ( 'NONE',  ( 1.734411286840929472E-16, 0.07908782799644425987, 0.000000000000000000 ) ) ;
#160 =( NAMED_UNIT ( * ) PLANE_ANGLE_UNIT ( ) SI_UNIT ( $, .RADIAN. ) );
#161 = ORIENTED_EDGE ( 'NONE', *, *, #80, .F. ) ;
#162 =( CONVERSION_BASED_UNIT ( 'INCH', #190 ) LENGTH_UNIT ( ) NAMED_UNIT ( #226 ) );
#163 = ORIENTED_EDGE ( 'NONE', *, *, #65, .F. ) ;
#164 = AXIS2_PLACEMENT_3D ( 'NONE', #246, #25, #169 ) ;
#165 = CARTESIAN_POINT ( 'NONE',  ( 1.122029556371074537E-67, -3.745045988320895273E-35, 0.000000000000000000 ) ) ;
#166 = CARTESIAN_POINT ( 'NONE',  ( 0.02500000000000000139, 0.000000000000000000, 3.061616997868383172E-18 ) ) ;
#167 =( LENGTH_UNIT ( ) NAMED_UNIT ( * ) SI_UNIT ( $, .METRE. ) );
#168 = FILL_AREA_STYLE_COLOUR ( '', #306 ) ;
#169 = DIRECTION ( 'NONE',  ( 1.000000000000000000, 0.000000000000000000, 0.000000000000000000 ) ) ;
#170 = CARTESIAN_POINT ( 'NONE',  ( 0.09374999999999998612, 0.07908782799644427375, 1.148106374200643555E-17 ) ) ;
#171 = CLOSED_SHELL ( 'NONE', ( #12, #286, #254, #89 ) ) ;
#172 = LENGTH_MEASURE_WITH_UNIT ( LENGTH_MEASURE( 0.02539999999999999897 ), #167 );
#173 = AXIS2_PLACEMENT_3D ( 'NONE', #114, #222, #1 ) ;
#174 =( CONVERSION_BASED_UNIT ( 'INCH', #97 ) LENGTH_UNIT ( ) NAMED_UNIT ( #250 ) );
#175 =( NAMED_UNIT ( * ) SI_UNIT ( $, .STERADIAN. ) SOLID_ANGLE_UNIT ( ) );
#176 = MANIFOLD_SOLID_BREP ( 'Revolve - Cutting Edge', #171 ) ;
#177 = DIRECTION ( 'NONE',  ( 2.996036790656716304E-33, -1.000000000000000000, -0.000000000000000000 ) ) ;
#178 = PLANE ( 'NONE',  #293 ) ;
#179 = AXIS2_PLACEMENT_3D ( 'NONE', #260, #148, #77 ) ;
#180 = DIRECTION ( 'NONE',  ( 1.000000000000000000, 0.000000000000000000, 0.000000000000000000 ) ) ;
#181 = DIMENSIONAL_EXPONENTS ( 1.000000000000000000, 0.000000000000000000, 0.000000000000000000, 0.000000000000000000, 0.000000000000000000, 0.000000000000000000, 0.000000000000000000 ) ;
#182 = CLOSED_SHELL ( 'NONE', ( #309, #112, #98, #223 ) ) ;
#183 = AXIS2_PLACEMENT_3D ( 'NONE', #165, #60, #44 ) ;
#184 = STYLED_ITEM ( 'NONE', ( #269 ), #176 ) ;
#185 = EDGE_CURVE ( 'NONE', #236, #111, #4, .T. ) ;
#186 = SURFACE_STYLE_USAGE ( .BOTH. , #259 ) ;
#187 = FACE_OUTER_BOUND ( 'NONE', #84, .T. ) ;
#188 = STYLED_ITEM ( 'NONE', ( #295 ), #66 ) ;
#189 = COLOUR_RGB ( '',1.000000000000000000, 0.000000000000000000, 0.000000000000000000 ) ;
#190 = LENGTH_MEASURE_WITH_UNIT ( LENGTH_MEASURE( 0.02539999999999999897 ), #131 );
#191 =( NAMED_UNIT ( * ) SI_UNIT ( $, .STERADIAN. ) SOLID_ANGLE_UNIT ( ) );
#192 = FILL_AREA_STYLE ('',( #88 ) ) ;
#193 = VERTEX_POINT ( 'NONE', #228 ) ;
#194 = ORIENTED_EDGE ( 'NONE', *, *, #80, .T. ) ;
#195 = PRESENTATION_LAYER_ASSIGNMENT (  '', '', ( #15 ) ) ;
#196 = PRODUCT_DEFINITION ( 'UNKNOWN', '', #85, #126 ) ;
#197 =( NAMED_UNIT ( * ) SI_UNIT ( $, .STERADIAN. ) SOLID_ANGLE_UNIT ( ) );
#198 = DIRECTION ( 'NONE',  ( 1.000000000000000000, 2.996036790656715962E-33, 0.000000000000000000 ) ) ;
#199 = CARTESIAN_POINT ( 'NONE',  ( 0.02500000000000000139, 0.000000000000000000, 7.271340369937408974E-18 ) ) ;
#200 = LINE ( 'NONE', #239, #135 ) ;
#201 =( NAMED_UNIT ( * ) SI_UNIT ( $, .STERADIAN. ) SOLID_ANGLE_UNIT ( ) );
#202 = CARTESIAN_POINT ( 'NONE',  ( -0.09375000000000012490, 2.000000000000000000, 0.000000000000000000 ) ) ;
#203 = DIMENSIONAL_EXPONENTS ( 1.000000000000000000, 0.000000000000000000, 0.000000000000000000, 0.000000000000000000, 0.000000000000000000, 0.000000000000000000, 0.000000000000000000 ) ;
#204 =( CONVERSION_BASED_UNIT ( 'INCH', #6 ) LENGTH_UNIT ( ) NAMED_UNIT ( #142 ) );
#205 = DIMENSIONAL_EXPONENTS ( 1.000000000000000000, 0.000000000000000000, 0.000000000000000000, 0.000000000000000000, 0.000000000000000000, 0.000000000000000000, 0.000000000000000000 ) ;
#206 = VECTOR ( 'NONE', #121, 39.37007874015748143 ) ;
#207 =( GEOMETRIC_REPRESENTATION_CONTEXT ( 3 ) GLOBAL_UNCERTAINTY_ASSIGNED_CONTEXT ( ( #147 ) ) GLOBAL_UNIT_ASSIGNED_CONTEXT ( ( #162, #160, #175 ) ) REPRESENTATION_CONTEXT ( 'NONE', 'WORKASPACE' ) );
#208 = EDGE_LOOP ( 'NONE', ( #264, #305, #307, #161 ) ) ;
#209 = DIRECTION ( 'NONE',  ( -1.221677243039647880E-16, 1.000000000000000000, -0.000000000000000000 ) ) ;
#210 = ORIENTED_EDGE ( 'NONE', *, *, #106, .T. ) ;
#211 = CARTESIAN_POINT ( 'NONE',  ( 1.734411286840929472E-16, 0.07908782799644412109, 0.000000000000000000 ) ) ;
#212 = EDGE_LOOP ( 'NONE', ( #39, #11 ) ) ;
#213 = PRESENTATION_LAYER_ASSIGNMENT (  '', '', ( #281 ) ) ;
#214 = STYLED_ITEM ( 'NONE', ( #108 ), #286 ) ;
#215 = LENGTH_MEASURE_WITH_UNIT ( LENGTH_MEASURE( 0.02539999999999999897 ), #285 );
#216 = EDGE_LOOP ( 'NONE', ( #210, #105 ) ) ;
#217 = EDGE_CURVE ( 'NONE', #43, #219, #296, .T. ) ;
#218 =( CONVERSION_BASED_UNIT ( 'INCH', #172 ) LENGTH_UNIT ( ) NAMED_UNIT ( #203 ) );
#219 = VERTEX_POINT ( 'NONE', #7 ) ;
#220 = COLOUR_RGB ( '',0.7921568627450980005, 0.8196078431372548767, 0.9333333333333333481 ) ;
#221 = CIRCLE ( 'NONE', #91, 0.02500000000000000139 ) ;
#222 = DIRECTION ( 'NONE',  ( -2.996036790656716304E-33, 1.000000000000000000, 0.000000000000000000 ) ) ;
#223 = ADVANCED_FACE ( 'NONE', ( #24 ), #2, .F. ) ;
#224 =( NAMED_UNIT ( * ) SI_UNIT ( $, .STERADIAN. ) SOLID_ANGLE_UNIT ( ) );
#225 = DIRECTION ( 'NONE',  ( -1.000000000000000000, -1.821231995776178930E-16, 0.000000000000000000 ) ) ;
#226 = DIMENSIONAL_EXPONENTS ( 1.000000000000000000, 0.000000000000000000, 0.000000000000000000, 0.000000000000000000, 0.000000000000000000, 0.000000000000000000, 0.000000000000000000 ) ;
#227 = MECHANICAL_DESIGN_GEOMETRIC_PRESENTATION_REPRESENTATION (  '', ( #41 ), #143 ) ;
#228 = CARTESIAN_POINT ( 'NONE',  ( -0.02500000000000000139, -1.498018395328358109E-34, 0.000000000000000000 ) ) ;
#229 = FILL_AREA_STYLE_COLOUR ( '', #79 ) ;
#230 = SURFACE_SIDE_STYLE ('',( #3 ) ) ;
#231 = EDGE_CURVE ( 'NONE', #193, #68, #200, .T. ) ;
#232 = ORIENTED_EDGE ( 'NONE', *, *, #231, .T. ) ;
#233 = CONICAL_SURFACE ( 'NONE', #173, 0.02500000000000000139, 0.7155849933176767763 ) ;
#234 = EDGE_LOOP ( 'NONE', ( #83, #136 ) ) ;
#235 = FACE_OUTER_BOUND ( 'NONE', #208, .T. ) ;
#236 = VERTEX_POINT ( 'NONE', #170 ) ;
#237 = CARTESIAN_POINT ( 'NONE',  ( -6.123233995736763571E-17, 2.000000000000000000, 0.000000000000000000 ) ) ;
#238 = SURFACE_STYLE_USAGE ( .BOTH. , #138 ) ;
#239 = CARTESIAN_POINT ( 'NONE',  ( -0.02500000000000000139, -1.498018395328358109E-34, 0.000000000000000000 ) ) ;
#240 = DIRECTION ( 'NONE',  ( -1.221677243039647880E-16, 1.000000000000000000, -0.000000000000000000 ) ) ;
#241 = EDGE_CURVE ( 'NONE', #236, #109, #35, .T. ) ;
#242 = CIRCLE ( 'NONE', #275, 0.09374999999999981959 ) ;
#243 = MECHANICAL_DESIGN_GEOMETRIC_PRESENTATION_REPRESENTATION (  '', ( #184 ), #67 ) ;
#244 = DIRECTION ( 'NONE',  ( 2.996036790656716304E-33, -1.000000000000000000, -0.000000000000000000 ) ) ;
#245 = PLANE ( 'NONE',  #183 ) ;
#246 = CARTESIAN_POINT ( 'NONE',  ( 0.000000000000000000, 0.000000000000000000, 0.000000000000000000 ) ) ;
#247 = CARTESIAN_POINT ( 'NONE',  ( 0.09374999999999987510, 2.000000000000000000, 1.148106374200642938E-17 ) ) ;
#248 = UNCERTAINTY_MEASURE_WITH_UNIT (LENGTH_MEASURE( 1.000000000000000082E-05 ), #46, 'distance_accuracy_value', 'NONE');
#249 =( GEOMETRIC_REPRESENTATION_CONTEXT ( 3 ) GLOBAL_UNCERTAINTY_ASSIGNED_CONTEXT ( ( #107 ) ) GLOBAL_UNIT_ASSIGNED_CONTEXT ( ( #204, #71, #224 ) ) REPRESENTATION_CONTEXT ( 'NONE', 'WORKASPACE' ) );
#250 = DIMENSIONAL_EXPONENTS ( 1.000000000000000000, 0.000000000000000000, 0.000000000000000000, 0.000000000000000000, 0.000000000000000000, 0.000000000000000000, 0.000000000000000000 ) ;
#251 = PRESENTATION_LAYER_ASSIGNMENT (  '', '', ( #41 ) ) ;
#252 = PRODUCT ( '84585', '84585', '', ( #48 ) ) ;
#253 = UNCERTAINTY_MEASURE_WITH_UNIT (LENGTH_MEASURE( 1.000000000000000082E-05 ), #174, 'distance_accuracy_value', 'NONE');
#254 = ADVANCED_FACE ( 'NONE', ( #19 ), #233, .T. ) ;
#255 = PRESENTATION_LAYER_ASSIGNMENT (  '', '', ( #188 ) ) ;
#256 = AXIS2_PLACEMENT_3D ( 'NONE', #110, #261, #61 ) ;
#257 = MECHANICAL_DESIGN_GEOMETRIC_PRESENTATION_REPRESENTATION (  '', ( #214 ), #130 ) ;
#258 = ORIENTED_EDGE ( 'NONE', *, *, #279, .F. ) ;
#259 = SURFACE_SIDE_STYLE ('',( #87 ) ) ;
#260 = CARTESIAN_POINT ( 'NONE',  ( 2.244059112742149073E-67, -7.490091976641790545E-35, 0.000000000000000000 ) ) ;
#261 = DIRECTION ( 'NONE',  ( -1.221677243039647880E-16, 1.000000000000000000, -0.000000000000000000 ) ) ;
#262 = FACE_OUTER_BOUND ( 'NONE', #14, .T. ) ;
#263 = EDGE_CURVE ( 'NONE', #43, #193, #221, .T. ) ;
#264 = ORIENTED_EDGE ( 'NONE', *, *, #5, .T. ) ;
#265 = COLOUR_RGB ( '',1.000000000000000000, 0.000000000000000000, 0.000000000000000000 ) ;
#266 = DIRECTION ( 'NONE',  ( 1.221677243039647880E-16, -1.000000000000000000, 0.000000000000000000 ) ) ;
#267 = ORIENTED_EDGE ( 'NONE', *, *, #263, .F. ) ;
#268 = LENGTH_MEASURE_WITH_UNIT ( LENGTH_MEASURE( 0.02539999999999999897 ), #137 );
#269 = PRESENTATION_STYLE_ASSIGNMENT (( #140 ) ) ;
#270 = EDGE_CURVE ( 'NONE', #219, #68, #122, .T. ) ;
#271 = PRESENTATION_STYLE_ASSIGNMENT (( #238 ) ) ;
#272 = APPLICATION_PROTOCOL_DEFINITION ( 'draft international standard', 'automotive_design', 1998, #116 ) ;
#273 = PRESENTATION_STYLE_ASSIGNMENT (( #94 ) ) ;
#274 = SURFACE_STYLE_USAGE ( .BOTH. , #55 ) ;
#275 = AXIS2_PLACEMENT_3D ( 'NONE', #159, #70, #90 ) ;
#276 = SURFACE_STYLE_FILL_AREA ( #69 ) ;
#277 = CARTESIAN_POINT ( 'NONE',  ( 1.734411286840929472E-16, 0.07908782799644425987, 0.000000000000000000 ) ) ;
#278 = FILL_AREA_STYLE ('',( #229 ) ) ;
#279 = EDGE_CURVE ( 'NONE', #111, #62, #282, .T. ) ;
#280 = CARTESIAN_POINT ( 'NONE',  ( 2.244059112742149073E-67, -7.490091976641790545E-35, 0.000000000000000000 ) ) ;
#281 = STYLED_ITEM ( 'NONE', ( #271 ), #12 ) ;
#282 = CIRCLE ( 'NONE', #81, 0.09375000000000005551 ) ;
#283 = FILL_AREA_STYLE_COLOUR ( '', #220 ) ;
#284 = CIRCLE ( 'NONE', #57, 0.02500000000000000139 ) ;
#285 =( LENGTH_UNIT ( ) NAMED_UNIT ( * ) SI_UNIT ( $, .METRE. ) );
#286 = ADVANCED_FACE ( 'NONE', ( #28 ), #178, .T. ) ;
#287 = CARTESIAN_POINT ( 'NONE',  ( -6.123233995736763571E-17, 2.000000000000000000, 0.000000000000000000 ) ) ;
#288 = DIRECTION ( 'NONE',  ( -1.000000000000000000, 0.000000000000000000, 0.000000000000000000 ) ) ;
#289 = ORIENTED_EDGE ( 'NONE', *, *, #217, .F. ) ;
#290 = CARTESIAN_POINT ( 'NONE',  ( -2.369500423704768587E-34, 0.07908782799644412109, 0.000000000000000000 ) ) ;
#291 = AXIS2_PLACEMENT_3D ( 'NONE', #287, #240, #288 ) ;
#292 = ORIENTED_EDGE ( 'NONE', *, *, #185, .F. ) ;
#293 = AXIS2_PLACEMENT_3D ( 'NONE', #290, #154, #32 ) ;
#294 = EDGE_LOOP ( 'NONE', ( #289, #64, #232, #63 ) ) ;
#295 = PRESENTATION_STYLE_ASSIGNMENT (( #274 ) ) ;
#296 = LINE ( 'NONE', #166, #128 ) ;
#297 = PRESENTATION_STYLE_ASSIGNMENT (( #8 ) ) ;
#298 = CARTESIAN_POINT ( 'NONE',  ( 2.244059112742149073E-67, -7.490091976641790545E-35, 0.000000000000000000 ) ) ;
#299 = CARTESIAN_POINT ( 'NONE',  ( -2.369500423704768587E-34, 0.07908782799644412109, 0.000000000000000000 ) ) ;
#300 = DIRECTION ( 'NONE',  ( -0.6560590289905084971, 0.7547095802227710148, 0.000000000000000000 ) ) ;
#301 = DIRECTION ( 'NONE',  ( 2.996036790656716304E-33, -1.000000000000000000, -0.000000000000000000 ) ) ;
#302 = FILL_AREA_STYLE_COLOUR ( '', #189 ) ;
#303 = ORIENTED_EDGE ( 'NONE', *, *, #217, .T. ) ;
#304 = CYLINDRICAL_SURFACE ( 'NONE', #291, 0.09374999999999994449 ) ;
#305 = ORIENTED_EDGE ( 'NONE', *, *, #185, .T. ) ;
#306 = COLOUR_RGB ( '',1.000000000000000000, 0.000000000000000000, 0.000000000000000000 ) ;
#307 = ORIENTED_EDGE ( 'NONE', *, *, #106, .F. ) ;
#308 = UNCERTAINTY_MEASURE_WITH_UNIT (LENGTH_MEASURE( 1.000000000000000082E-05 ), #218, 'distance_accuracy_value', 'NONE');
#309 = ADVANCED_FACE ( 'NONE', ( #235 ), #103, .T. ) ;
ENDSEC;
END-ISO-10303-21;
