ISO-10303-21;
HEADER;
FILE_DESCRIPTION (( 'STEP AP214' ),
    '1' );
FILE_NAME ('00092.STEP',
    '2023-06-22T14:02:48',
    ( '' ),
    ( '' ),
    'SwSTEP 2.0',
    'SolidWorks 2023',
    '' );
FILE_SCHEMA (( 'AUTOMOTIVE_DESIGN' ));
ENDSEC;

DATA;
#1 = APPLICATION_CONTEXT ( 'automotive_design' ) ;
#2 = CARTESIAN_POINT ( 'NONE',  ( 0.09375000000000001388, 0.3125000000000000000, 1.148106374200643401E-17 ) ) ;
#3 =( LENGTH_UNIT ( ) NAMED_UNIT ( * ) SI_UNIT ( $, .METRE. ) );
#4 =( CONVERSION_BASED_UNIT ( 'INCH', #218 ) LENGTH_UNIT ( ) NAMED_UNIT ( #66 ) );
#5 = FILL_AREA_STYLE ('',( #96 ) ) ;
#6 = LENGTH_MEASURE_WITH_UNIT ( LENGTH_MEASURE( 0.02539999999999999897 ), #24 );
#7 = CIRCLE ( 'NONE', #100, 0.09375000000000001388 ) ;
#8 = CARTESIAN_POINT ( 'NONE',  ( 6.123233995736766036E-17, 2.000000000000000000, 0.000000000000000000 ) ) ;
#9 = CIRCLE ( 'NONE', #188, 0.09375000000000001388 ) ;
#10 = LENGTH_MEASURE_WITH_UNIT ( LENGTH_MEASURE( 0.02539999999999999897 ), #228 );
#11 = VERTEX_POINT ( 'NONE', #59 ) ;
#12 = DIRECTION ( 'NONE',  ( 0.000000000000000000, 0.000000000000000000, -1.000000000000000000 ) ) ;
#13 = AXIS2_PLACEMENT_3D ( 'NONE', #120, #281, #154 ) ;
#14 = ORIENTED_EDGE ( 'NONE', *, *, #44, .T. ) ;
#15 = SURFACE_SIDE_STYLE ('',( #293 ) ) ;
#16 = VERTEX_POINT ( 'NONE', #2 ) ;
#17 = DIRECTION ( 'NONE',  ( -1.000000000000000000, 0.000000000000000000, 0.000000000000000000 ) ) ;
#18 = EDGE_LOOP ( 'NONE', ( #42, #79 ) ) ;
#19 = PRESENTATION_STYLE_ASSIGNMENT (( #116 ) ) ;
#20 = CARTESIAN_POINT ( 'NONE',  ( 0.000000000000000000, 0.3125000000000000000, 0.000000000000000000 ) ) ;
#21 = SURFACE_STYLE_USAGE ( .BOTH. , #90 ) ;
#22 = UNCERTAINTY_MEASURE_WITH_UNIT (LENGTH_MEASURE( 1.000000000000000082E-05 ), #174, 'distance_accuracy_value', 'NONE');
#23 = COLOUR_RGB ( '',1.000000000000000000, 0.000000000000000000, 0.000000000000000000 ) ;
#24 =( LENGTH_UNIT ( ) NAMED_UNIT ( * ) SI_UNIT ( $, .METRE. ) );
#25 = ADVANCED_FACE ( 'NONE', ( #190 ), #87, .T. ) ;
#26 = PRESENTATION_STYLE_ASSIGNMENT (( #249 ) ) ;
#27 = FILL_AREA_STYLE_COLOUR ( '', #209 ) ;
#28 = CARTESIAN_POINT ( 'NONE',  ( 0.000000000000000000, 0.000000000000000000, 0.000000000000000000 ) ) ;
#29 = CIRCLE ( 'NONE', #301, 0.09375000000000001388 ) ;
#30 =( GEOMETRIC_REPRESENTATION_CONTEXT ( 3 ) GLOBAL_UNCERTAINTY_ASSIGNED_CONTEXT ( ( #22 ) ) GLOBAL_UNIT_ASSIGNED_CONTEXT ( ( #174, #119, #176 ) ) REPRESENTATION_CONTEXT ( 'NONE', 'WORKASPACE' ) );
#31 = SURFACE_STYLE_USAGE ( .BOTH. , #150 ) ;
#32 = PRESENTATION_STYLE_ASSIGNMENT (( #31 ) ) ;
#33 = STYLED_ITEM ( 'NONE', ( #19 ), #118 ) ;
#34 = COLOUR_RGB ( '',0.7921568627450980005, 0.8196078431372548767, 0.9333333333333333481 ) ;
#35 = DIRECTION ( 'NONE',  ( 3.628583108584750472E-17, 1.000000000000000000, -0.000000000000000000 ) ) ;
#36 = ORIENTED_EDGE ( 'NONE', *, *, #80, .T. ) ;
#37 = ORIENTED_EDGE ( 'NONE', *, *, #184, .F. ) ;
#38 = ADVANCED_FACE ( 'NONE', ( #238 ), #83, .F. ) ;
#39 = ORIENTED_EDGE ( 'NONE', *, *, #44, .F. ) ;
#40 = CIRCLE ( 'NONE', #204, 0.09375000000000001388 ) ;
#41 = VECTOR ( 'NONE', #76, 39.37007874015748143 ) ;
#42 = ORIENTED_EDGE ( 'NONE', *, *, #70, .T. ) ;
#43 =( NAMED_UNIT ( * ) SI_UNIT ( $, .STERADIAN. ) SOLID_ANGLE_UNIT ( ) );
#44 = EDGE_CURVE ( 'NONE', #16, #138, #29, .T. ) ;
#45 = DIRECTION ( 'NONE',  ( -3.628583108584750472E-17, -1.000000000000000000, 0.000000000000000000 ) ) ;
#46 = STYLED_ITEM ( 'NONE', ( #112 ), #25 ) ;
#47 = AXIS2_PLACEMENT_3D ( 'NONE', #101, #280, #253 ) ;
#48 = CIRCLE ( 'NONE', #13, 0.09375000000000001388 ) ;
#49 =( LENGTH_UNIT ( ) NAMED_UNIT ( * ) SI_UNIT ( $, .METRE. ) );
#50 = LENGTH_MEASURE_WITH_UNIT ( LENGTH_MEASURE( 0.02539999999999999897 ), #195 );
#51 = PRESENTATION_LAYER_ASSIGNMENT (  '', '', ( #164 ) ) ;
#52 = FACE_OUTER_BOUND ( 'NONE', #187, .T. ) ;
#53 = ADVANCED_FACE ( 'NONE', ( #288 ), #208, .F. ) ;
#54 = PRESENTATION_LAYER_ASSIGNMENT (  '', '', ( #46 ) ) ;
#55 = MECHANICAL_DESIGN_GEOMETRIC_PRESENTATION_REPRESENTATION (  '', ( #194 ), #113 ) ;
#56 = CARTESIAN_POINT ( 'NONE',  ( 0.09375000000000004163, 2.000000000000000000, 1.148106374200643247E-17 ) ) ;
#57 = PRESENTATION_LAYER_ASSIGNMENT (  '', '', ( #199 ) ) ;
#58 = LINE ( 'NONE', #182, #104 ) ;
#59 = CARTESIAN_POINT ( 'NONE',  ( 0.000000000000000000, 0.000000000000000000, -0.09375000000000001388 ) ) ;
#60 = PRESENTATION_LAYER_ASSIGNMENT (  '', '', ( #194 ) ) ;
#61 = EDGE_LOOP ( 'NONE', ( #160, #130, #36, #291 ) ) ;
#62 = FILL_AREA_STYLE ('',( #214 ) ) ;
#63 = FILL_AREA_STYLE ('',( #193 ) ) ;
#64 = CARTESIAN_POINT ( 'NONE',  ( 0.000000000000000000, 0.3125000000000000000, 0.000000000000000000 ) ) ;
#65 = AXIS2_PLACEMENT_3D ( 'NONE', #28, #284, #230 ) ;
#66 = DIMENSIONAL_EXPONENTS ( 1.000000000000000000, 0.000000000000000000, 0.000000000000000000, 0.000000000000000000, 0.000000000000000000, 0.000000000000000000, 0.000000000000000000 ) ;
#67 = CARTESIAN_POINT ( 'NONE',  ( -0.09374999999999987510, 2.000000000000000000, 0.000000000000000000 ) ) ;
#68 = MECHANICAL_DESIGN_GEOMETRIC_PRESENTATION_REPRESENTATION (  '', ( #33 ), #254 ) ;
#69 = AXIS2_PLACEMENT_3D ( 'NONE', #86, #212, #210 ) ;
#70 = EDGE_CURVE ( 'NONE', #155, #308, #229, .T. ) ;
#71 = LINE ( 'NONE', #303, #41 ) ;
#72 = UNCERTAINTY_MEASURE_WITH_UNIT (LENGTH_MEASURE( 1.000000000000000082E-05 ), #197, 'distance_accuracy_value', 'NONE');
#73 = CARTESIAN_POINT ( 'NONE',  ( 1.148106374200643863E-17, 0.3125000000000000000, 0.09375000000000001388 ) ) ;
#74 = FACE_OUTER_BOUND ( 'NONE', #111, .T. ) ;
#75 = FILL_AREA_STYLE ('',( #259 ) ) ;
#76 = DIRECTION ( 'NONE',  ( -0.000000000000000000, -1.000000000000000000, -0.000000000000000000 ) ) ;
#77 = PRODUCT_DEFINITION ( 'UNKNOWN', '', #93, #175 ) ;
#78 = CARTESIAN_POINT ( 'NONE',  ( 6.123233995736766036E-17, 2.000000000000000000, 0.000000000000000000 ) ) ;
#79 = ORIENTED_EDGE ( 'NONE', *, *, #184, .T. ) ;
#80 = EDGE_CURVE ( 'NONE', #132, #11, #58, .T. ) ;
#81 = DIRECTION ( 'NONE',  ( -1.000000000000000000, 3.628583108584750472E-17, 0.000000000000000000 ) ) ;
#82 = PRODUCT ( '00092', '00092', '', ( #262 ) ) ;
#83 = PLANE ( 'NONE',  #276 ) ;
#84 = ORIENTED_EDGE ( 'NONE', *, *, #290, .F. ) ;
#85 = DIRECTION ( 'NONE',  ( 0.000000000000000000, 0.000000000000000000, -1.000000000000000000 ) ) ;
#86 = CARTESIAN_POINT ( 'NONE',  ( 0.000000000000000000, 0.000000000000000000, 0.000000000000000000 ) ) ;
#87 = CYLINDRICAL_SURFACE ( 'NONE', #152, 0.09375000000000001388 ) ;
#88 = CYLINDRICAL_SURFACE ( 'NONE', #92, 0.09374999999999997224 ) ;
#89 =( NAMED_UNIT ( * ) PLANE_ANGLE_UNIT ( ) SI_UNIT ( $, .RADIAN. ) );
#90 = SURFACE_SIDE_STYLE ('',( #219 ) ) ;
#91 = EDGE_CURVE ( 'NONE', #132, #266, #9, .T. ) ;
#92 = AXIS2_PLACEMENT_3D ( 'NONE', #8, #172, #148 ) ;
#93 = PRODUCT_DEFINITION_FORMATION_WITH_SPECIFIED_SOURCE ( 'ANY', '', #82, .NOT_KNOWN. ) ;
#94 = DIRECTION ( 'NONE',  ( 0.000000000000000000, -0.000000000000000000, 1.000000000000000000 ) ) ;
#95 = UNCERTAINTY_MEASURE_WITH_UNIT (LENGTH_MEASURE( 1.000000000000000082E-05 ), #221, 'distance_accuracy_value', 'NONE');
#96 = FILL_AREA_STYLE_COLOUR ( '', #142 ) ;
#97 =( NAMED_UNIT ( * ) PLANE_ANGLE_UNIT ( ) SI_UNIT ( $, .RADIAN. ) );
#98 = UNCERTAINTY_MEASURE_WITH_UNIT (LENGTH_MEASURE( 1.000000000000000082E-05 ), #299, 'distance_accuracy_value', 'NONE');
#99 =( GEOMETRIC_REPRESENTATION_CONTEXT ( 3 ) GLOBAL_UNCERTAINTY_ASSIGNED_CONTEXT ( ( #98 ) ) GLOBAL_UNIT_ASSIGNED_CONTEXT ( ( #299, #97, #223 ) ) REPRESENTATION_CONTEXT ( 'NONE', 'WORKASPACE' ) );
#100 = AXIS2_PLACEMENT_3D ( 'NONE', #105, #177, #260 ) ;
#101 = CARTESIAN_POINT ( 'NONE',  ( 6.123233995736766036E-17, 2.000000000000000000, 0.000000000000000000 ) ) ;
#102 = UNCERTAINTY_MEASURE_WITH_UNIT (LENGTH_MEASURE( 1.000000000000000082E-05 ), #4, 'distance_accuracy_value', 'NONE');
#103 = CARTESIAN_POINT ( 'NONE',  ( 0.000000000000000000, 0.000000000000000000, 0.000000000000000000 ) ) ;
#104 = VECTOR ( 'NONE', #156, 39.37007874015748143 ) ;
#105 = CARTESIAN_POINT ( 'NONE',  ( 0.000000000000000000, 0.000000000000000000, 0.000000000000000000 ) ) ;
#106 = CIRCLE ( 'NONE', #47, 0.09374999999999994449 ) ;
#107 = EDGE_LOOP ( 'NONE', ( #285, #39 ) ) ;
#108 = EDGE_LOOP ( 'NONE', ( #231, #304, #135, #306 ) ) ;
#109 = DIRECTION ( 'NONE',  ( 3.628583108584750472E-17, 1.000000000000000000, -0.000000000000000000 ) ) ;
#110 = EDGE_CURVE ( 'NONE', #138, #16, #40, .T. ) ;
#111 = EDGE_LOOP ( 'NONE', ( #180, #233, #157, #264 ) ) ;
#112 = PRESENTATION_STYLE_ASSIGNMENT (( #216 ) ) ;
#113 =( GEOMETRIC_REPRESENTATION_CONTEXT ( 3 ) GLOBAL_UNCERTAINTY_ASSIGNED_CONTEXT ( ( #72 ) ) GLOBAL_UNIT_ASSIGNED_CONTEXT ( ( #197, #267, #43 ) ) REPRESENTATION_CONTEXT ( 'NONE', 'WORKASPACE' ) );
#114 = PRESENTATION_STYLE_ASSIGNMENT (( #245 ) ) ;
#115 = ADVANCED_FACE ( 'NONE', ( #236 ), #179, .T. ) ;
#116 = SURFACE_STYLE_USAGE ( .BOTH. , #243 ) ;
#117 = MANIFOLD_SOLID_BREP ( 'Revolve - Cutting Edge', #127 ) ;
#118 = MANIFOLD_SOLID_BREP ( 'Revolve - Tool Body (Straight Shanked)', #242 ) ;
#119 =( NAMED_UNIT ( * ) PLANE_ANGLE_UNIT ( ) SI_UNIT ( $, .RADIAN. ) );
#120 = CARTESIAN_POINT ( 'NONE',  ( 0.000000000000000000, 0.3125000000000000000, 0.000000000000000000 ) ) ;
#121 = AXIS2_PLACEMENT_3D ( 'NONE', #189, #45, #186 ) ;
#122 = FILL_AREA_STYLE ('',( #27 ) ) ;
#123 = DIMENSIONAL_EXPONENTS ( 1.000000000000000000, 0.000000000000000000, 0.000000000000000000, 0.000000000000000000, 0.000000000000000000, 0.000000000000000000, 0.000000000000000000 ) ;
#124 = LINE ( 'NONE', #283, #302 ) ;
#125 = DIRECTION ( 'NONE',  ( -1.000000000000000000, 0.000000000000000000, 0.000000000000000000 ) ) ;
#126 =( NAMED_UNIT ( * ) PLANE_ANGLE_UNIT ( ) SI_UNIT ( $, .RADIAN. ) );
#127 = CLOSED_SHELL ( 'NONE', ( #144, #115, #25, #196 ) ) ;
#128 = DIRECTION ( 'NONE',  ( 0.000000000000000000, 0.000000000000000000, -1.000000000000000000 ) ) ;
#129 = FACE_OUTER_BOUND ( 'NONE', #108, .T. ) ;
#130 = ORIENTED_EDGE ( 'NONE', *, *, #290, .T. ) ;
#131 = SHAPE_DEFINITION_REPRESENTATION ( #149, #166 ) ;
#132 = VERTEX_POINT ( 'NONE', #282 ) ;
#133 = DIRECTION ( 'NONE',  ( 3.628583108584750472E-17, 1.000000000000000000, -0.000000000000000000 ) ) ;
#134 = COLOUR_RGB ( '',1.000000000000000000, 0.000000000000000000, 0.000000000000000000 ) ;
#135 = ORIENTED_EDGE ( 'NONE', *, *, #70, .F. ) ;
#136 = COLOUR_RGB ( '',0.7921568627450980005, 0.8196078431372548767, 0.9333333333333333481 ) ;
#137 = ADVANCED_FACE ( 'NONE', ( #165 ), #88, .T. ) ;
#138 = VERTEX_POINT ( 'NONE', #203 ) ;
#139 =( NAMED_UNIT ( * ) SI_UNIT ( $, .STERADIAN. ) SOLID_ANGLE_UNIT ( ) );
#140 = FILL_AREA_STYLE ('',( #192 ) ) ;
#141 =( CONVERSION_BASED_UNIT ( 'INCH', #162 ) LENGTH_UNIT ( ) NAMED_UNIT ( #123 ) );
#142 = COLOUR_RGB ( '',1.000000000000000000, 0.000000000000000000, 0.000000000000000000 ) ;
#143 = AXIS2_PLACEMENT_3D ( 'NONE', #206, #225, #128 ) ;
#144 = ADVANCED_FACE ( 'NONE', ( #74 ), #198, .T. ) ;
#145 = AXIS2_PLACEMENT_3D ( 'NONE', #241, #307, #17 ) ;
#146 = DIMENSIONAL_EXPONENTS ( 1.000000000000000000, 0.000000000000000000, 0.000000000000000000, 0.000000000000000000, 0.000000000000000000, 0.000000000000000000, 0.000000000000000000 ) ;
#147 = SURFACE_SIDE_STYLE ('',( #275 ) ) ;
#148 = DIRECTION ( 'NONE',  ( -1.000000000000000000, 0.000000000000000000, 0.000000000000000000 ) ) ;
#149 = PRODUCT_DEFINITION_SHAPE ( 'NONE', 'NONE',  #77 ) ;
#150 = SURFACE_SIDE_STYLE ('',( #300 ) ) ;
#151 = UNCERTAINTY_MEASURE_WITH_UNIT (LENGTH_MEASURE( 1.000000000000000082E-05 ), #277, 'distance_accuracy_value', 'NONE');
#152 = AXIS2_PLACEMENT_3D ( 'NONE', #268, #269, #85 ) ;
#153 =( LENGTH_UNIT ( ) NAMED_UNIT ( * ) SI_UNIT ( $, .METRE. ) );
#154 = DIRECTION ( 'NONE',  ( 0.000000000000000000, 0.000000000000000000, -1.000000000000000000 ) ) ;
#155 = VERTEX_POINT ( 'NONE', #67 ) ;
#156 = DIRECTION ( 'NONE',  ( -0.000000000000000000, -1.000000000000000000, -0.000000000000000000 ) ) ;
#157 = ORIENTED_EDGE ( 'NONE', *, *, #200, .F. ) ;
#158 = DIRECTION ( 'NONE',  ( 3.628583108584750472E-17, 1.000000000000000000, -0.000000000000000000 ) ) ;
#159 = ORIENTED_EDGE ( 'NONE', *, *, #220, .T. ) ;
#160 = ORIENTED_EDGE ( 'NONE', *, *, #207, .F. ) ;
#161 = APPLICATION_PROTOCOL_DEFINITION ( 'draft international standard', 'automotive_design', 1998, #167 ) ;
#162 = LENGTH_MEASURE_WITH_UNIT ( LENGTH_MEASURE( 0.02539999999999999897 ), #3 );
#163 = SURFACE_SIDE_STYLE ('',( #296 ) ) ;
#164 = STYLED_ITEM ( 'NONE', ( #247 ), #115 ) ;
#165 = FACE_OUTER_BOUND ( 'NONE', #185, .T. ) ;
#166 = ADVANCED_BREP_SHAPE_REPRESENTATION ( '00092', ( #117, #118, #69 ), #256 ) ;
#167 = APPLICATION_CONTEXT ( 'automotive_design' ) ;
#168 = CARTESIAN_POINT ( 'NONE',  ( 1.148106374200643863E-17, 0.000000000000000000, 0.09375000000000001388 ) ) ;
#169 = AXIS2_PLACEMENT_3D ( 'NONE', #64, #240, #94 ) ;
#170 =( LENGTH_UNIT ( ) NAMED_UNIT ( * ) SI_UNIT ( $, .METRE. ) );
#171 = DIRECTION ( 'NONE',  ( 3.628583108584750472E-17, 1.000000000000000000, -0.000000000000000000 ) ) ;
#172 = DIRECTION ( 'NONE',  ( 3.628583108584750472E-17, 1.000000000000000000, -0.000000000000000000 ) ) ;
#173 =( NAMED_UNIT ( * ) PLANE_ANGLE_UNIT ( ) SI_UNIT ( $, .RADIAN. ) );
#174 =( CONVERSION_BASED_UNIT ( 'INCH', #251 ) LENGTH_UNIT ( ) NAMED_UNIT ( #250 ) );
#175 = PRODUCT_DEFINITION_CONTEXT ( 'detailed design', #167, 'design' ) ;
#176 =( NAMED_UNIT ( * ) SI_UNIT ( $, .STERADIAN. ) SOLID_ANGLE_UNIT ( ) );
#177 = DIRECTION ( 'NONE',  ( -0.000000000000000000, -1.000000000000000000, -0.000000000000000000 ) ) ;
#178 = VERTEX_POINT ( 'NONE', #168 ) ;
#179 = PLANE ( 'NONE',  #169 ) ;
#180 = ORIENTED_EDGE ( 'NONE', *, *, #91, .T. ) ;
#181 = MECHANICAL_DESIGN_GEOMETRIC_PRESENTATION_REPRESENTATION (  '', ( #199 ), #99 ) ;
#182 = CARTESIAN_POINT ( 'NONE',  ( 0.000000000000000000, 0.000000000000000000, -0.09375000000000001388 ) ) ;
#183 = CARTESIAN_POINT ( 'NONE',  ( 6.171850957456205586E-35, 0.3125000000000000000, 0.000000000000000000 ) ) ;
#184 = EDGE_CURVE ( 'NONE', #308, #155, #106, .T. ) ;
#185 = EDGE_LOOP ( 'NONE', ( #263, #14, #159, #37 ) ) ;
#186 = DIRECTION ( 'NONE',  ( 1.000000000000000000, -3.628583108584750472E-17, 0.000000000000000000 ) ) ;
#187 = EDGE_LOOP ( 'NONE', ( #289, #239 ) ) ;
#188 = AXIS2_PLACEMENT_3D ( 'NONE', #286, #232, #12 ) ;
#189 = CARTESIAN_POINT ( 'NONE',  ( 0.09375000000000001388, 2.000000000000000000, 0.000000000000000000 ) ) ;
#190 = FACE_OUTER_BOUND ( 'NONE', #61, .T. ) ;
#191 = PRODUCT_RELATED_PRODUCT_CATEGORY ( 'part', '', ( #82 ) ) ;
#192 = FILL_AREA_STYLE_COLOUR ( '', #136 ) ;
#193 = FILL_AREA_STYLE_COLOUR ( '', #34 ) ;
#194 = STYLED_ITEM ( 'NONE', ( #114 ), #117 ) ;
#195 =( LENGTH_UNIT ( ) NAMED_UNIT ( * ) SI_UNIT ( $, .METRE. ) );
#196 = ADVANCED_FACE ( 'NONE', ( #52 ), #297, .T. ) ;
#197 =( CONVERSION_BASED_UNIT ( 'INCH', #6 ) LENGTH_UNIT ( ) NAMED_UNIT ( #146 ) );
#198 = CYLINDRICAL_SURFACE ( 'NONE', #224, 0.09375000000000001388 ) ;
#199 = STYLED_ITEM ( 'NONE', ( #32 ), #144 ) ;
#200 = EDGE_CURVE ( 'NONE', #11, #178, #7, .T. ) ;
#201 = DIRECTION ( 'NONE',  ( -0.000000000000000000, -1.000000000000000000, -0.000000000000000000 ) ) ;
#202 = DIMENSIONAL_EXPONENTS ( 1.000000000000000000, 0.000000000000000000, 0.000000000000000000, 0.000000000000000000, 0.000000000000000000, 0.000000000000000000, 0.000000000000000000 ) ;
#203 = CARTESIAN_POINT ( 'NONE',  ( -0.09375000000000001388, 0.3125000000000000000, 0.000000000000000000 ) ) ;
#204 = AXIS2_PLACEMENT_3D ( 'NONE', #265, #109, #273 ) ;
#205 = DIRECTION ( 'NONE',  ( 0.000000000000000000, 0.000000000000000000, -1.000000000000000000 ) ) ;
#206 = CARTESIAN_POINT ( 'NONE',  ( 0.000000000000000000, 0.000000000000000000, 0.000000000000000000 ) ) ;
#207 = EDGE_CURVE ( 'NONE', #266, #178, #71, .T. ) ;
#208 = PLANE ( 'NONE',  #121 ) ;
#209 = COLOUR_RGB ( '',1.000000000000000000, 0.000000000000000000, 0.000000000000000000 ) ;
#210 = DIRECTION ( 'NONE',  ( 1.000000000000000000, 0.000000000000000000, 0.000000000000000000 ) ) ;
#211 = EDGE_LOOP ( 'NONE', ( #213, #84 ) ) ;
#212 = DIRECTION ( 'NONE',  ( 0.000000000000000000, 0.000000000000000000, 1.000000000000000000 ) ) ;
#213 = ORIENTED_EDGE ( 'NONE', *, *, #91, .F. ) ;
#214 = FILL_AREA_STYLE_COLOUR ( '', #134 ) ;
#215 = PRESENTATION_LAYER_ASSIGNMENT (  '', '', ( #33 ) ) ;
#216 = SURFACE_STYLE_USAGE ( .BOTH. , #15 ) ;
#217 = VECTOR ( 'NONE', #171, 39.37007874015748143 ) ;
#218 = LENGTH_MEASURE_WITH_UNIT ( LENGTH_MEASURE( 0.02539999999999999897 ), #49 );
#219 = SURFACE_STYLE_FILL_AREA ( #5 ) ;
#220 = EDGE_CURVE ( 'NONE', #138, #155, #124, .T. ) ;
#221 =( CONVERSION_BASED_UNIT ( 'INCH', #50 ) LENGTH_UNIT ( ) NAMED_UNIT ( #222 ) );
#222 = DIMENSIONAL_EXPONENTS ( 1.000000000000000000, 0.000000000000000000, 0.000000000000000000, 0.000000000000000000, 0.000000000000000000, 0.000000000000000000, 0.000000000000000000 ) ;
#223 =( NAMED_UNIT ( * ) SI_UNIT ( $, .STERADIAN. ) SOLID_ANGLE_UNIT ( ) );
#224 = AXIS2_PLACEMENT_3D ( 'NONE', #103, #201, #205 ) ;
#225 = DIRECTION ( 'NONE',  ( 0.000000000000000000, -1.000000000000000000, -0.000000000000000000 ) ) ;
#226 =( NAMED_UNIT ( * ) SI_UNIT ( $, .STERADIAN. ) SOLID_ANGLE_UNIT ( ) );
#227 = CARTESIAN_POINT ( 'NONE',  ( 0.09375000000000001388, 2.000000000000000000, 1.148106374200643401E-17 ) ) ;
#228 =( LENGTH_UNIT ( ) NAMED_UNIT ( * ) SI_UNIT ( $, .METRE. ) );
#229 = CIRCLE ( 'NONE', #145, 0.09374999999999994449 ) ;
#230 = DIRECTION ( 'NONE',  ( 0.000000000000000000, 0.000000000000000000, -1.000000000000000000 ) ) ;
#231 = ORIENTED_EDGE ( 'NONE', *, *, #110, .T. ) ;
#232 = DIRECTION ( 'NONE',  ( -0.000000000000000000, -1.000000000000000000, -0.000000000000000000 ) ) ;
#233 = ORIENTED_EDGE ( 'NONE', *, *, #207, .T. ) ;
#234 = PRESENTATION_LAYER_ASSIGNMENT (  '', '', ( #270 ) ) ;
#235 = CIRCLE ( 'NONE', #65, 0.09375000000000001388 ) ;
#236 = FACE_OUTER_BOUND ( 'NONE', #211, .T. ) ;
#237 = ADVANCED_FACE ( 'NONE', ( #129 ), #258, .T. ) ;
#238 = FACE_OUTER_BOUND ( 'NONE', #107, .T. ) ;
#239 = ORIENTED_EDGE ( 'NONE', *, *, #274, .T. ) ;
#240 = DIRECTION ( 'NONE',  ( 0.000000000000000000, 1.000000000000000000, 0.000000000000000000 ) ) ;
#241 = CARTESIAN_POINT ( 'NONE',  ( 6.123233995736766036E-17, 2.000000000000000000, 0.000000000000000000 ) ) ;
#242 = CLOSED_SHELL ( 'NONE', ( #237, #38, #137, #53 ) ) ;
#243 = SURFACE_SIDE_STYLE ('',( #271 ) ) ;
#244 = DIRECTION ( 'NONE',  ( -1.000000000000000000, 0.000000000000000000, 0.000000000000000000 ) ) ;
#245 = SURFACE_STYLE_USAGE ( .BOTH. , #163 ) ;
#246 = DIMENSIONAL_EXPONENTS ( 1.000000000000000000, 0.000000000000000000, 0.000000000000000000, 0.000000000000000000, 0.000000000000000000, 0.000000000000000000, 0.000000000000000000 ) ;
#247 = PRESENTATION_STYLE_ASSIGNMENT (( #21 ) ) ;
#248 =( GEOMETRIC_REPRESENTATION_CONTEXT ( 3 ) GLOBAL_UNCERTAINTY_ASSIGNED_CONTEXT ( ( #278 ) ) GLOBAL_UNIT_ASSIGNED_CONTEXT ( ( #141, #89, #139 ) ) REPRESENTATION_CONTEXT ( 'NONE', 'WORKASPACE' ) );
#249 = SURFACE_STYLE_USAGE ( .BOTH. , #147 ) ;
#250 = DIMENSIONAL_EXPONENTS ( 1.000000000000000000, 0.000000000000000000, 0.000000000000000000, 0.000000000000000000, 0.000000000000000000, 0.000000000000000000, 0.000000000000000000 ) ;
#251 = LENGTH_MEASURE_WITH_UNIT ( LENGTH_MEASURE( 0.02539999999999999897 ), #170 );
#252 = DIRECTION ( 'NONE',  ( 3.628583108584750472E-17, 1.000000000000000000, -0.000000000000000000 ) ) ;
#253 = DIRECTION ( 'NONE',  ( -1.000000000000000000, 0.000000000000000000, 0.000000000000000000 ) ) ;
#254 =( GEOMETRIC_REPRESENTATION_CONTEXT ( 3 ) GLOBAL_UNCERTAINTY_ASSIGNED_CONTEXT ( ( #102 ) ) GLOBAL_UNIT_ASSIGNED_CONTEXT ( ( #4, #126, #226 ) ) REPRESENTATION_CONTEXT ( 'NONE', 'WORKASPACE' ) );
#255 =( NAMED_UNIT ( * ) SI_UNIT ( $, .STERADIAN. ) SOLID_ANGLE_UNIT ( ) );
#256 =( GEOMETRIC_REPRESENTATION_CONTEXT ( 3 ) GLOBAL_UNCERTAINTY_ASSIGNED_CONTEXT ( ( #151 ) ) GLOBAL_UNIT_ASSIGNED_CONTEXT ( ( #277, #173, #255 ) ) REPRESENTATION_CONTEXT ( 'NONE', 'WORKASPACE' ) );
#257 = LENGTH_MEASURE_WITH_UNIT ( LENGTH_MEASURE( 0.02539999999999999897 ), #153 );
#258 = CYLINDRICAL_SURFACE ( 'NONE', #292, 0.09374999999999997224 ) ;
#259 = FILL_AREA_STYLE_COLOUR ( '', #23 ) ;
#260 = DIRECTION ( 'NONE',  ( 0.000000000000000000, 0.000000000000000000, -1.000000000000000000 ) ) ;
#261 =( GEOMETRIC_REPRESENTATION_CONTEXT ( 3 ) GLOBAL_UNCERTAINTY_ASSIGNED_CONTEXT ( ( #95 ) ) GLOBAL_UNIT_ASSIGNED_CONTEXT ( ( #221, #272, #294 ) ) REPRESENTATION_CONTEXT ( 'NONE', 'WORKASPACE' ) );
#262 = PRODUCT_CONTEXT ( 'NONE', #1, 'mechanical' ) ;
#263 = ORIENTED_EDGE ( 'NONE', *, *, #309, .F. ) ;
#264 = ORIENTED_EDGE ( 'NONE', *, *, #80, .F. ) ;
#265 = CARTESIAN_POINT ( 'NONE',  ( 0.000000000000000000, 0.3125000000000000000, 0.000000000000000000 ) ) ;
#266 = VERTEX_POINT ( 'NONE', #73 ) ;
#267 =( NAMED_UNIT ( * ) PLANE_ANGLE_UNIT ( ) SI_UNIT ( $, .RADIAN. ) );
#268 = CARTESIAN_POINT ( 'NONE',  ( 0.000000000000000000, 0.000000000000000000, 0.000000000000000000 ) ) ;
#269 = DIRECTION ( 'NONE',  ( -0.000000000000000000, -1.000000000000000000, -0.000000000000000000 ) ) ;
#270 = STYLED_ITEM ( 'NONE', ( #26 ), #196 ) ;
#271 = SURFACE_STYLE_FILL_AREA ( #140 ) ;
#272 =( NAMED_UNIT ( * ) PLANE_ANGLE_UNIT ( ) SI_UNIT ( $, .RADIAN. ) );
#273 = DIRECTION ( 'NONE',  ( -1.000000000000000000, 0.000000000000000000, 0.000000000000000000 ) ) ;
#274 = EDGE_CURVE ( 'NONE', #178, #11, #235, .T. ) ;
#275 = SURFACE_STYLE_FILL_AREA ( #122 ) ;
#276 = AXIS2_PLACEMENT_3D ( 'NONE', #183, #158, #81 ) ;
#277 =( CONVERSION_BASED_UNIT ( 'INCH', #10 ) LENGTH_UNIT ( ) NAMED_UNIT ( #202 ) );
#278 = UNCERTAINTY_MEASURE_WITH_UNIT (LENGTH_MEASURE( 1.000000000000000082E-05 ), #141, 'distance_accuracy_value', 'NONE');
#279 = LINE ( 'NONE', #56, #217 ) ;
#280 = DIRECTION ( 'NONE',  ( 3.628583108584750472E-17, 1.000000000000000000, -0.000000000000000000 ) ) ;
#281 = DIRECTION ( 'NONE',  ( -0.000000000000000000, -1.000000000000000000, -0.000000000000000000 ) ) ;
#282 = CARTESIAN_POINT ( 'NONE',  ( 0.000000000000000000, 0.3125000000000000000, -0.09375000000000001388 ) ) ;
#283 = CARTESIAN_POINT ( 'NONE',  ( -0.09374999999999990286, 2.000000000000000000, 0.000000000000000000 ) ) ;
#284 = DIRECTION ( 'NONE',  ( -0.000000000000000000, -1.000000000000000000, -0.000000000000000000 ) ) ;
#285 = ORIENTED_EDGE ( 'NONE', *, *, #110, .F. ) ;
#286 = CARTESIAN_POINT ( 'NONE',  ( 0.000000000000000000, 0.3125000000000000000, 0.000000000000000000 ) ) ;
#287 = APPLICATION_PROTOCOL_DEFINITION ( 'draft international standard', 'automotive_design', 1998, #1 ) ;
#288 = FACE_OUTER_BOUND ( 'NONE', #18, .T. ) ;
#289 = ORIENTED_EDGE ( 'NONE', *, *, #200, .T. ) ;
#290 = EDGE_CURVE ( 'NONE', #266, #132, #48, .T. ) ;
#291 = ORIENTED_EDGE ( 'NONE', *, *, #274, .F. ) ;
#292 = AXIS2_PLACEMENT_3D ( 'NONE', #78, #35, #125 ) ;
#293 = SURFACE_STYLE_FILL_AREA ( #62 ) ;
#294 =( NAMED_UNIT ( * ) SI_UNIT ( $, .STERADIAN. ) SOLID_ANGLE_UNIT ( ) );
#295 = MECHANICAL_DESIGN_GEOMETRIC_PRESENTATION_REPRESENTATION (  '', ( #270 ), #30 ) ;
#296 = SURFACE_STYLE_FILL_AREA ( #63 ) ;
#297 = PLANE ( 'NONE',  #143 ) ;
#298 = MECHANICAL_DESIGN_GEOMETRIC_PRESENTATION_REPRESENTATION (  '', ( #164 ), #261 ) ;
#299 =( CONVERSION_BASED_UNIT ( 'INCH', #257 ) LENGTH_UNIT ( ) NAMED_UNIT ( #246 ) );
#300 = SURFACE_STYLE_FILL_AREA ( #75 ) ;
#301 = AXIS2_PLACEMENT_3D ( 'NONE', #20, #133, #244 ) ;
#302 = VECTOR ( 'NONE', #252, 39.37007874015748143 ) ;
#303 = CARTESIAN_POINT ( 'NONE',  ( 1.148106374200643863E-17, 0.000000000000000000, 0.09375000000000001388 ) ) ;
#304 = ORIENTED_EDGE ( 'NONE', *, *, #309, .T. ) ;
#305 = MECHANICAL_DESIGN_GEOMETRIC_PRESENTATION_REPRESENTATION (  '', ( #46 ), #248 ) ;
#306 = ORIENTED_EDGE ( 'NONE', *, *, #220, .F. ) ;
#307 = DIRECTION ( 'NONE',  ( 3.628583108584750472E-17, 1.000000000000000000, -0.000000000000000000 ) ) ;
#308 = VERTEX_POINT ( 'NONE', #227 ) ;
#309 = EDGE_CURVE ( 'NONE', #16, #308, #279, .T. ) ;
ENDSEC;
END-ISO-10303-21;
