ISO-10303-21;
HEADER;
FILE_DESCRIPTION (( 'STEP AP214' ),
    '1' );
FILE_NAME ('Micro_KC-125-190-045X.STEP',
    '2021-09-03T19:08:19',
    ( '' ),
    ( '' ),
    'SwSTEP 2.0',
    'SolidWorks 2020',
    '' );
FILE_SCHEMA (( 'AUTOMOTIVE_DESIGN' ));
ENDSEC;

DATA;
#1 = FILL_AREA_STYLE_COLOUR ( '', #16 ) ;
#2 = ADVANCED_BREP_SHAPE_REPRESENTATION ( 'Micro_KC-125-190-045X', ( #335, #308 ), #259 ) ;
#3 = AXIS2_PLACEMENT_3D ( 'NONE', #84, #116, #61 ) ;
#4 = DIRECTION ( 'NONE',  ( 1.000000000000000000, 0.0000000000000000000, 0.0000000000000000000 ) ) ;
#5 = UNCERTAINTY_MEASURE_WITH_UNIT (LENGTH_MEASURE( 1.000000000000000082E-05 ), #218, 'distance_accuracy_value', 'NONE');
#6 = ADVANCED_FACE ( 'NONE', ( #281 ), #326, .T. ) ;
#7 = CARTESIAN_POINT ( 'NONE',  ( 0.0000000000000000000, 0.0000000000000000000, 1.500000000000000222 ) ) ;
#8 = AXIS2_PLACEMENT_3D ( 'NONE', #43, #108, #257 ) ;
#9 = CARTESIAN_POINT ( 'NONE',  ( 0.0000000000000000000, 0.0000000000000000000, 0.0000000000000000000 ) ) ;
#10 = EDGE_CURVE ( 'NONE', #254, #338, #268, .T. ) ;
#11 = FACE_OUTER_BOUND ( 'NONE', #370, .T. ) ;
#12 = DIRECTION ( 'NONE',  ( 1.000000000000000000, 0.0000000000000000000, 0.0000000000000000000 ) ) ;
#13 = CARTESIAN_POINT ( 'NONE',  ( 0.0000000000000000000, 0.0000000000000000000, 0.04499999999999999833 ) ) ;
#14 = DIRECTION ( 'NONE',  ( 0.0000000000000000000, 0.0000000000000000000, -1.000000000000000000 ) ) ;
#15 = CIRCLE ( 'NONE', #126, 0.06250000000000000000 ) ;
#16 = COLOUR_RGB ( '',0.7921568627450980005, 0.8196078431372548767, 0.9333333333333333481 ) ;
#17 = VERTEX_POINT ( 'NONE', #219 ) ;
#18 = DIRECTION ( 'NONE',  ( 0.0000000000000000000, 0.0000000000000000000, 1.000000000000000000 ) ) ;
#19 = ORIENTED_EDGE ( 'NONE', *, *, #339, .F. ) ;
#20 = ORIENTED_EDGE ( 'NONE', *, *, #345, .F. ) ;
#21 = CARTESIAN_POINT ( 'NONE',  ( 0.04750000000000064587, 5.817072295950006528E-18, 1.500000000000000222 ) ) ;
#22 = AXIS2_PLACEMENT_3D ( 'NONE', #208, #379, #262 ) ;
#23 = EDGE_CURVE ( 'NONE', #178, #186, #15, .T. ) ;
#24 = DIRECTION ( 'NONE',  ( 1.000000000000000000, 0.0000000000000000000, 0.0000000000000000000 ) ) ;
#25 = CARTESIAN_POINT ( 'NONE',  ( 0.0000000000000000000, 0.0000000000000000000, 0.04499999999999999833 ) ) ;
#26 = CARTESIAN_POINT ( 'NONE',  ( -0.06250000000000000000, 0.0000000000000000000, 1.500000000000000222 ) ) ;
#27 = ORIENTED_EDGE ( 'NONE', *, *, #373, .T. ) ;
#28 = CARTESIAN_POINT ( 'NONE',  ( 0.03100000000000001713, 0.0000000000000000000, 0.1899999999999999745 ) ) ;
#29 =( NAMED_UNIT ( * ) PLANE_ANGLE_UNIT ( ) SI_UNIT ( $, .RADIAN. ) );
#30 = ADVANCED_FACE ( 'NONE', ( #11 ), #356, .T. ) ;
#31 =( LENGTH_UNIT ( ) NAMED_UNIT ( * ) SI_UNIT ( $, .METRE. ) );
#32 = EDGE_CURVE ( 'NONE', #254, #169, #250, .T. ) ;
#33 = VECTOR ( 'NONE', #316, 39.37007874015748143 ) ;
#34 = DIRECTION ( 'NONE',  ( -1.000000000000000000, 0.0000000000000000000, 0.0000000000000000000 ) ) ;
#35 = EDGE_LOOP ( 'NONE', ( #192, #297, #181, #375 ) ) ;
#36 = CARTESIAN_POINT ( 'NONE',  ( 0.06250000000000000000, 7.654042494670956004E-18, 0.2214999999999998359 ) ) ;
#37 = ADVANCED_FACE ( 'NONE', ( #98 ), #325, .T. ) ;
#38 =( LENGTH_UNIT ( ) NAMED_UNIT ( * ) SI_UNIT ( $, .METRE. ) );
#39 = CIRCLE ( 'NONE', #224, 0.06250000000000000000 ) ;
#40 = ORIENTED_EDGE ( 'NONE', *, *, #322, .T. ) ;
#41 = PRESENTATION_STYLE_ASSIGNMENT (( #102 ) ) ;
#42 = DIRECTION ( 'NONE',  ( 1.000000000000000000, 0.0000000000000000000, 0.0000000000000000000 ) ) ;
#43 = CARTESIAN_POINT ( 'NONE',  ( 0.0000000000000000000, 0.0000000000000000000, 1.500000000000000222 ) ) ;
#44 = EDGE_CURVE ( 'NONE', #341, #221, #320, .T. ) ;
#45 = EDGE_LOOP ( 'NONE', ( #239, #86, #361, #69 ) ) ;
#46 = CARTESIAN_POINT ( 'NONE',  ( 0.0000000000000000000, 0.0000000000000000000, 0.0000000000000000000 ) ) ;
#47 = VERTEX_POINT ( 'NONE', #62 ) ;
#48 = CARTESIAN_POINT ( 'NONE',  ( 0.0000000000000000000, 0.0000000000000000000, 1.500000000000000222 ) ) ;
#49 = VERTEX_POINT ( 'NONE', #36 ) ;
#50 = PLANE ( 'NONE',  #163 ) ;
#51 = VERTEX_POINT ( 'NONE', #246 ) ;
#52 = ADVANCED_FACE ( 'NONE', ( #93 ), #279, .T. ) ;
#53 = CARTESIAN_POINT ( 'NONE',  ( -0.06250000000000000000, 0.0000000000000000000, 0.0000000000000000000 ) ) ;
#54 = CIRCLE ( 'NONE', #235, 0.06250000000000000000 ) ;
#55 = CARTESIAN_POINT ( 'NONE',  ( 0.03100000000000001713, 0.0000000000000000000, 0.1899999999999999745 ) ) ;
#56 = CARTESIAN_POINT ( 'NONE',  ( 0.0000000000000000000, 0.0000000000000000000, 1.485000000000000764 ) ) ;
#57 = EDGE_CURVE ( 'NONE', #231, #169, #201, .T. ) ;
#58 = LINE ( 'NONE', #28, #247 ) ;
#59 = ADVANCED_FACE ( 'NONE', ( #190 ), #95, .T. ) ;
#60 =( NAMED_UNIT ( * ) SI_UNIT ( $, .STERADIAN. ) SOLID_ANGLE_UNIT ( ) );
#61 = DIRECTION ( 'NONE',  ( -1.000000000000000000, 0.0000000000000000000, 0.0000000000000000000 ) ) ;
#62 = CARTESIAN_POINT ( 'NONE',  ( 0.04750000000000064587, 6.735557395310482421E-18, 1.500000000000000222 ) ) ;
#63 = EDGE_CURVE ( 'NONE', #47, #306, #153, .T. ) ;
#64 = CARTESIAN_POINT ( 'NONE',  ( 0.0000000000000000000, 0.0000000000000000000, 0.1899999999999999745 ) ) ;
#65 = EDGE_CURVE ( 'NONE', #186, #49, #217, .T. ) ;
#66 = CARTESIAN_POINT ( 'NONE',  ( 0.06250000000000000000, 7.654042494670956004E-18, 1.500000000000000222 ) ) ;
#67 = SHAPE_DEFINITION_REPRESENTATION ( #200, #2 ) ;
#68 = ADVANCED_FACE ( 'NONE', ( #162 ), #277, .T. ) ;
#69 = ORIENTED_EDGE ( 'NONE', *, *, #346, .F. ) ;
#70 =( LENGTH_UNIT ( ) NAMED_UNIT ( * ) SI_UNIT ( $, .METRE. ) );
#71 = AXIS2_PLACEMENT_3D ( 'NONE', #9, #329, #128 ) ;
#72 = AXIS2_PLACEMENT_3D ( 'NONE', #136, #193, #83 ) ;
#73 = DIRECTION ( 'NONE',  ( -1.000000000000000000, 0.0000000000000000000, 0.0000000000000000000 ) ) ;
#74 = ORIENTED_EDGE ( 'NONE', *, *, #100, .T. ) ;
#75 = ORIENTED_EDGE ( 'NONE', *, *, #292, .T. ) ;
#76 = DIRECTION ( 'NONE',  ( -1.000000000000000000, 0.0000000000000000000, 0.0000000000000000000 ) ) ;
#77 = COLOUR_RGB ( '',0.7921568627450980005, 0.8196078431372548767, 0.9333333333333333481 ) ;
#78 = EDGE_LOOP ( 'NONE', ( #138, #353 ) ) ;
#79 = EDGE_LOOP ( 'NONE', ( #198, #248, #337, #287 ) ) ;
#80 = CLOSED_SHELL ( 'NONE', ( #132, #30, #59, #140, #52, #68, #273, #124, #368, #37, #336, #110, #6 ) ) ;
#81 = CARTESIAN_POINT ( 'NONE',  ( -0.06250000000000000000, 0.0000000000000000000, 1.485000000000000764 ) ) ;
#82 = AXIS2_PLACEMENT_3D ( 'NONE', #7, #303, #73 ) ;
#83 = DIRECTION ( 'NONE',  ( 1.000000000000000000, 0.0000000000000000000, 0.0000000000000000000 ) ) ;
#84 = CARTESIAN_POINT ( 'NONE',  ( 0.0000000000000000000, 0.0000000000000000000, 0.1899999999999999745 ) ) ;
#85 = CARTESIAN_POINT ( 'NONE',  ( -0.06250000000000000000, 0.0000000000000000000, 1.500000000000000222 ) ) ;
#86 = ORIENTED_EDGE ( 'NONE', *, *, #292, .F. ) ;
#87 = AXIS2_PLACEMENT_3D ( 'NONE', #13, #187, #214 ) ;
#88 = DIRECTION ( 'NONE',  ( 1.000000000000000000, 0.0000000000000000000, -0.0000000000000000000 ) ) ;
#89 = AXIS2_PLACEMENT_3D ( 'NONE', #270, #205, #88 ) ;
#90 = CARTESIAN_POINT ( 'NONE',  ( -0.03100000000000001713, 5.725223786013877433E-18, 0.1899999999999999745 ) ) ;
#91 = ORIENTED_EDGE ( 'NONE', *, *, #230, .T. ) ;
#92 = DIMENSIONAL_EXPONENTS ( 1.000000000000000000, 0.0000000000000000000, 0.0000000000000000000, 0.0000000000000000000, 0.0000000000000000000, 0.0000000000000000000, 0.0000000000000000000 ) ;
#93 = FACE_OUTER_BOUND ( 'NONE', #35, .T. ) ;
#94 = APPLICATION_PROTOCOL_DEFINITION ( 'draft international standard', 'automotive_design', 1998, #97 ) ;
#95 = CONICAL_SURFACE ( 'NONE', #147, 0.03100000000000001713, 0.7853981633974502774 ) ;
#96 = DIRECTION ( 'NONE',  ( 1.000000000000000000, 0.0000000000000000000, 0.0000000000000000000 ) ) ;
#97 = APPLICATION_CONTEXT ( 'automotive_design' ) ;
#98 = FACE_OUTER_BOUND ( 'NONE', #286, .T. ) ;
#99 = DIMENSIONAL_EXPONENTS ( 1.000000000000000000, 0.0000000000000000000, 0.0000000000000000000, 0.0000000000000000000, 0.0000000000000000000, 0.0000000000000000000, 0.0000000000000000000 ) ;
#100 = EDGE_CURVE ( 'NONE', #17, #194, #183, .T. ) ;
#101 = CARTESIAN_POINT ( 'NONE',  ( 0.0000000000000000000, 0.0000000000000000000, 1.485000000000000764 ) ) ;
#102 = SURFACE_STYLE_USAGE ( .BOTH. , #357 ) ;
#103 = AXIS2_PLACEMENT_3D ( 'NONE', #113, #18, #197 ) ;
#104 = AXIS2_PLACEMENT_3D ( 'NONE', #313, #291, #24 ) ;
#105 = ORIENTED_EDGE ( 'NONE', *, *, #100, .F. ) ;
#106 = CARTESIAN_POINT ( 'NONE',  ( 0.0000000000000000000, 0.0000000000000000000, 1.500000000000000222 ) ) ;
#107 = ORIENTED_EDGE ( 'NONE', *, *, #285, .T. ) ;
#108 = DIRECTION ( 'NONE',  ( -0.0000000000000000000, -0.0000000000000000000, -1.000000000000000000 ) ) ;
#109 = ORIENTED_EDGE ( 'NONE', *, *, #10, .F. ) ;
#110 = ADVANCED_FACE ( 'NONE', ( #311 ), #50, .F. ) ;
#111 = CIRCLE ( 'NONE', #22, 0.04750000000000064587 ) ;
#112 = ORIENTED_EDGE ( 'NONE', *, *, #137, .T. ) ;
#113 = CARTESIAN_POINT ( 'NONE',  ( 0.0000000000000000000, 0.0000000000000000000, 0.0000000000000000000 ) ) ;
#114 = EDGE_CURVE ( 'NONE', #47, #186, #173, .T. ) ;
#115 = DIRECTION ( 'NONE',  ( -0.7071067811865456854, 0.0000000000000000000, -0.7071067811865493491 ) ) ;
#116 = DIRECTION ( 'NONE',  ( -0.0000000000000000000, -0.0000000000000000000, -1.000000000000000000 ) ) ;
#117 = DIRECTION ( 'NONE',  ( -0.0000000000000000000, -0.0000000000000000000, -1.000000000000000000 ) ) ;
#118 = ORIENTED_EDGE ( 'NONE', *, *, #322, .F. ) ;
#119 = APPLICATION_CONTEXT ( 'automotive_design' ) ;
#120 = CARTESIAN_POINT ( 'NONE',  ( -0.03100000000000001713, 3.796405077356796551E-18, 0.1899999999999999745 ) ) ;
#121 =( CONVERSION_BASED_UNIT ( 'INCH', #349 ) LENGTH_UNIT ( ) NAMED_UNIT ( #99 ) );
#122 = VECTOR ( 'NONE', #234, 39.37007874015748143 ) ;
#123 = ORIENTED_EDGE ( 'NONE', *, *, #230, .F. ) ;
#124 = ADVANCED_FACE ( 'NONE', ( #139 ), #154, .T. ) ;
#125 = DIRECTION ( 'NONE',  ( 0.0000000000000000000, 0.0000000000000000000, 1.000000000000000000 ) ) ;
#126 = AXIS2_PLACEMENT_3D ( 'NONE', #101, #300, #4 ) ;
#127 = DIRECTION ( 'NONE',  ( -0.0000000000000000000, -0.0000000000000000000, -1.000000000000000000 ) ) ;
#128 = DIRECTION ( 'NONE',  ( -1.000000000000000000, 0.0000000000000000000, 0.0000000000000000000 ) ) ;
#129 = ORIENTED_EDGE ( 'NONE', *, *, #44, .F. ) ;
#130 = AXIS2_PLACEMENT_3D ( 'NONE', #301, #212, #34 ) ;
#131 =( GEOMETRIC_REPRESENTATION_CONTEXT ( 3 ) GLOBAL_UNCERTAINTY_ASSIGNED_CONTEXT ( ( #5 ) ) GLOBAL_UNIT_ASSIGNED_CONTEXT ( ( #218, #222, #216 ) ) REPRESENTATION_CONTEXT ( 'NONE', 'WORKASPACE' ) );
#132 = ADVANCED_FACE ( 'NONE', ( #170 ), #172, .T. ) ;
#133 = EDGE_LOOP ( 'NONE', ( #310, #232, #146, #365 ) ) ;
#134 = DIRECTION ( 'NONE',  ( 1.000000000000000000, 0.0000000000000000000, -0.0000000000000000000 ) ) ;
#135 = EDGE_LOOP ( 'NONE', ( #129, #20 ) ) ;
#136 = CARTESIAN_POINT ( 'NONE',  ( 0.0000000000000000000, 0.0000000000000000000, 0.2214999999999998359 ) ) ;
#137 = EDGE_CURVE ( 'NONE', #338, #231, #307, .T. ) ;
#138 = ORIENTED_EDGE ( 'NONE', *, *, #57, .T. ) ;
#139 = FACE_OUTER_BOUND ( 'NONE', #45, .T. ) ;
#140 = ADVANCED_FACE ( 'NONE', ( #369 ), #209, .T. ) ;
#141 = CARTESIAN_POINT ( 'NONE',  ( -0.03100000000000000672, 0.0000000000000000000, 0.0000000000000000000 ) ) ;
#142 = LINE ( 'NONE', #120, #367 ) ;
#143 = DIRECTION ( 'NONE',  ( -0.0000000000000000000, -0.0000000000000000000, -1.000000000000000000 ) ) ;
#144 = EDGE_CURVE ( 'NONE', #49, #51, #185, .T. ) ;
#145 = CARTESIAN_POINT ( 'NONE',  ( -0.03100000000000000325, 0.0000000000000000000, 0.04499999999999999833 ) ) ;
#146 = ORIENTED_EDGE ( 'NONE', *, *, #207, .T. ) ;
#147 = AXIS2_PLACEMENT_3D ( 'NONE', #299, #125, #42 ) ;
#148 = DIRECTION ( 'NONE',  ( 0.0000000000000000000, 0.0000000000000000000, 1.000000000000000000 ) ) ;
#149 = MECHANICAL_DESIGN_GEOMETRIC_PRESENTATION_REPRESENTATION (  '', ( #191 ), #333 ) ;
#150 = DIRECTION ( 'NONE',  ( 0.0000000000000000000, 0.0000000000000000000, 1.000000000000000000 ) ) ;
#151 = FACE_BOUND ( 'NONE', #78, .T. ) ;
#152 = PLANE ( 'NONE',  #89 ) ;
#153 = CIRCLE ( 'NONE', #223, 0.04750000000000064587 ) ;
#154 = CONICAL_SURFACE ( 'NONE', #252, 0.04750000000000064587, 0.7853981633974457255 ) ;
#155 = CIRCLE ( 'NONE', #203, 0.06250000000000000000 ) ;
#156 = EDGE_CURVE ( 'NONE', #306, #178, #371, .T. ) ;
#157 = CARTESIAN_POINT ( 'NONE',  ( 0.03100000000000000672, 3.796405077356795780E-18, 0.0000000000000000000 ) ) ;
#158 = CARTESIAN_POINT ( 'NONE',  ( 0.0000000000000000000, 0.0000000000000000000, 0.0000000000000000000 ) ) ;
#159 = UNCERTAINTY_MEASURE_WITH_UNIT (LENGTH_MEASURE( 1.000000000000000082E-05 ), #272, 'distance_accuracy_value', 'NONE');
#160 = ORIENTED_EDGE ( 'NONE', *, *, #144, .T. ) ;
#161 =( NAMED_UNIT ( * ) SI_UNIT ( $, .STERADIAN. ) SOLID_ANGLE_UNIT ( ) );
#162 = FACE_OUTER_BOUND ( 'NONE', #133, .T. ) ;
#163 = AXIS2_PLACEMENT_3D ( 'NONE', #46, #283, #134 ) ;
#164 = AXIS2_PLACEMENT_3D ( 'NONE', #180, #148, #176 ) ;
#165 = DIRECTION ( 'NONE',  ( -1.000000000000000000, 0.0000000000000000000, 0.0000000000000000000 ) ) ;
#166 = DIRECTION ( 'NONE',  ( 0.0000000000000000000, 0.0000000000000000000, 1.000000000000000000 ) ) ;
#167 = DIRECTION ( 'NONE',  ( 0.0000000000000000000, 0.0000000000000000000, -1.000000000000000000 ) ) ;
#168 = ORIENTED_EDGE ( 'NONE', *, *, #137, .F. ) ;
#169 = VERTEX_POINT ( 'NONE', #342 ) ;
#170 = FACE_OUTER_BOUND ( 'NONE', #227, .T. ) ;
#171 = EDGE_LOOP ( 'NONE', ( #123, #282, #40, #107 ) ) ;
#172 = CYLINDRICAL_SURFACE ( 'NONE', #8, 0.06250000000000000000 ) ;
#173 = LINE ( 'NONE', #21, #366 ) ;
#174 = ORIENTED_EDGE ( 'NONE', *, *, #57, .F. ) ;
#175 = CIRCLE ( 'NONE', #3, 0.03100000000000001713 ) ;
#176 = DIRECTION ( 'NONE',  ( 1.000000000000000000, 0.0000000000000000000, -0.0000000000000000000 ) ) ;
#177 = PLANE ( 'NONE',  #164 ) ;
#178 = VERTEX_POINT ( 'NONE', #81 ) ;
#179 = DIRECTION ( 'NONE',  ( 0.0000000000000000000, 0.0000000000000000000, -1.000000000000000000 ) ) ;
#180 = CARTESIAN_POINT ( 'NONE',  ( 0.0000000000000000000, 0.0000000000000000000, 1.500000000000000222 ) ) ;
#181 = ORIENTED_EDGE ( 'NONE', *, *, #373, .F. ) ;
#182 = CARTESIAN_POINT ( 'NONE',  ( 0.0000000000000000000, 0.0000000000000000000, 0.1899999999999999745 ) ) ;
#183 = CIRCLE ( 'NONE', #103, 0.06250000000000000000 ) ;
#184 = SURFACE_STYLE_USAGE ( .BOTH. , #294 ) ;
#185 = CIRCLE ( 'NONE', #72, 0.06250000000000000000 ) ;
#186 = VERTEX_POINT ( 'NONE', #261 ) ;
#187 = DIRECTION ( 'NONE',  ( -0.0000000000000000000, -0.0000000000000000000, -1.000000000000000000 ) ) ;
#188 = DIRECTION ( 'NONE',  ( -0.0000000000000000000, -0.0000000000000000000, -1.000000000000000000 ) ) ;
#189 = LENGTH_MEASURE_WITH_UNIT ( LENGTH_MEASURE( 0.02539999999999999897 ), #70 );
#190 = FACE_OUTER_BOUND ( 'NONE', #196, .T. ) ;
#191 = STYLED_ITEM ( 'NONE', ( #378 ), #335 ) ;
#192 = ORIENTED_EDGE ( 'NONE', *, *, #23, .T. ) ;
#193 = DIRECTION ( 'NONE',  ( -0.0000000000000000000, -0.0000000000000000000, -1.000000000000000000 ) ) ;
#194 = VERTEX_POINT ( 'NONE', #53 ) ;
#195 = ORIENTED_EDGE ( 'NONE', *, *, #288, .F. ) ;
#196 = EDGE_LOOP ( 'NONE', ( #363, #225, #27, #304 ) ) ;
#197 = DIRECTION ( 'NONE',  ( 1.000000000000000000, 0.0000000000000000000, 0.0000000000000000000 ) ) ;
#198 = ORIENTED_EDGE ( 'NONE', *, *, #63, .F. ) ;
#199 = DIRECTION ( 'NONE',  ( -0.0000000000000000000, -0.0000000000000000000, -1.000000000000000000 ) ) ;
#200 = PRODUCT_DEFINITION_SHAPE ( 'NONE', 'NONE',  #280 ) ;
#201 = CIRCLE ( 'NONE', #87, 0.03100000000000000325 ) ;
#202 = PRODUCT_DEFINITION_FORMATION_WITH_SPECIFIED_SOURCE ( 'ANY', '', #220, .NOT_KNOWN. ) ;
#203 = AXIS2_PLACEMENT_3D ( 'NONE', #376, #117, #237 ) ;
#204 = CARTESIAN_POINT ( 'NONE',  ( 0.06250000000000000000, 7.654042494670956004E-18, 0.04499999999999999833 ) ) ;
#205 = DIRECTION ( 'NONE',  ( 0.0000000000000000000, 0.0000000000000000000, 1.000000000000000000 ) ) ;
#206 = FACE_OUTER_BOUND ( 'NONE', #256, .T. ) ;
#207 = EDGE_CURVE ( 'NONE', #178, #51, #318, .T. ) ;
#208 = CARTESIAN_POINT ( 'NONE',  ( 0.0000000000000000000, 0.0000000000000000000, 1.500000000000000222 ) ) ;
#209 = CONICAL_SURFACE ( 'NONE', #271, 0.04750000000000064587, 0.7853981633974457255 ) ;
#210 = CARTESIAN_POINT ( 'NONE',  ( -0.06250000000000000000, 0.0000000000000000000, 0.04499999999999999833 ) ) ;
#211 = DIRECTION ( 'NONE',  ( -1.000000000000000000, 0.0000000000000000000, 0.0000000000000000000 ) ) ;
#212 = DIRECTION ( 'NONE',  ( -0.0000000000000000000, -0.0000000000000000000, -1.000000000000000000 ) ) ;
#213 = UNCERTAINTY_MEASURE_WITH_UNIT (LENGTH_MEASURE( 1.000000000000000082E-05 ), #121, 'distance_accuracy_value', 'NONE');
#214 = DIRECTION ( 'NONE',  ( -1.000000000000000000, 0.0000000000000000000, 0.0000000000000000000 ) ) ;
#215 = VECTOR ( 'NONE', #115, 39.37007874015748143 ) ;
#216 =( NAMED_UNIT ( * ) SI_UNIT ( $, .STERADIAN. ) SOLID_ANGLE_UNIT ( ) );
#217 = LINE ( 'NONE', #66, #296 ) ;
#218 =( CONVERSION_BASED_UNIT ( 'INCH', #189 ) LENGTH_UNIT ( ) NAMED_UNIT ( #92 ) );
#219 = CARTESIAN_POINT ( 'NONE',  ( 0.06250000000000000000, 7.654042494670956004E-18, 0.0000000000000000000 ) ) ;
#220 = PRODUCT ( 'Micro_KC-125-190-045X', 'Micro_KC-125-190-045X', '', ( #295 ) ) ;
#221 = VERTEX_POINT ( 'NONE', #204 ) ;
#222 =( NAMED_UNIT ( * ) PLANE_ANGLE_UNIT ( ) SI_UNIT ( $, .RADIAN. ) );
#223 = AXIS2_PLACEMENT_3D ( 'NONE', #355, #166, #96 ) ;
#224 = AXIS2_PLACEMENT_3D ( 'NONE', #25, #143, #317 ) ;
#225 = ORIENTED_EDGE ( 'NONE', *, *, #288, .T. ) ;
#226 = DIRECTION ( 'NONE',  ( -1.000000000000000000, 0.0000000000000000000, 0.0000000000000000000 ) ) ;
#227 = EDGE_LOOP ( 'NONE', ( #312, #91, #74, #118 ) ) ;
#228 = ORIENTED_EDGE ( 'NONE', *, *, #32, .T. ) ;
#229 = DIRECTION ( 'NONE',  ( 0.7071067811865456854, 8.659560562354911904E-17, -0.7071067811865493491 ) ) ;
#230 = EDGE_CURVE ( 'NONE', #221, #17, #374, .T. ) ;
#231 = VERTEX_POINT ( 'NONE', #145 ) ;
#232 = ORIENTED_EDGE ( 'NONE', *, *, #346, .T. ) ;
#233 = CARTESIAN_POINT ( 'NONE',  ( -0.04750000000000064587, 0.0000000000000000000, 1.500000000000000222 ) ) ;
#234 = DIRECTION ( 'NONE',  ( -0.0000000000000000000, -0.0000000000000000000, -1.000000000000000000 ) ) ;
#235 = AXIS2_PLACEMENT_3D ( 'NONE', #56, #179, #238 ) ;
#236 = DIRECTION ( 'NONE',  ( -0.0000000000000000000, -0.0000000000000000000, -1.000000000000000000 ) ) ;
#237 = DIRECTION ( 'NONE',  ( 1.000000000000000000, 0.0000000000000000000, 0.0000000000000000000 ) ) ;
#238 = DIRECTION ( 'NONE',  ( 1.000000000000000000, 0.0000000000000000000, 0.0000000000000000000 ) ) ;
#239 = ORIENTED_EDGE ( 'NONE', *, *, #114, .F. ) ;
#240 = LINE ( 'NONE', #85, #122 ) ;
#241 = CIRCLE ( 'NONE', #104, 0.06250000000000000000 ) ;
#242 = EDGE_LOOP ( 'NONE', ( #195, #109, #251, #160 ) ) ;
#243 = FILL_AREA_STYLE ('',( #359 ) ) ;
#244 = CARTESIAN_POINT ( 'NONE',  ( 0.0000000000000000000, 0.0000000000000000000, 0.0000000000000000000 ) ) ;
#245 = PRODUCT_DEFINITION_CONTEXT ( 'detailed design', #119, 'design' ) ;
#246 = CARTESIAN_POINT ( 'NONE',  ( -0.06250000000000000000, 0.0000000000000000000, 0.2214999999999998359 ) ) ;
#247 = VECTOR ( 'NONE', #343, 39.37007874015748143 ) ;
#248 = ORIENTED_EDGE ( 'NONE', *, *, #114, .T. ) ;
#249 = SURFACE_STYLE_FILL_AREA ( #243 ) ;
#250 = LINE ( 'NONE', #157, #331 ) ;
#251 = ORIENTED_EDGE ( 'NONE', *, *, #298, .T. ) ;
#252 = AXIS2_PLACEMENT_3D ( 'NONE', #289, #167, #226 ) ;
#253 = MECHANICAL_DESIGN_GEOMETRIC_PRESENTATION_REPRESENTATION (  '', ( #284 ), #131 ) ;
#254 = VERTEX_POINT ( 'NONE', #55 ) ;
#255 = ORIENTED_EDGE ( 'NONE', *, *, #305, .T. ) ;
#256 = EDGE_LOOP ( 'NONE', ( #75, #334 ) ) ;
#257 = DIRECTION ( 'NONE',  ( -1.000000000000000000, 0.0000000000000000000, 0.0000000000000000000 ) ) ;
#258 = AXIS2_PLACEMENT_3D ( 'NONE', #244, #350, #275 ) ;
#259 =( GEOMETRIC_REPRESENTATION_CONTEXT ( 3 ) GLOBAL_UNCERTAINTY_ASSIGNED_CONTEXT ( ( #159 ) ) GLOBAL_UNIT_ASSIGNED_CONTEXT ( ( #272, #352, #161 ) ) REPRESENTATION_CONTEXT ( 'NONE', 'WORKASPACE' ) );
#260 = DIRECTION ( 'NONE',  ( -0.0000000000000000000, -0.0000000000000000000, -1.000000000000000000 ) ) ;
#261 = CARTESIAN_POINT ( 'NONE',  ( 0.06250000000000000000, 7.654042494670956004E-18, 1.485000000000000764 ) ) ;
#262 = DIRECTION ( 'NONE',  ( 1.000000000000000000, 0.0000000000000000000, 0.0000000000000000000 ) ) ;
#263 = ORIENTED_EDGE ( 'NONE', *, *, #285, .F. ) ;
#264 = DIRECTION ( 'NONE',  ( 1.000000000000000000, 0.0000000000000000000, 0.0000000000000000000 ) ) ;
#265 = AXIS2_PLACEMENT_3D ( 'NONE', #332, #330, #165 ) ;
#266 = CIRCLE ( 'NONE', #321, 0.03100000000000000325 ) ;
#267 = SURFACE_STYLE_FILL_AREA ( #347 ) ;
#268 = CIRCLE ( 'NONE', #360, 0.03100000000000001713 ) ;
#269 = DIRECTION ( 'NONE',  ( -0.0000000000000000000, -0.0000000000000000000, -1.000000000000000000 ) ) ;
#270 = CARTESIAN_POINT ( 'NONE',  ( 0.06250000000000000000, 0.0000000000000000000, 0.04499999999999999833 ) ) ;
#271 = AXIS2_PLACEMENT_3D ( 'NONE', #48, #14, #340 ) ;
#272 =( CONVERSION_BASED_UNIT ( 'INCH', #278 ) LENGTH_UNIT ( ) NAMED_UNIT ( #328 ) );
#273 = ADVANCED_FACE ( 'NONE', ( #206 ), #177, .T. ) ;
#274 = DIRECTION ( 'NONE',  ( -0.0000000000000000000, -0.0000000000000000000, -1.000000000000000000 ) ) ;
#275 = DIRECTION ( 'NONE',  ( -1.000000000000000000, 0.0000000000000000000, 0.0000000000000000000 ) ) ;
#276 = VECTOR ( 'NONE', #260, 39.37007874015748143 ) ;
#277 = CYLINDRICAL_SURFACE ( 'NONE', #314, 0.06250000000000000000 ) ;
#278 = LENGTH_MEASURE_WITH_UNIT ( LENGTH_MEASURE( 0.02539999999999999897 ), #38 );
#279 = CYLINDRICAL_SURFACE ( 'NONE', #82, 0.06250000000000000000 ) ;
#280 = PRODUCT_DEFINITION ( 'UNKNOWN', '', #202, #245 ) ;
#281 = FACE_OUTER_BOUND ( 'NONE', #171, .T. ) ;
#282 = ORIENTED_EDGE ( 'NONE', *, *, #345, .T. ) ;
#283 = DIRECTION ( 'NONE',  ( 0.0000000000000000000, 0.0000000000000000000, 1.000000000000000000 ) ) ;
#284 = STYLED_ITEM ( 'NONE', ( #41 ), #2 ) ;
#285 = EDGE_CURVE ( 'NONE', #194, #17, #241, .T. ) ;
#286 = EDGE_LOOP ( 'NONE', ( #364, #309, #112, #19 ) ) ;
#287 = ORIENTED_EDGE ( 'NONE', *, *, #156, .F. ) ;
#288 = EDGE_CURVE ( 'NONE', #338, #51, #142, .T. ) ;
#289 = CARTESIAN_POINT ( 'NONE',  ( 0.0000000000000000000, 0.0000000000000000000, 1.500000000000000222 ) ) ;
#290 = VECTOR ( 'NONE', #236, 39.37007874015748143 ) ;
#291 = DIRECTION ( 'NONE',  ( 0.0000000000000000000, 0.0000000000000000000, 1.000000000000000000 ) ) ;
#292 = EDGE_CURVE ( 'NONE', #306, #47, #111, .T. ) ;
#293 = FACE_OUTER_BOUND ( 'NONE', #242, .T. ) ;
#294 = SURFACE_SIDE_STYLE ('',( #267 ) ) ;
#295 = PRODUCT_CONTEXT ( 'NONE', #97, 'mechanical' ) ;
#296 = VECTOR ( 'NONE', #188, 39.37007874015748143 ) ;
#297 = ORIENTED_EDGE ( 'NONE', *, *, #65, .T. ) ;
#298 = EDGE_CURVE ( 'NONE', #254, #49, #58, .T. ) ;
#299 = CARTESIAN_POINT ( 'NONE',  ( 0.0000000000000000000, 0.0000000000000000000, 0.1899999999999999745 ) ) ;
#300 = DIRECTION ( 'NONE',  ( 0.0000000000000000000, 0.0000000000000000000, -1.000000000000000000 ) ) ;
#301 = CARTESIAN_POINT ( 'NONE',  ( 0.0000000000000000000, 0.0000000000000000000, 1.500000000000000222 ) ) ;
#302 = PRESENTATION_LAYER_ASSIGNMENT (  '', '', ( #284 ) ) ;
#303 = DIRECTION ( 'NONE',  ( -0.0000000000000000000, -0.0000000000000000000, -1.000000000000000000 ) ) ;
#304 = ORIENTED_EDGE ( 'NONE', *, *, #298, .F. ) ;
#305 = EDGE_CURVE ( 'NONE', #338, #254, #175, .T. ) ;
#306 = VERTEX_POINT ( 'NONE', #324 ) ;
#307 = LINE ( 'NONE', #141, #276 ) ;
#308 = AXIS2_PLACEMENT_3D ( 'NONE', #158, #354, #12 ) ;
#309 = ORIENTED_EDGE ( 'NONE', *, *, #10, .T. ) ;
#310 = ORIENTED_EDGE ( 'NONE', *, *, #65, .F. ) ;
#311 = FACE_OUTER_BOUND ( 'NONE', #377, .T. ) ;
#312 = ORIENTED_EDGE ( 'NONE', *, *, #44, .T. ) ;
#313 = CARTESIAN_POINT ( 'NONE',  ( 0.0000000000000000000, 0.0000000000000000000, 0.0000000000000000000 ) ) ;
#314 = AXIS2_PLACEMENT_3D ( 'NONE', #106, #199, #76 ) ;
#315 = CONICAL_SURFACE ( 'NONE', #362, 0.03100000000000001713, 0.7853981633974502774 ) ;
#316 = DIRECTION ( 'NONE',  ( -0.0000000000000000000, -0.0000000000000000000, -1.000000000000000000 ) ) ;
#317 = DIRECTION ( 'NONE',  ( -1.000000000000000000, 0.0000000000000000000, 0.0000000000000000000 ) ) ;
#318 = LINE ( 'NONE', #26, #290 ) ;
#319 = FACE_OUTER_BOUND ( 'NONE', #135, .T. ) ;
#320 = CIRCLE ( 'NONE', #265, 0.06250000000000000000 ) ;
#321 = AXIS2_PLACEMENT_3D ( 'NONE', #323, #269, #211 ) ;
#322 = EDGE_CURVE ( 'NONE', #341, #194, #240, .T. ) ;
#323 = CARTESIAN_POINT ( 'NONE',  ( 0.0000000000000000000, 0.0000000000000000000, 0.04499999999999999833 ) ) ;
#324 = CARTESIAN_POINT ( 'NONE',  ( -0.04750000000000064587, 0.0000000000000000000, 1.500000000000000222 ) ) ;
#325 = CYLINDRICAL_SURFACE ( 'NONE', #258, 0.03100000000000000672 ) ;
#326 = CYLINDRICAL_SURFACE ( 'NONE', #130, 0.06250000000000000000 ) ;
#327 = APPLICATION_PROTOCOL_DEFINITION ( 'draft international standard', 'automotive_design', 1998, #119 ) ;
#328 = DIMENSIONAL_EXPONENTS ( 1.000000000000000000, 0.0000000000000000000, 0.0000000000000000000, 0.0000000000000000000, 0.0000000000000000000, 0.0000000000000000000, 0.0000000000000000000 ) ;
#329 = DIRECTION ( 'NONE',  ( -0.0000000000000000000, -0.0000000000000000000, -1.000000000000000000 ) ) ;
#330 = DIRECTION ( 'NONE',  ( -0.0000000000000000000, -0.0000000000000000000, -1.000000000000000000 ) ) ;
#331 = VECTOR ( 'NONE', #274, 39.37007874015748143 ) ;
#332 = CARTESIAN_POINT ( 'NONE',  ( 0.0000000000000000000, 0.0000000000000000000, 0.04499999999999999833 ) ) ;
#333 =( GEOMETRIC_REPRESENTATION_CONTEXT ( 3 ) GLOBAL_UNCERTAINTY_ASSIGNED_CONTEXT ( ( #213 ) ) GLOBAL_UNIT_ASSIGNED_CONTEXT ( ( #121, #29, #60 ) ) REPRESENTATION_CONTEXT ( 'NONE', 'WORKASPACE' ) );
#334 = ORIENTED_EDGE ( 'NONE', *, *, #63, .T. ) ;
#335 = MANIFOLD_SOLID_BREP ( 'Cut-Revolve1', #80 ) ;
#336 = ADVANCED_FACE ( 'NONE', ( #151, #319 ), #152, .T. ) ;
#337 = ORIENTED_EDGE ( 'NONE', *, *, #23, .F. ) ;
#338 = VERTEX_POINT ( 'NONE', #90 ) ;
#339 = EDGE_CURVE ( 'NONE', #169, #231, #266, .T. ) ;
#340 = DIRECTION ( 'NONE',  ( -1.000000000000000000, 0.0000000000000000000, 0.0000000000000000000 ) ) ;
#341 = VERTEX_POINT ( 'NONE', #210 ) ;
#342 = CARTESIAN_POINT ( 'NONE',  ( 0.03100000000000000325, 3.796405077356795010E-18, 0.04499999999999999833 ) ) ;
#343 = DIRECTION ( 'NONE',  ( 0.7071067811865489050, 0.0000000000000000000, 0.7071067811865461294 ) ) ;
#344 = CARTESIAN_POINT ( 'NONE',  ( 0.06250000000000000000, 7.654042494670956004E-18, 1.500000000000000222 ) ) ;
#345 = EDGE_CURVE ( 'NONE', #221, #341, #39, .T. ) ;
#346 = EDGE_CURVE ( 'NONE', #186, #178, #54, .T. ) ;
#347 = FILL_AREA_STYLE ('',( #1 ) ) ;
#348 = PRESENTATION_LAYER_ASSIGNMENT (  '', '', ( #191 ) ) ;
#349 = LENGTH_MEASURE_WITH_UNIT ( LENGTH_MEASURE( 0.02539999999999999897 ), #31 );
#350 = DIRECTION ( 'NONE',  ( -0.0000000000000000000, -0.0000000000000000000, -1.000000000000000000 ) ) ;
#351 = PRODUCT_RELATED_PRODUCT_CATEGORY ( 'part', '', ( #220 ) ) ;
#352 =( NAMED_UNIT ( * ) PLANE_ANGLE_UNIT ( ) SI_UNIT ( $, .RADIAN. ) );
#353 = ORIENTED_EDGE ( 'NONE', *, *, #339, .T. ) ;
#354 = DIRECTION ( 'NONE',  ( 0.0000000000000000000, 0.0000000000000000000, 1.000000000000000000 ) ) ;
#355 = CARTESIAN_POINT ( 'NONE',  ( 0.0000000000000000000, 0.0000000000000000000, 1.500000000000000222 ) ) ;
#356 = CYLINDRICAL_SURFACE ( 'NONE', #71, 0.03100000000000000672 ) ;
#357 = SURFACE_SIDE_STYLE ('',( #249 ) ) ;
#358 = DIRECTION ( 'NONE',  ( -1.000000000000000000, 0.0000000000000000000, 0.0000000000000000000 ) ) ;
#359 = FILL_AREA_STYLE_COLOUR ( '', #77 ) ;
#360 = AXIS2_PLACEMENT_3D ( 'NONE', #64, #127, #358 ) ;
#361 = ORIENTED_EDGE ( 'NONE', *, *, #156, .T. ) ;
#362 = AXIS2_PLACEMENT_3D ( 'NONE', #182, #150, #264 ) ;
#363 = ORIENTED_EDGE ( 'NONE', *, *, #305, .F. ) ;
#364 = ORIENTED_EDGE ( 'NONE', *, *, #32, .F. ) ;
#365 = ORIENTED_EDGE ( 'NONE', *, *, #144, .F. ) ;
#366 = VECTOR ( 'NONE', #229, 39.37007874015748143 ) ;
#367 = VECTOR ( 'NONE', #372, 39.37007874015748143 ) ;
#368 = ADVANCED_FACE ( 'NONE', ( #293 ), #315, .T. ) ;
#369 = FACE_OUTER_BOUND ( 'NONE', #79, .T. ) ;
#370 = EDGE_LOOP ( 'NONE', ( #255, #228, #174, #168 ) ) ;
#371 = LINE ( 'NONE', #233, #215 ) ;
#372 = DIRECTION ( 'NONE',  ( -0.7071067811865489050, 8.659560562354950115E-17, 0.7071067811865461294 ) ) ;
#373 = EDGE_CURVE ( 'NONE', #51, #49, #155, .T. ) ;
#374 = LINE ( 'NONE', #344, #33 ) ;
#375 = ORIENTED_EDGE ( 'NONE', *, *, #207, .F. ) ;
#376 = CARTESIAN_POINT ( 'NONE',  ( 0.0000000000000000000, 0.0000000000000000000, 0.2214999999999998359 ) ) ;
#377 = EDGE_LOOP ( 'NONE', ( #263, #105 ) ) ;
#378 = PRESENTATION_STYLE_ASSIGNMENT (( #184 ) ) ;
#379 = DIRECTION ( 'NONE',  ( 0.0000000000000000000, 0.0000000000000000000, 1.000000000000000000 ) ) ;
ENDSEC;
END-ISO-10303-21;
