ISO-10303-21;
HEADER;
FILE_DESCRIPTION (( 'STEP AP214' ),
    '1' );
FILE_NAME ('Micro_BMS-050-2.STEP',
    '2021-09-03T15:21:20',
    ( '' ),
    ( '' ),
    'SwSTEP 2.0',
    'SolidWorks 2020',
    '' );
FILE_SCHEMA (( 'AUTOMOTIVE_DESIGN' ));
ENDSEC;

DATA;
#1 =( GEOMETRIC_REPRESENTATION_CONTEXT ( 3 ) GLOBAL_UNCERTAINTY_ASSIGNED_CONTEXT ( ( #68 ) ) GLOBAL_UNIT_ASSIGNED_CONTEXT ( ( #203, #261, #77 ) ) REPRESENTATION_CONTEXT ( 'NONE', 'WORKASPACE' ) );
#2 = CARTESIAN_POINT ( 'NONE',  ( 0.02497500000000001108, 0.0000000000000000000, 0.07499999999999999722 ) ) ;
#3 = APPLICATION_CONTEXT ( 'automotive_design' ) ;
#4 = FILL_AREA_STYLE_COLOUR ( '', #187 ) ;
#5 = ORIENTED_EDGE ( 'NONE', *, *, #248, .F. ) ;
#6 = ADVANCED_FACE ( 'NONE', ( #86 ), #44, .T. ) ;
#7 = DIMENSIONAL_EXPONENTS ( 1.000000000000000000, 0.0000000000000000000, 0.0000000000000000000, 0.0000000000000000000, 0.0000000000000000000, 0.0000000000000000000, 0.0000000000000000000 ) ;
#8 = ORIENTED_EDGE ( 'NONE', *, *, #87, .F. ) ;
#9 = FACE_OUTER_BOUND ( 'NONE', #10, .T. ) ;
#10 = EDGE_LOOP ( 'NONE', ( #107, #309, #40, #11 ) ) ;
#11 = ORIENTED_EDGE ( 'NONE', *, *, #324, .F. ) ;
#12 = CARTESIAN_POINT ( 'NONE',  ( 0.06250000000000002776, 7.654042494670959086E-18, 0.2878148502811532783 ) ) ;
#13 = ORIENTED_EDGE ( 'NONE', *, *, #94, .T. ) ;
#14 = CONICAL_SURFACE ( 'NONE', #259, 0.04750000000000064587, 0.7853981633974457255 ) ;
#15 = FILL_AREA_STYLE ('',( #319 ) ) ;
#16 = CARTESIAN_POINT ( 'NONE',  ( 3.058555380870515335E-18, 0.0000000000000000000, 0.02497500000000000067 ) ) ;
#17 = DIRECTION ( 'NONE',  ( -1.224646799147353454E-16, -0.0000000000000000000, -1.000000000000000000 ) ) ;
#18 = AXIS2_PLACEMENT_3D ( 'NONE', #73, #274, #273 ) ;
#19 = AXIS2_PLACEMENT_3D ( 'NONE', #66, #263, #162 ) ;
#20 = ADVANCED_FACE ( 'NONE', ( #320 ), #239, .T. ) ;
#21 = SPHERICAL_SURFACE ( 'NONE', #213, 0.02497500000000000067 ) ;
#22 = DIRECTION ( 'NONE',  ( 0.0000000000000000000, 1.000000000000000000, 0.0000000000000000000 ) ) ;
#23 = AXIS2_PLACEMENT_3D ( 'NONE', #134, #209, #88 ) ;
#24 = CARTESIAN_POINT ( 'NONE',  ( 4.587833071305773195E-18, 0.0000000000000000000, 0.0000000000000000000 ) ) ;
#25 = EDGE_CURVE ( 'NONE', #257, #156, #303, .T. ) ;
#26 = DIRECTION ( 'NONE',  ( 0.0000000000000000000, 0.0000000000000000000, -1.000000000000000000 ) ) ;
#27 = DIRECTION ( 'NONE',  ( -1.000000000000000000, 0.0000000000000000000, 0.0000000000000000000 ) ) ;
#28 = CIRCLE ( 'NONE', #145, 0.06250000000000000000 ) ;
#29 = CARTESIAN_POINT ( 'NONE',  ( -0.04750000000000064587, 0.0000000000000000000, 1.500000000000000222 ) ) ;
#30 = EDGE_CURVE ( 'NONE', #177, #226, #264, .T. ) ;
#31 = ORIENTED_EDGE ( 'NONE', *, *, #128, .F. ) ;
#32 = LINE ( 'NONE', #29, #295 ) ;
#33 = ORIENTED_EDGE ( 'NONE', *, *, #289, .F. ) ;
#34 = DIRECTION ( 'NONE',  ( -1.000000000000000000, 0.0000000000000000000, 0.0000000000000000000 ) ) ;
#35 = VERTEX_POINT ( 'NONE', #291 ) ;
#36 =( NAMED_UNIT ( * ) PLANE_ANGLE_UNIT ( ) SI_UNIT ( $, .RADIAN. ) );
#37 = MECHANICAL_DESIGN_GEOMETRIC_PRESENTATION_REPRESENTATION (  '', ( #246 ), #56 ) ;
#38 = ORIENTED_EDGE ( 'NONE', *, *, #30, .T. ) ;
#39 = PRODUCT_DEFINITION_SHAPE ( 'NONE', 'NONE',  #120 ) ;
#40 = ORIENTED_EDGE ( 'NONE', *, *, #171, .F. ) ;
#41 = DIRECTION ( 'NONE',  ( 1.000000000000000000, 0.0000000000000000000, 0.0000000000000000000 ) ) ;
#42 = AXIS2_PLACEMENT_3D ( 'NONE', #48, #143, #244 ) ;
#43 = AXIS2_PLACEMENT_3D ( 'NONE', #136, #167, #91 ) ;
#44 = SPHERICAL_SURFACE ( 'NONE', #182, 0.02497500000000000067 ) ;
#45 = DIRECTION ( 'NONE',  ( 0.0000000000000000000, -1.000000000000000000, 0.0000000000000000000 ) ) ;
#46 = CIRCLE ( 'NONE', #23, 0.02497500000000000067 ) ;
#47 = DIRECTION ( 'NONE',  ( -1.000000000000000000, 1.224646799147353207E-16, 0.0000000000000000000 ) ) ;
#48 = CARTESIAN_POINT ( 'NONE',  ( 0.0000000000000000000, 0.0000000000000000000, 1.500000000000000222 ) ) ;
#49 = LINE ( 'NONE', #144, #108 ) ;
#50 = EDGE_CURVE ( 'NONE', #226, #156, #46, .T. ) ;
#51 = CIRCLE ( 'NONE', #165, 0.06250000000000000000 ) ;
#52 = FACE_OUTER_BOUND ( 'NONE', #62, .T. ) ;
#53 = CARTESIAN_POINT ( 'NONE',  ( 0.02497500000000001108, 0.0000000000000000000, 0.07499999999999999722 ) ) ;
#54 = CIRCLE ( 'NONE', #135, 0.02497500000000000067 ) ;
#55 = ADVANCED_FACE ( 'NONE', ( #191 ), #97, .T. ) ;
#56 =( GEOMETRIC_REPRESENTATION_CONTEXT ( 3 ) GLOBAL_UNCERTAINTY_ASSIGNED_CONTEXT ( ( #215 ) ) GLOBAL_UNIT_ASSIGNED_CONTEXT ( ( #155, #36, #311 ) ) REPRESENTATION_CONTEXT ( 'NONE', 'WORKASPACE' ) );
#57 = DIRECTION ( 'NONE',  ( 1.224646799147353454E-16, 0.0000000000000000000, 1.000000000000000000 ) ) ;
#58 = ORIENTED_EDGE ( 'NONE', *, *, #30, .F. ) ;
#59 = CARTESIAN_POINT ( 'NONE',  ( 9.184850993605148746E-18, 0.0000000000000000000, 0.07499999999999999722 ) ) ;
#60 = EDGE_LOOP ( 'NONE', ( #153, #202, #151, #204 ) ) ;
#61 = LENGTH_MEASURE_WITH_UNIT ( LENGTH_MEASURE( 0.02539999999999999897 ), #178 );
#62 = EDGE_LOOP ( 'NONE', ( #67, #206, #148, #31 ) ) ;
#63 = EDGE_CURVE ( 'NONE', #175, #281, #240, .T. ) ;
#64 = ORIENTED_EDGE ( 'NONE', *, *, #188, .F. ) ;
#65 = CARTESIAN_POINT ( 'NONE',  ( 3.524715351438891718E-17, 0.0000000000000000000, 0.2878148502811532783 ) ) ;
#66 = CARTESIAN_POINT ( 'NONE',  ( 0.0000000000000000000, 0.0000000000000000000, 0.0000000000000000000 ) ) ;
#67 = ORIENTED_EDGE ( 'NONE', *, *, #85, .F. ) ;
#68 = UNCERTAINTY_MEASURE_WITH_UNIT (LENGTH_MEASURE( 1.000000000000000082E-05 ), #203, 'distance_accuracy_value', 'NONE');
#69 = CARTESIAN_POINT ( 'NONE',  ( 0.06250000000000000000, 7.654042494670956004E-18, 1.500000000000000222 ) ) ;
#70 = DIRECTION ( 'NONE',  ( 1.000000000000000000, 0.0000000000000000000, 0.0000000000000000000 ) ) ;
#71 = CARTESIAN_POINT ( 'NONE',  ( 0.02497500000000000414, 3.058555380870514950E-18, 0.02497499999999999720 ) ) ;
#72 = VECTOR ( 'NONE', #218, 39.37007874015748143 ) ;
#73 = CARTESIAN_POINT ( 'NONE',  ( 0.0000000000000000000, 0.0000000000000000000, 1.500000000000000222 ) ) ;
#74 = DIRECTION ( 'NONE',  ( 0.0000000000000000000, 0.0000000000000000000, -1.000000000000000000 ) ) ;
#75 = APPLICATION_CONTEXT ( 'automotive_design' ) ;
#76 = EDGE_LOOP ( 'NONE', ( #286, #13, #38, #268 ) ) ;
#77 =( NAMED_UNIT ( * ) SI_UNIT ( $, .STERADIAN. ) SOLID_ANGLE_UNIT ( ) );
#78 = ORIENTED_EDGE ( 'NONE', *, *, #306, .F. ) ;
#79 = ORIENTED_EDGE ( 'NONE', *, *, #87, .T. ) ;
#80 = CARTESIAN_POINT ( 'NONE',  ( 3.058555380870515335E-18, 0.0000000000000000000, 0.02497500000000000067 ) ) ;
#81 = VERTEX_POINT ( 'NONE', #313 ) ;
#82 = VECTOR ( 'NONE', #265, 39.37007874015748143 ) ;
#83 = APPLICATION_PROTOCOL_DEFINITION ( 'draft international standard', 'automotive_design', 1998, #3 ) ;
#84 = ORIENTED_EDGE ( 'NONE', *, *, #235, .T. ) ;
#85 = EDGE_CURVE ( 'NONE', #283, #175, #185, .T. ) ;
#86 = FACE_OUTER_BOUND ( 'NONE', #181, .T. ) ;
#87 = EDGE_CURVE ( 'NONE', #81, #281, #170, .T. ) ;
#88 = DIRECTION ( 'NONE',  ( -1.000000000000000000, 0.0000000000000000000, 1.709114110150314860E-16 ) ) ;
#89 = SURFACE_STYLE_USAGE ( .BOTH. , #184 ) ;
#90 = CARTESIAN_POINT ( 'NONE',  ( -0.02497500000000000067, 0.0000000000000000000, 3.058555380870515335E-18 ) ) ;
#91 = DIRECTION ( 'NONE',  ( 1.000000000000000000, 0.0000000000000000000, 0.0000000000000000000 ) ) ;
#92 = VECTOR ( 'NONE', #138, 39.37007874015748143 ) ;
#93 = DIRECTION ( 'NONE',  ( 1.000000000000000000, 0.0000000000000000000, 0.0000000000000000000 ) ) ;
#94 = EDGE_CURVE ( 'NONE', #131, #177, #300, .T. ) ;
#95 = FACE_OUTER_BOUND ( 'NONE', #183, .T. ) ;
#96 = CARTESIAN_POINT ( 'NONE',  ( -0.04750000000000064587, 0.0000000000000000000, 1.500000000000000222 ) ) ;
#97 = CONICAL_SURFACE ( 'NONE', #245, 0.02497500000000000067, 0.1745329251994339192 ) ;
#98 = DIRECTION ( 'NONE',  ( -1.000000000000000000, 0.0000000000000000000, 0.0000000000000000000 ) ) ;
#99 = ORIENTED_EDGE ( 'NONE', *, *, #102, .T. ) ;
#100 = SURFACE_STYLE_FILL_AREA ( #225 ) ;
#101 = ORIENTED_EDGE ( 'NONE', *, *, #289, .T. ) ;
#102 = EDGE_CURVE ( 'NONE', #131, #156, #140, .T. ) ;
#103 = FACE_OUTER_BOUND ( 'NONE', #252, .T. ) ;
#104 = PRODUCT_RELATED_PRODUCT_CATEGORY ( 'part', '', ( #232 ) ) ;
#105 =( LENGTH_UNIT ( ) NAMED_UNIT ( * ) SI_UNIT ( $, .METRE. ) );
#106 = ORIENTED_EDGE ( 'NONE', *, *, #94, .F. ) ;
#107 = ORIENTED_EDGE ( 'NONE', *, *, #260, .F. ) ;
#108 = VECTOR ( 'NONE', #247, 39.37007874015747433 ) ;
#109 = CARTESIAN_POINT ( 'NONE',  ( 3.058555380870515335E-18, 0.0000000000000000000, 0.02497500000000000067 ) ) ;
#110 = SURFACE_STYLE_FILL_AREA ( #15 ) ;
#111 = CARTESIAN_POINT ( 'NONE',  ( 0.0000000000000000000, 0.0000000000000000000, 0.0000000000000000000 ) ) ;
#112 = CIRCLE ( 'NONE', #149, 0.04750000000000064587 ) ;
#113 = MANIFOLD_SOLID_BREP ( 'Fillet1', #196 ) ;
#114 = DIRECTION ( 'NONE',  ( -1.000000000000000000, 0.0000000000000000000, 1.224646799147353454E-16 ) ) ;
#115 =( CONVERSION_BASED_UNIT ( 'INCH', #210 ) LENGTH_UNIT ( ) NAMED_UNIT ( #251 ) );
#116 = DIRECTION ( 'NONE',  ( 0.0000000000000000000, 0.0000000000000000000, 1.000000000000000000 ) ) ;
#117 = CARTESIAN_POINT ( 'NONE',  ( 0.0000000000000000000, 0.0000000000000000000, 1.485000000000000764 ) ) ;
#118 =( NAMED_UNIT ( * ) PLANE_ANGLE_UNIT ( ) SI_UNIT ( $, .RADIAN. ) );
#119 = CARTESIAN_POINT ( 'NONE',  ( 0.06250000000000000000, 7.654042494670956004E-18, 1.485000000000000764 ) ) ;
#120 = PRODUCT_DEFINITION ( 'UNKNOWN', '', #154, #217 ) ;
#121 =( NAMED_UNIT ( * ) SI_UNIT ( $, .STERADIAN. ) SOLID_ANGLE_UNIT ( ) );
#122 = VECTOR ( 'NONE', #17, 39.37007874015748143 ) ;
#123 = AXIS2_PLACEMENT_3D ( 'NONE', #80, #57, #176 ) ;
#124 = DIRECTION ( 'NONE',  ( -0.7071067811865456854, 0.0000000000000000000, -0.7071067811865493491 ) ) ;
#125 = ORIENTED_EDGE ( 'NONE', *, *, #198, .T. ) ;
#126 = FACE_OUTER_BOUND ( 'NONE', #76, .T. ) ;
#127 = ORIENTED_EDGE ( 'NONE', *, *, #142, .T. ) ;
#128 = EDGE_CURVE ( 'NONE', #175, #35, #219, .T. ) ;
#129 = AXIS2_PLACEMENT_3D ( 'NONE', #192, #147, #27 ) ;
#130 = DIRECTION ( 'NONE',  ( 0.0000000000000000000, 0.0000000000000000000, -1.000000000000000000 ) ) ;
#131 = VERTEX_POINT ( 'NONE', #2 ) ;
#132 = APPLICATION_PROTOCOL_DEFINITION ( 'draft international standard', 'automotive_design', 1998, #75 ) ;
#133 = ORIENTED_EDGE ( 'NONE', *, *, #25, .F. ) ;
#134 = CARTESIAN_POINT ( 'NONE',  ( 3.058555380870515335E-18, 0.0000000000000000000, 0.02497500000000000067 ) ) ;
#135 = AXIS2_PLACEMENT_3D ( 'NONE', #59, #256, #34 ) ;
#136 = CARTESIAN_POINT ( 'NONE',  ( 0.0000000000000000000, 0.0000000000000000000, 1.485000000000000764 ) ) ;
#137 = SHAPE_DEFINITION_REPRESENTATION ( #39, #139 ) ;
#138 = DIRECTION ( 'NONE',  ( -1.224646799147353454E-16, -0.0000000000000000000, -1.000000000000000000 ) ) ;
#139 = ADVANCED_BREP_SHAPE_REPRESENTATION ( 'Micro_BMS-050-2', ( #113, #19 ), #1 ) ;
#140 = LINE ( 'NONE', #236, #122 ) ;
#141 =( LENGTH_UNIT ( ) NAMED_UNIT ( * ) SI_UNIT ( $, .METRE. ) );
#142 = EDGE_CURVE ( 'NONE', #281, #81, #51, .T. ) ;
#143 = DIRECTION ( 'NONE',  ( 0.0000000000000000000, 0.0000000000000000000, 1.000000000000000000 ) ) ;
#144 = CARTESIAN_POINT ( 'NONE',  ( -0.02497499999999999373, 3.058555380870514950E-18, 0.07499999999999999722 ) ) ;
#145 = AXIS2_PLACEMENT_3D ( 'NONE', #117, #74, #93 ) ;
#146 = CARTESIAN_POINT ( 'NONE',  ( 3.058555380870515335E-18, 0.0000000000000000000, 0.02497500000000000067 ) ) ;
#147 = DIRECTION ( 'NONE',  ( -0.0000000000000000000, -0.0000000000000000000, -1.000000000000000000 ) ) ;
#148 = ORIENTED_EDGE ( 'NONE', *, *, #324, .T. ) ;
#149 = AXIS2_PLACEMENT_3D ( 'NONE', #222, #323, #276 ) ;
#150 = CARTESIAN_POINT ( 'NONE',  ( 0.04750000000000064587, 6.735557395310482421E-18, 1.500000000000000222 ) ) ;
#151 = ORIENTED_EDGE ( 'NONE', *, *, #188, .T. ) ;
#152 = ADVANCED_FACE ( 'NONE', ( #95 ), #292, .T. ) ;
#153 = ORIENTED_EDGE ( 'NONE', *, *, #63, .F. ) ;
#154 = PRODUCT_DEFINITION_FORMATION_WITH_SPECIFIED_SOURCE ( 'ANY', '', #232, .NOT_KNOWN. ) ;
#155 =( CONVERSION_BASED_UNIT ( 'INCH', #61 ) LENGTH_UNIT ( ) NAMED_UNIT ( #7 ) );
#156 = VERTEX_POINT ( 'NONE', #71 ) ;
#157 = VERTEX_POINT ( 'NONE', #96 ) ;
#158 = DIRECTION ( 'NONE',  ( 0.0000000000000000000, 1.000000000000000000, 0.0000000000000000000 ) ) ;
#159 = AXIS2_PLACEMENT_3D ( 'NONE', #322, #116, #325 ) ;
#160 = AXIS2_PLACEMENT_3D ( 'NONE', #199, #304, #180 ) ;
#161 = ORIENTED_EDGE ( 'NONE', *, *, #25, .T. ) ;
#162 = DIRECTION ( 'NONE',  ( 1.000000000000000000, 0.0000000000000000000, 0.0000000000000000000 ) ) ;
#163 = DIRECTION ( 'NONE',  ( -0.0000000000000000000, -0.0000000000000000000, -1.000000000000000000 ) ) ;
#164 = DIRECTION ( 'NONE',  ( -1.000000000000000000, 0.0000000000000000000, 0.0000000000000000000 ) ) ;
#165 = AXIS2_PLACEMENT_3D ( 'NONE', #221, #250, #195 ) ;
#166 = CARTESIAN_POINT ( 'NONE',  ( 3.058555380870515335E-18, 0.0000000000000000000, 0.02497500000000000067 ) ) ;
#167 = DIRECTION ( 'NONE',  ( 0.0000000000000000000, 0.0000000000000000000, -1.000000000000000000 ) ) ;
#168 = FACE_OUTER_BOUND ( 'NONE', #60, .T. ) ;
#169 = CYLINDRICAL_SURFACE ( 'NONE', #129, 0.06250000000000000000 ) ;
#170 = CIRCLE ( 'NONE', #208, 0.06250000000000000000 ) ;
#171 = EDGE_CURVE ( 'NONE', #35, #175, #28, .T. ) ;
#172 = LINE ( 'NONE', #53, #72 ) ;
#173 = CARTESIAN_POINT ( 'NONE',  ( 0.0000000000000000000, 0.0000000000000000000, 1.500000000000000222 ) ) ;
#174 = EDGE_CURVE ( 'NONE', #257, #226, #186, .T. ) ;
#175 = VERTEX_POINT ( 'NONE', #119 ) ;
#176 = DIRECTION ( 'NONE',  ( -1.000000000000000000, 0.0000000000000000000, 1.709114110150314860E-16 ) ) ;
#177 = VERTEX_POINT ( 'NONE', #301 ) ;
#178 =( LENGTH_UNIT ( ) NAMED_UNIT ( * ) SI_UNIT ( $, .METRE. ) );
#179 = ORIENTED_EDGE ( 'NONE', *, *, #174, .F. ) ;
#180 = DIRECTION ( 'NONE',  ( -1.000000000000000000, 0.0000000000000000000, 1.224646799147353454E-16 ) ) ;
#181 = EDGE_LOOP ( 'NONE', ( #179, #161, #255 ) ) ;
#182 = AXIS2_PLACEMENT_3D ( 'NONE', #109, #158, #41 ) ;
#183 = EDGE_LOOP ( 'NONE', ( #84, #305 ) ) ;
#184 = SURFACE_SIDE_STYLE ('',( #110 ) ) ;
#185 = LINE ( 'NONE', #269, #82 ) ;
#186 = CIRCLE ( 'NONE', #275, 0.02497500000000000067 ) ;
#187 = COLOUR_RGB ( '',0.7921568627450980005, 0.8196078431372548767, 0.9333333333333333481 ) ;
#188 = EDGE_CURVE ( 'NONE', #35, #81, #193, .T. ) ;
#189 = ORIENTED_EDGE ( 'NONE', *, *, #198, .F. ) ;
#190 = DIRECTION ( 'NONE',  ( -1.224646799147353454E-16, -0.0000000000000000000, -1.000000000000000000 ) ) ;
#191 = FACE_OUTER_BOUND ( 'NONE', #231, .T. ) ;
#192 = CARTESIAN_POINT ( 'NONE',  ( 0.0000000000000000000, 0.0000000000000000000, 1.500000000000000222 ) ) ;
#193 = LINE ( 'NONE', #298, #316 ) ;
#194 = DIRECTION ( 'NONE',  ( 1.224646799147353207E-16, 1.000000000000000000, -0.0000000000000000000 ) ) ;
#195 = DIRECTION ( 'NONE',  ( 1.000000000000000000, 0.0000000000000000000, 0.0000000000000000000 ) ) ;
#196 = CLOSED_SHELL ( 'NONE', ( #214, #20, #299, #293, #211, #229, #152, #277, #55, #318, #6 ) ) ;
#197 = DIMENSIONAL_EXPONENTS ( 1.000000000000000000, 0.0000000000000000000, 0.0000000000000000000, 0.0000000000000000000, 0.0000000000000000000, 0.0000000000000000000, 0.0000000000000000000 ) ;
#198 = EDGE_CURVE ( 'NONE', #131, #281, #172, .T. ) ;
#199 = CARTESIAN_POINT ( 'NONE',  ( 0.0000000000000000000, 0.0000000000000000000, 0.0000000000000000000 ) ) ;
#200 = ORIENTED_EDGE ( 'NONE', *, *, #174, .T. ) ;
#201 = CYLINDRICAL_SURFACE ( 'NONE', #160, 0.02497500000000000067 ) ;
#202 = ORIENTED_EDGE ( 'NONE', *, *, #128, .T. ) ;
#203 =( CONVERSION_BASED_UNIT ( 'INCH', #254 ) LENGTH_UNIT ( ) NAMED_UNIT ( #197 ) );
#204 = ORIENTED_EDGE ( 'NONE', *, *, #142, .F. ) ;
#205 = DIRECTION ( 'NONE',  ( 1.224646799147353454E-16, 0.0000000000000000000, 1.000000000000000000 ) ) ;
#206 = ORIENTED_EDGE ( 'NONE', *, *, #235, .F. ) ;
#207 = EDGE_LOOP ( 'NONE', ( #101, #99, #262, #58 ) ) ;
#208 = AXIS2_PLACEMENT_3D ( 'NONE', #65, #288, #70 ) ;
#209 = DIRECTION ( 'NONE',  ( 1.224646799147353454E-16, 0.0000000000000000000, 1.000000000000000000 ) ) ;
#210 = LENGTH_MEASURE_WITH_UNIT ( LENGTH_MEASURE( 0.02539999999999999897 ), #141 );
#211 = ADVANCED_FACE ( 'NONE', ( #223 ), #169, .T. ) ;
#212 = DIRECTION ( 'NONE',  ( -1.224646799147353454E-16, -0.0000000000000000000, -1.000000000000000000 ) ) ;
#213 = AXIS2_PLACEMENT_3D ( 'NONE', #146, #22, #321 ) ;
#214 = ADVANCED_FACE ( 'NONE', ( #272 ), #21, .T. ) ;
#215 = UNCERTAINTY_MEASURE_WITH_UNIT (LENGTH_MEASURE( 1.000000000000000082E-05 ), #155, 'distance_accuracy_value', 'NONE');
#216 = CARTESIAN_POINT ( 'NONE',  ( 9.184850993605148746E-18, 0.0000000000000000000, 0.07499999999999999722 ) ) ;
#217 = PRODUCT_DEFINITION_CONTEXT ( 'detailed design', #3, 'design' ) ;
#218 = DIRECTION ( 'NONE',  ( 0.1736481776669314137, 0.0000000000000000000, 0.9848077530122077983 ) ) ;
#219 = CIRCLE ( 'NONE', #43, 0.06250000000000000000 ) ;
#220 = CIRCLE ( 'NONE', #42, 0.04750000000000064587 ) ;
#221 = CARTESIAN_POINT ( 'NONE',  ( 3.524715351438891718E-17, 0.0000000000000000000, 0.2878148502811532783 ) ) ;
#222 = CARTESIAN_POINT ( 'NONE',  ( 0.0000000000000000000, 0.0000000000000000000, 1.500000000000000222 ) ) ;
#223 = FACE_OUTER_BOUND ( 'NONE', #287, .T. ) ;
#224 = AXIS2_PLACEMENT_3D ( 'NONE', #312, #190, #164 ) ;
#225 = FILL_AREA_STYLE ('',( #4 ) ) ;
#226 = VERTEX_POINT ( 'NONE', #297 ) ;
#227 = ORIENTED_EDGE ( 'NONE', *, *, #171, .T. ) ;
#228 = STYLED_ITEM ( 'NONE', ( #270 ), #113 ) ;
#229 = ADVANCED_FACE ( 'NONE', ( #168 ), #296, .T. ) ;
#230 = SURFACE_SIDE_STYLE ('',( #100 ) ) ;
#231 = EDGE_LOOP ( 'NONE', ( #5, #106, #125, #127 ) ) ;
#232 = PRODUCT ( 'Micro_BMS-050-2', 'Micro_BMS-050-2', '', ( #234 ) ) ;
#233 = EDGE_LOOP ( 'NONE', ( #133, #200, #78 ) ) ;
#234 = PRODUCT_CONTEXT ( 'NONE', #75, 'mechanical' ) ;
#235 = EDGE_CURVE ( 'NONE', #157, #283, #220, .T. ) ;
#236 = CARTESIAN_POINT ( 'NONE',  ( 0.02497500000000000067, 3.058555380870514950E-18, -3.058555380870515335E-18 ) ) ;
#237 = CONICAL_SURFACE ( 'NONE', #280, 0.04750000000000064587, 0.7853981633974457255 ) ;
#238 = ORIENTED_EDGE ( 'NONE', *, *, #248, .T. ) ;
#239 = CYLINDRICAL_SURFACE ( 'NONE', #266, 0.02497500000000000067 ) ;
#240 = LINE ( 'NONE', #69, #271 ) ;
#241 =( GEOMETRIC_REPRESENTATION_CONTEXT ( 3 ) GLOBAL_UNCERTAINTY_ASSIGNED_CONTEXT ( ( #314 ) ) GLOBAL_UNIT_ASSIGNED_CONTEXT ( ( #115, #118, #121 ) ) REPRESENTATION_CONTEXT ( 'NONE', 'WORKASPACE' ) );
#242 = AXIS2_PLACEMENT_3D ( 'NONE', #302, #205, #279 ) ;
#243 = DIRECTION ( 'NONE',  ( 1.000000000000000000, 0.0000000000000000000, 0.0000000000000000000 ) ) ;
#244 = DIRECTION ( 'NONE',  ( 1.000000000000000000, 0.0000000000000000000, 0.0000000000000000000 ) ) ;
#245 = AXIS2_PLACEMENT_3D ( 'NONE', #216, #290, #243 ) ;
#246 = STYLED_ITEM ( 'NONE', ( #307 ), #139 ) ;
#247 = DIRECTION ( 'NONE',  ( -0.1736481776669312194, 2.126576849575783625E-17, 0.9848077530122080203 ) ) ;
#248 = EDGE_CURVE ( 'NONE', #177, #81, #49, .T. ) ;
#249 = CARTESIAN_POINT ( 'NONE',  ( 0.0000000000000000000, 0.0000000000000000000, 1.500000000000000222 ) ) ;
#250 = DIRECTION ( 'NONE',  ( -1.224646799147353454E-16, -0.0000000000000000000, -1.000000000000000000 ) ) ;
#251 = DIMENSIONAL_EXPONENTS ( 1.000000000000000000, 0.0000000000000000000, 0.0000000000000000000, 0.0000000000000000000, 0.0000000000000000000, 0.0000000000000000000, 0.0000000000000000000 ) ;
#252 = EDGE_LOOP ( 'NONE', ( #33, #238, #79, #189 ) ) ;
#253 = CONICAL_SURFACE ( 'NONE', #242, 0.02497500000000000067, 0.1745329251994339192 ) ;
#254 = LENGTH_MEASURE_WITH_UNIT ( LENGTH_MEASURE( 0.02539999999999999897 ), #105 );
#255 = ORIENTED_EDGE ( 'NONE', *, *, #50, .F. ) ;
#256 = DIRECTION ( 'NONE',  ( -1.224646799147353454E-16, -0.0000000000000000000, -1.000000000000000000 ) ) ;
#257 = VERTEX_POINT ( 'NONE', #24 ) ;
#258 = COLOUR_RGB ( '',0.7921568627450980005, 0.8196078431372548767, 0.9333333333333333481 ) ;
#259 = AXIS2_PLACEMENT_3D ( 'NONE', #173, #130, #98 ) ;
#260 = EDGE_CURVE ( 'NONE', #283, #157, #112, .T. ) ;
#261 =( NAMED_UNIT ( * ) PLANE_ANGLE_UNIT ( ) SI_UNIT ( $, .RADIAN. ) );
#262 = ORIENTED_EDGE ( 'NONE', *, *, #306, .T. ) ;
#263 = DIRECTION ( 'NONE',  ( 0.0000000000000000000, 0.0000000000000000000, 1.000000000000000000 ) ) ;
#264 = LINE ( 'NONE', #90, #92 ) ;
#265 = DIRECTION ( 'NONE',  ( 0.7071067811865456854, 8.659560562354911904E-17, -0.7071067811865493491 ) ) ;
#266 = AXIS2_PLACEMENT_3D ( 'NONE', #111, #212, #114 ) ;
#267 = CIRCLE ( 'NONE', #123, 0.02497500000000000067 ) ;
#268 = ORIENTED_EDGE ( 'NONE', *, *, #50, .T. ) ;
#269 = CARTESIAN_POINT ( 'NONE',  ( 0.04750000000000064587, 5.817072295950006528E-18, 1.500000000000000222 ) ) ;
#270 = PRESENTATION_STYLE_ASSIGNMENT (( #89 ) ) ;
#271 = VECTOR ( 'NONE', #163, 39.37007874015748143 ) ;
#272 = FACE_OUTER_BOUND ( 'NONE', #233, .T. ) ;
#273 = DIRECTION ( 'NONE',  ( -1.000000000000000000, 0.0000000000000000000, 0.0000000000000000000 ) ) ;
#274 = DIRECTION ( 'NONE',  ( -0.0000000000000000000, -0.0000000000000000000, -1.000000000000000000 ) ) ;
#275 = AXIS2_PLACEMENT_3D ( 'NONE', #166, #194, #47 ) ;
#276 = DIRECTION ( 'NONE',  ( 1.000000000000000000, 0.0000000000000000000, 0.0000000000000000000 ) ) ;
#277 = ADVANCED_FACE ( 'NONE', ( #52 ), #237, .T. ) ;
#278 = DIRECTION ( 'NONE',  ( -0.0000000000000000000, -0.0000000000000000000, -1.000000000000000000 ) ) ;
#279 = DIRECTION ( 'NONE',  ( 1.000000000000000000, 0.0000000000000000000, 0.0000000000000000000 ) ) ;
#280 = AXIS2_PLACEMENT_3D ( 'NONE', #249, #26, #308 ) ;
#281 = VERTEX_POINT ( 'NONE', #12 ) ;
#282 = SURFACE_STYLE_USAGE ( .BOTH. , #230 ) ;
#283 = VERTEX_POINT ( 'NONE', #150 ) ;
#284 = ORIENTED_EDGE ( 'NONE', *, *, #63, .T. ) ;
#285 = PRESENTATION_LAYER_ASSIGNMENT (  '', '', ( #228 ) ) ;
#286 = ORIENTED_EDGE ( 'NONE', *, *, #102, .F. ) ;
#287 = EDGE_LOOP ( 'NONE', ( #227, #284, #8, #64 ) ) ;
#288 = DIRECTION ( 'NONE',  ( -1.224646799147353454E-16, -0.0000000000000000000, -1.000000000000000000 ) ) ;
#289 = EDGE_CURVE ( 'NONE', #177, #131, #54, .T. ) ;
#290 = DIRECTION ( 'NONE',  ( 1.224646799147353454E-16, 0.0000000000000000000, 1.000000000000000000 ) ) ;
#291 = CARTESIAN_POINT ( 'NONE',  ( -0.06250000000000000000, 0.0000000000000000000, 1.485000000000000764 ) ) ;
#292 = PLANE ( 'NONE',  #159 ) ;
#293 = ADVANCED_FACE ( 'NONE', ( #9 ), #14, .T. ) ;
#294 = MECHANICAL_DESIGN_GEOMETRIC_PRESENTATION_REPRESENTATION (  '', ( #228 ), #241 ) ;
#295 = VECTOR ( 'NONE', #124, 39.37007874015748143 ) ;
#296 = CYLINDRICAL_SURFACE ( 'NONE', #18, 0.06250000000000000000 ) ;
#297 = CARTESIAN_POINT ( 'NONE',  ( -0.02497499999999999720, 0.0000000000000000000, 0.02497500000000000414 ) ) ;
#298 = CARTESIAN_POINT ( 'NONE',  ( -0.06250000000000000000, 0.0000000000000000000, 1.500000000000000222 ) ) ;
#299 = ADVANCED_FACE ( 'NONE', ( #103 ), #253, .T. ) ;
#300 = CIRCLE ( 'NONE', #224, 0.02497500000000000067 ) ;
#301 = CARTESIAN_POINT ( 'NONE',  ( -0.02497499999999999373, 5.356298937770736247E-18, 0.07499999999999999722 ) ) ;
#302 = CARTESIAN_POINT ( 'NONE',  ( 9.184850993605148746E-18, 0.0000000000000000000, 0.07499999999999999722 ) ) ;
#303 = CIRCLE ( 'NONE', #310, 0.02497500000000000067 ) ;
#304 = DIRECTION ( 'NONE',  ( -1.224646799147353454E-16, -0.0000000000000000000, -1.000000000000000000 ) ) ;
#305 = ORIENTED_EDGE ( 'NONE', *, *, #260, .T. ) ;
#306 = EDGE_CURVE ( 'NONE', #156, #226, #267, .T. ) ;
#307 = PRESENTATION_STYLE_ASSIGNMENT (( #282 ) ) ;
#308 = DIRECTION ( 'NONE',  ( -1.000000000000000000, 0.0000000000000000000, 0.0000000000000000000 ) ) ;
#309 = ORIENTED_EDGE ( 'NONE', *, *, #85, .T. ) ;
#310 = AXIS2_PLACEMENT_3D ( 'NONE', #16, #45, #315 ) ;
#311 =( NAMED_UNIT ( * ) SI_UNIT ( $, .STERADIAN. ) SOLID_ANGLE_UNIT ( ) );
#312 = CARTESIAN_POINT ( 'NONE',  ( 9.184850993605148746E-18, 0.0000000000000000000, 0.07499999999999999722 ) ) ;
#313 = CARTESIAN_POINT ( 'NONE',  ( -0.06249999999999996531, 0.0000000000000000000, 0.2878148502811532783 ) ) ;
#314 = UNCERTAINTY_MEASURE_WITH_UNIT (LENGTH_MEASURE( 1.000000000000000082E-05 ), #115, 'distance_accuracy_value', 'NONE');
#315 = DIRECTION ( 'NONE',  ( 0.0000000000000000000, 0.0000000000000000000, -1.000000000000000000 ) ) ;
#316 = VECTOR ( 'NONE', #278, 39.37007874015748143 ) ;
#317 = PRESENTATION_LAYER_ASSIGNMENT (  '', '', ( #246 ) ) ;
#318 = ADVANCED_FACE ( 'NONE', ( #126 ), #201, .T. ) ;
#319 = FILL_AREA_STYLE_COLOUR ( '', #258 ) ;
#320 = FACE_OUTER_BOUND ( 'NONE', #207, .T. ) ;
#321 = DIRECTION ( 'NONE',  ( 1.000000000000000000, 0.0000000000000000000, 0.0000000000000000000 ) ) ;
#322 = CARTESIAN_POINT ( 'NONE',  ( 0.0000000000000000000, 0.0000000000000000000, 1.500000000000000222 ) ) ;
#323 = DIRECTION ( 'NONE',  ( 0.0000000000000000000, 0.0000000000000000000, 1.000000000000000000 ) ) ;
#324 = EDGE_CURVE ( 'NONE', #157, #35, #32, .T. ) ;
#325 = DIRECTION ( 'NONE',  ( 1.000000000000000000, 0.0000000000000000000, -0.0000000000000000000 ) ) ;
ENDSEC;
END-ISO-10303-21;
