ISO-10303-21;
HEADER;
FILE_DESCRIPTION (( 'STEP AP214' ),
    '1' );
FILE_NAME ('59839.STEP',
    '2023-06-22T23:04:55',
    ( '' ),
    ( '' ),
    'SwSTEP 2.0',
    'SolidWorks 2023',
    '' );
FILE_SCHEMA (( 'AUTOMOTIVE_DESIGN' ));
ENDSEC;

DATA;
#1 = DIRECTION ( 'NONE',  ( -0.000000000000000000, -1.000000000000000000, -0.000000000000000000 ) ) ;
#2 = PRODUCT_DEFINITION ( 'UNKNOWN', '', #48, #107 ) ;
#3 = ORIENTED_EDGE ( 'NONE', *, *, #268, .F. ) ;
#4 = CARTESIAN_POINT ( 'NONE',  ( 6.123233995736766036E-17, 2.000000000000000000, 0.000000000000000000 ) ) ;
#5 = STYLED_ITEM ( 'NONE', ( #68 ), #170 ) ;
#6 = STYLED_ITEM ( 'NONE', ( #50 ), #265 ) ;
#7 = DIRECTION ( 'NONE',  ( 0.000000000000000000, 0.000000000000000000, -1.000000000000000000 ) ) ;
#8 = DIRECTION ( 'NONE',  ( -0.000000000000000000, -1.000000000000000000, -0.000000000000000000 ) ) ;
#9 = DIRECTION ( 'NONE',  ( 3.918869757271530214E-17, 1.000000000000000000, -0.000000000000000000 ) ) ;
#10 = CLOSED_SHELL ( 'NONE', ( #303, #67, #235, #119 ) ) ;
#11 = LINE ( 'NONE', #193, #243 ) ;
#12 = CARTESIAN_POINT ( 'NONE',  ( 0.000000000000000000, 0.000000000000000000, -0.1562500000000000000 ) ) ;
#13 = COLOUR_RGB ( '',1.000000000000000000, 0.000000000000000000, 0.000000000000000000 ) ;
#14 = DIRECTION ( 'NONE',  ( -1.000000000000000000, 0.000000000000000000, 0.000000000000000000 ) ) ;
#15 = UNCERTAINTY_MEASURE_WITH_UNIT (LENGTH_MEASURE( 1.000000000000000082E-05 ), #216, 'distance_accuracy_value', 'NONE');
#16 = STYLED_ITEM ( 'NONE', ( #46 ), #45 ) ;
#17 = SHAPE_DEFINITION_REPRESENTATION ( #89, #43 ) ;
#18 = FACE_OUTER_BOUND ( 'NONE', #287, .T. ) ;
#19 = EDGE_LOOP ( 'NONE', ( #156, #228 ) ) ;
#20 = AXIS2_PLACEMENT_3D ( 'NONE', #80, #263, #192 ) ;
#21 = ORIENTED_EDGE ( 'NONE', *, *, #157, .F. ) ;
#22 = CARTESIAN_POINT ( 'NONE',  ( 0.1562500000000000000, 2.000000000000000000, 1.913510623667738847E-17 ) ) ;
#23 = ORIENTED_EDGE ( 'NONE', *, *, #70, .T. ) ;
#24 = ORIENTED_EDGE ( 'NONE', *, *, #35, .T. ) ;
#25 = LENGTH_MEASURE_WITH_UNIT ( LENGTH_MEASURE( 0.02539999999999999897 ), #190 );
#26 = VECTOR ( 'NONE', #61, 39.37007874015748143 ) ;
#27 = DIRECTION ( 'NONE',  ( 0.000000000000000000, 0.000000000000000000, -1.000000000000000000 ) ) ;
#28 = LENGTH_MEASURE_WITH_UNIT ( LENGTH_MEASURE( 0.02539999999999999897 ), #75 );
#29 = SURFACE_SIDE_STYLE ('',( #136 ) ) ;
#30 =( LENGTH_UNIT ( ) NAMED_UNIT ( * ) SI_UNIT ( $, .METRE. ) );
#31 = CIRCLE ( 'NONE', #177, 0.1562499999999999445 ) ;
#32 = FILL_AREA_STYLE ('',( #299 ) ) ;
#33 = CARTESIAN_POINT ( 'NONE',  ( 0.000000000000000000, 0.000000000000000000, 0.000000000000000000 ) ) ;
#34 = DIRECTION ( 'NONE',  ( 0.000000000000000000, 0.000000000000000000, -1.000000000000000000 ) ) ;
#35 = EDGE_CURVE ( 'NONE', #211, #158, #295, .T. ) ;
#36 = ORIENTED_EDGE ( 'NONE', *, *, #288, .F. ) ;
#37 = PRESENTATION_LAYER_ASSIGNMENT (  '', '', ( #5 ) ) ;
#38 = APPLICATION_PROTOCOL_DEFINITION ( 'draft international standard', 'automotive_design', 1998, #183 ) ;
#39 = CLOSED_SHELL ( 'NONE', ( #45, #174, #170, #265 ) ) ;
#40 = EDGE_CURVE ( 'NONE', #253, #211, #261, .T. ) ;
#41 = DIRECTION ( 'NONE',  ( 0.000000000000000000, 0.000000000000000000, 1.000000000000000000 ) ) ;
#42 =( LENGTH_UNIT ( ) NAMED_UNIT ( * ) SI_UNIT ( $, .METRE. ) );
#43 = ADVANCED_BREP_SHAPE_REPRESENTATION ( '59839', ( #123, #117, #195 ), #282 ) ;
#44 = CYLINDRICAL_SURFACE ( 'NONE', #188, 0.1562500000000000000 ) ;
#45 = ADVANCED_FACE ( 'NONE', ( #18 ), #44, .T. ) ;
#46 = PRESENTATION_STYLE_ASSIGNMENT (( #92 ) ) ;
#47 = PRESENTATION_LAYER_ASSIGNMENT (  '', '', ( #16 ) ) ;
#48 = PRODUCT_DEFINITION_FORMATION_WITH_SPECIFIED_SOURCE ( 'ANY', '', #69, .NOT_KNOWN. ) ;
#49 = DIMENSIONAL_EXPONENTS ( 1.000000000000000000, 0.000000000000000000, 0.000000000000000000, 0.000000000000000000, 0.000000000000000000, 0.000000000000000000, 0.000000000000000000 ) ;
#50 = PRESENTATION_STYLE_ASSIGNMENT (( #98 ) ) ;
#51 = LENGTH_MEASURE_WITH_UNIT ( LENGTH_MEASURE( 0.02539999999999999897 ), #209 );
#52 = FACE_OUTER_BOUND ( 'NONE', #88, .T. ) ;
#53 = PRESENTATION_LAYER_ASSIGNMENT (  '', '', ( #139 ) ) ;
#54 = LENGTH_MEASURE_WITH_UNIT ( LENGTH_MEASURE( 0.02539999999999999897 ), #30 );
#55 = CARTESIAN_POINT ( 'NONE',  ( 0.000000000000000000, 0.4375000000000000000, -0.1562500000000000000 ) ) ;
#56 = DIRECTION ( 'NONE',  ( 3.918869757271530214E-17, 1.000000000000000000, -0.000000000000000000 ) ) ;
#57 = PRESENTATION_STYLE_ASSIGNMENT (( #126 ) ) ;
#58 = AXIS2_PLACEMENT_3D ( 'NONE', #169, #56, #251 ) ;
#59 = UNCERTAINTY_MEASURE_WITH_UNIT (LENGTH_MEASURE( 1.000000000000000082E-05 ), #85, 'distance_accuracy_value', 'NONE');
#60 =( NAMED_UNIT ( * ) PLANE_ANGLE_UNIT ( ) SI_UNIT ( $, .RADIAN. ) );
#61 = DIRECTION ( 'NONE',  ( -0.000000000000000000, -1.000000000000000000, -0.000000000000000000 ) ) ;
#62 = EDGE_LOOP ( 'NONE', ( #138, #175, #206, #184 ) ) ;
#63 = FILL_AREA_STYLE ('',( #252 ) ) ;
#64 = EDGE_LOOP ( 'NONE', ( #284, #161, #258, #133 ) ) ;
#65 = UNCERTAINTY_MEASURE_WITH_UNIT (LENGTH_MEASURE( 1.000000000000000082E-05 ), #103, 'distance_accuracy_value', 'NONE');
#66 = AXIS2_PLACEMENT_3D ( 'NONE', #306, #254, #114 ) ;
#67 = ADVANCED_FACE ( 'NONE', ( #297 ), #129, .F. ) ;
#68 = PRESENTATION_STYLE_ASSIGNMENT (( #256 ) ) ;
#69 = PRODUCT ( '59839', '59839', '', ( #230 ) ) ;
#70 = EDGE_CURVE ( 'NONE', #76, #274, #11, .T. ) ;
#71 = AXIS2_PLACEMENT_3D ( 'NONE', #142, #293, #266 ) ;
#72 = DIMENSIONAL_EXPONENTS ( 1.000000000000000000, 0.000000000000000000, 0.000000000000000000, 0.000000000000000000, 0.000000000000000000, 0.000000000000000000, 0.000000000000000000 ) ;
#73 =( CONVERSION_BASED_UNIT ( 'INCH', #214 ) LENGTH_UNIT ( ) NAMED_UNIT ( #163 ) );
#74 = APPLICATION_CONTEXT ( 'automotive_design' ) ;
#75 =( LENGTH_UNIT ( ) NAMED_UNIT ( * ) SI_UNIT ( $, .METRE. ) );
#76 = VERTEX_POINT ( 'NONE', #269 ) ;
#77 = DIRECTION ( 'NONE',  ( 3.918869757271530214E-17, 1.000000000000000000, -0.000000000000000000 ) ) ;
#78 = SURFACE_SIDE_STYLE ('',( #292 ) ) ;
#79 = CARTESIAN_POINT ( 'NONE',  ( 0.000000000000000000, 0.000000000000000000, 0.000000000000000000 ) ) ;
#80 = CARTESIAN_POINT ( 'NONE',  ( 0.000000000000000000, 0.4375000000000000000, 0.000000000000000000 ) ) ;
#81 =( GEOMETRIC_REPRESENTATION_CONTEXT ( 3 ) GLOBAL_UNCERTAINTY_ASSIGNED_CONTEXT ( ( #59 ) ) GLOBAL_UNIT_ASSIGNED_CONTEXT ( ( #85, #108, #135 ) ) REPRESENTATION_CONTEXT ( 'NONE', 'WORKASPACE' ) );
#82 = CIRCLE ( 'NONE', #104, 0.1562500000000000000 ) ;
#83 = CARTESIAN_POINT ( 'NONE',  ( 0.000000000000000000, 0.4374999999999998890, 0.000000000000000000 ) ) ;
#84 = DIRECTION ( 'NONE',  ( 3.918869757271530214E-17, 1.000000000000000000, -0.000000000000000000 ) ) ;
#85 =( CONVERSION_BASED_UNIT ( 'INCH', #302 ) LENGTH_UNIT ( ) NAMED_UNIT ( #285 ) );
#86 = CYLINDRICAL_SURFACE ( 'NONE', #304, 0.1562500000000000000 ) ;
#87 = AXIS2_PLACEMENT_3D ( 'NONE', #79, #1, #165 ) ;
#88 = EDGE_LOOP ( 'NONE', ( #202, #23, #307, #106 ) ) ;
#89 = PRODUCT_DEFINITION_SHAPE ( 'NONE', 'NONE',  #2 ) ;
#90 = MECHANICAL_DESIGN_GEOMETRIC_PRESENTATION_REPRESENTATION (  '', ( #139 ), #242 ) ;
#91 = ORIENTED_EDGE ( 'NONE', *, *, #217, .F. ) ;
#92 = SURFACE_STYLE_USAGE ( .BOTH. , #140 ) ;
#93 = CARTESIAN_POINT ( 'NONE',  ( 6.123233995736766036E-17, 2.000000000000000000, 0.000000000000000000 ) ) ;
#94 = EDGE_LOOP ( 'NONE', ( #91, #233 ) ) ;
#95 = AXIS2_PLACEMENT_3D ( 'NONE', #124, #171, #272 ) ;
#96 = FILL_AREA_STYLE_COLOUR ( '', #204 ) ;
#97 =( NAMED_UNIT ( * ) PLANE_ANGLE_UNIT ( ) SI_UNIT ( $, .RADIAN. ) );
#98 = SURFACE_STYLE_USAGE ( .BOTH. , #218 ) ;
#99 = PLANE ( 'NONE',  #95 ) ;
#100 = CIRCLE ( 'NONE', #87, 0.1562500000000000000 ) ;
#101 = UNCERTAINTY_MEASURE_WITH_UNIT (LENGTH_MEASURE( 1.000000000000000082E-05 ), #118, 'distance_accuracy_value', 'NONE');
#102 = LENGTH_MEASURE_WITH_UNIT ( LENGTH_MEASURE( 0.02539999999999999897 ), #150 );
#103 =( CONVERSION_BASED_UNIT ( 'INCH', #54 ) LENGTH_UNIT ( ) NAMED_UNIT ( #49 ) );
#104 = AXIS2_PLACEMENT_3D ( 'NONE', #162, #8, #7 ) ;
#105 = SURFACE_STYLE_FILL_AREA ( #63 ) ;
#106 = ORIENTED_EDGE ( 'NONE', *, *, #291, .F. ) ;
#107 = PRODUCT_DEFINITION_CONTEXT ( 'detailed design', #74, 'design' ) ;
#108 =( NAMED_UNIT ( * ) PLANE_ANGLE_UNIT ( ) SI_UNIT ( $, .RADIAN. ) );
#109 = ORIENTED_EDGE ( 'NONE', *, *, #288, .T. ) ;
#110 = CARTESIAN_POINT ( 'NONE',  ( 6.123233995736766036E-17, 2.000000000000000000, 0.000000000000000000 ) ) ;
#111 =( GEOMETRIC_REPRESENTATION_CONTEXT ( 3 ) GLOBAL_UNCERTAINTY_ASSIGNED_CONTEXT ( ( #250 ) ) GLOBAL_UNIT_ASSIGNED_CONTEXT ( ( #245, #60, #155 ) ) REPRESENTATION_CONTEXT ( 'NONE', 'WORKASPACE' ) );
#112 = AXIS2_PLACEMENT_3D ( 'NONE', #4, #9, #238 ) ;
#113 = DIRECTION ( 'NONE',  ( 3.918869757271530214E-17, 1.000000000000000000, -0.000000000000000000 ) ) ;
#114 = DIRECTION ( 'NONE',  ( 0.000000000000000000, 0.000000000000000000, -1.000000000000000000 ) ) ;
#115 = DIMENSIONAL_EXPONENTS ( 1.000000000000000000, 0.000000000000000000, 0.000000000000000000, 0.000000000000000000, 0.000000000000000000, 0.000000000000000000, 0.000000000000000000 ) ;
#116 = FILL_AREA_STYLE ('',( #236 ) ) ;
#117 = MANIFOLD_SOLID_BREP ( 'Revolve - Tool Body (Straight Shanked)', #10 ) ;
#118 =( CONVERSION_BASED_UNIT ( 'INCH', #28 ) LENGTH_UNIT ( ) NAMED_UNIT ( #115 ) );
#119 = ADVANCED_FACE ( 'NONE', ( #148 ), #99, .F. ) ;
#120 =( NAMED_UNIT ( * ) PLANE_ANGLE_UNIT ( ) SI_UNIT ( $, .RADIAN. ) );
#121 = PRODUCT_RELATED_PRODUCT_CATEGORY ( 'part', '', ( #69 ) ) ;
#122 = STYLED_ITEM ( 'NONE', ( #57 ), #174 ) ;
#123 = MANIFOLD_SOLID_BREP ( 'Revolve - Cutting Edge', #39 ) ;
#124 = CARTESIAN_POINT ( 'NONE',  ( 0.1562500000000000000, 2.000000000000000000, 0.000000000000000000 ) ) ;
#125 = EDGE_CURVE ( 'NONE', #260, #158, #229, .T. ) ;
#126 = SURFACE_STYLE_USAGE ( .BOTH. , #29 ) ;
#127 = CARTESIAN_POINT ( 'NONE',  ( 0.000000000000000000, 0.4374999999999998890, 0.000000000000000000 ) ) ;
#128 = CIRCLE ( 'NONE', #154, 0.1562500000000000000 ) ;
#129 = PLANE ( 'NONE',  #58 ) ;
#130 = CARTESIAN_POINT ( 'NONE',  ( 1.913510623667739463E-17, 0.000000000000000000, 0.1562500000000000000 ) ) ;
#131 =( NAMED_UNIT ( * ) SI_UNIT ( $, .STERADIAN. ) SOLID_ANGLE_UNIT ( ) );
#132 = PLANE ( 'NONE',  #20 ) ;
#133 = ORIENTED_EDGE ( 'NONE', *, *, #35, .F. ) ;
#134 = PRESENTATION_LAYER_ASSIGNMENT (  '', '', ( #223 ) ) ;
#135 =( NAMED_UNIT ( * ) SI_UNIT ( $, .STERADIAN. ) SOLID_ANGLE_UNIT ( ) );
#136 = SURFACE_STYLE_FILL_AREA ( #219 ) ;
#137 = EDGE_CURVE ( 'NONE', #76, #186, #128, .T. ) ;
#138 = ORIENTED_EDGE ( 'NONE', *, *, #70, .F. ) ;
#139 = STYLED_ITEM ( 'NONE', ( #262 ), #117 ) ;
#140 = SURFACE_SIDE_STYLE ('',( #208 ) ) ;
#141 = ORIENTED_EDGE ( 'NONE', *, *, #40, .T. ) ;
#142 = CARTESIAN_POINT ( 'NONE',  ( 0.000000000000000000, 0.000000000000000000, 0.000000000000000000 ) ) ;
#143 =( NAMED_UNIT ( * ) SI_UNIT ( $, .STERADIAN. ) SOLID_ANGLE_UNIT ( ) );
#144 = FILL_AREA_STYLE_COLOUR ( '', #264 ) ;
#145 = CIRCLE ( 'NONE', #237, 0.1562499999999999445 ) ;
#146 = VECTOR ( 'NONE', #77, 39.37007874015748143 ) ;
#147 = SURFACE_STYLE_FILL_AREA ( #221 ) ;
#148 = FACE_OUTER_BOUND ( 'NONE', #19, .T. ) ;
#149 = VECTOR ( 'NONE', #257, 39.37007874015748143 ) ;
#150 =( LENGTH_UNIT ( ) NAMED_UNIT ( * ) SI_UNIT ( $, .METRE. ) );
#151 = PRESENTATION_STYLE_ASSIGNMENT (( #249 ) ) ;
#152 = DIRECTION ( 'NONE',  ( -0.000000000000000000, -1.000000000000000000, -0.000000000000000000 ) ) ;
#153 = EDGE_LOOP ( 'NONE', ( #109, #24 ) ) ;
#154 = AXIS2_PLACEMENT_3D ( 'NONE', #127, #275, #14 ) ;
#155 =( NAMED_UNIT ( * ) SI_UNIT ( $, .STERADIAN. ) SOLID_ANGLE_UNIT ( ) );
#156 = ORIENTED_EDGE ( 'NONE', *, *, #248, .T. ) ;
#157 = EDGE_CURVE ( 'NONE', #260, #253, #199, .T. ) ;
#158 = VERTEX_POINT ( 'NONE', #12 ) ;
#159 = CYLINDRICAL_SURFACE ( 'NONE', #224, 0.1562499999999999722 ) ;
#160 = PRESENTATION_LAYER_ASSIGNMENT (  '', '', ( #122 ) ) ;
#161 = ORIENTED_EDGE ( 'NONE', *, *, #268, .T. ) ;
#162 = CARTESIAN_POINT ( 'NONE',  ( 0.000000000000000000, 0.4375000000000000000, 0.000000000000000000 ) ) ;
#163 = DIMENSIONAL_EXPONENTS ( 1.000000000000000000, 0.000000000000000000, 0.000000000000000000, 0.000000000000000000, 0.000000000000000000, 0.000000000000000000, 0.000000000000000000 ) ;
#164 = CYLINDRICAL_SURFACE ( 'NONE', #112, 0.1562499999999999722 ) ;
#165 = DIRECTION ( 'NONE',  ( 0.000000000000000000, 0.000000000000000000, -1.000000000000000000 ) ) ;
#166 =( GEOMETRIC_REPRESENTATION_CONTEXT ( 3 ) GLOBAL_UNCERTAINTY_ASSIGNED_CONTEXT ( ( #222 ) ) GLOBAL_UNIT_ASSIGNED_CONTEXT ( ( #73, #176, #131 ) ) REPRESENTATION_CONTEXT ( 'NONE', 'WORKASPACE' ) );
#167 = SURFACE_SIDE_STYLE ('',( #271 ) ) ;
#168 =( CONVERSION_BASED_UNIT ( 'INCH', #25 ) LENGTH_UNIT ( ) NAMED_UNIT ( #72 ) );
#169 = CARTESIAN_POINT ( 'NONE',  ( 1.199807826129486377E-34, 0.4375000000000000000, 0.000000000000000000 ) ) ;
#170 = ADVANCED_FACE ( 'NONE', ( #181 ), #86, .T. ) ;
#171 = DIRECTION ( 'NONE',  ( -3.918869757271530214E-17, -1.000000000000000000, 0.000000000000000000 ) ) ;
#172 = COLOUR_RGB ( '',1.000000000000000000, 0.000000000000000000, 0.000000000000000000 ) ;
#173 = UNCERTAINTY_MEASURE_WITH_UNIT (LENGTH_MEASURE( 1.000000000000000082E-05 ), #168, 'distance_accuracy_value', 'NONE');
#174 = ADVANCED_FACE ( 'NONE', ( #276 ), #132, .T. ) ;
#175 = ORIENTED_EDGE ( 'NONE', *, *, #137, .T. ) ;
#176 =( NAMED_UNIT ( * ) PLANE_ANGLE_UNIT ( ) SI_UNIT ( $, .RADIAN. ) );
#177 = AXIS2_PLACEMENT_3D ( 'NONE', #93, #241, #187 ) ;
#178 = DIRECTION ( 'NONE',  ( 1.000000000000000000, 0.000000000000000000, 0.000000000000000000 ) ) ;
#179 = DIRECTION ( 'NONE',  ( 3.918869757271530214E-17, 1.000000000000000000, -0.000000000000000000 ) ) ;
#180 = DIRECTION ( 'NONE',  ( -0.000000000000000000, -1.000000000000000000, -0.000000000000000000 ) ) ;
#181 = FACE_OUTER_BOUND ( 'NONE', #64, .T. ) ;
#182 = EDGE_LOOP ( 'NONE', ( #21, #3 ) ) ;
#183 = APPLICATION_CONTEXT ( 'automotive_design' ) ;
#184 = ORIENTED_EDGE ( 'NONE', *, *, #231, .F. ) ;
#185 = FACE_OUTER_BOUND ( 'NONE', #62, .T. ) ;
#186 = VERTEX_POINT ( 'NONE', #196 ) ;
#187 = DIRECTION ( 'NONE',  ( -1.000000000000000000, 0.000000000000000000, 0.000000000000000000 ) ) ;
#188 = AXIS2_PLACEMENT_3D ( 'NONE', #198, #246, #27 ) ;
#189 = CARTESIAN_POINT ( 'NONE',  ( 0.000000000000000000, 0.000000000000000000, 0.000000000000000000 ) ) ;
#190 =( LENGTH_UNIT ( ) NAMED_UNIT ( * ) SI_UNIT ( $, .METRE. ) );
#191 =( NAMED_UNIT ( * ) SI_UNIT ( $, .STERADIAN. ) SOLID_ANGLE_UNIT ( ) );
#192 = DIRECTION ( 'NONE',  ( 0.000000000000000000, -0.000000000000000000, 1.000000000000000000 ) ) ;
#193 = CARTESIAN_POINT ( 'NONE',  ( 0.1562500000000000278, 2.000000000000000000, 1.913510623667738847E-17 ) ) ;
#194 = CIRCLE ( 'NONE', #289, 0.1562500000000000000 ) ;
#195 = AXIS2_PLACEMENT_3D ( 'NONE', #33, #41, #178 ) ;
#196 = CARTESIAN_POINT ( 'NONE',  ( -0.1562500000000000000, 0.4374999999999998890, 0.000000000000000000 ) ) ;
#197 = FILL_AREA_STYLE ('',( #144 ) ) ;
#198 = CARTESIAN_POINT ( 'NONE',  ( 0.000000000000000000, 0.000000000000000000, 0.000000000000000000 ) ) ;
#199 = CIRCLE ( 'NONE', #66, 0.1562500000000000000 ) ;
#200 = PRESENTATION_LAYER_ASSIGNMENT (  '', '', ( #6 ) ) ;
#201 = CARTESIAN_POINT ( 'NONE',  ( 0.000000000000000000, 0.000000000000000000, -0.1562500000000000000 ) ) ;
#202 = ORIENTED_EDGE ( 'NONE', *, *, #217, .T. ) ;
#203 = AXIS2_PLACEMENT_3D ( 'NONE', #189, #180, #286 ) ;
#204 = COLOUR_RGB ( '',1.000000000000000000, 0.000000000000000000, 0.000000000000000000 ) ;
#205 = VERTEX_POINT ( 'NONE', #294 ) ;
#206 = ORIENTED_EDGE ( 'NONE', *, *, #291, .T. ) ;
#207 =( GEOMETRIC_REPRESENTATION_CONTEXT ( 3 ) GLOBAL_UNCERTAINTY_ASSIGNED_CONTEXT ( ( #173 ) ) GLOBAL_UNIT_ASSIGNED_CONTEXT ( ( #168, #120, #270 ) ) REPRESENTATION_CONTEXT ( 'NONE', 'WORKASPACE' ) );
#208 = SURFACE_STYLE_FILL_AREA ( #116 ) ;
#209 =( LENGTH_UNIT ( ) NAMED_UNIT ( * ) SI_UNIT ( $, .METRE. ) );
#210 = PLANE ( 'NONE',  #71 ) ;
#211 = VERTEX_POINT ( 'NONE', #130 ) ;
#212 =( NAMED_UNIT ( * ) PLANE_ANGLE_UNIT ( ) SI_UNIT ( $, .RADIAN. ) );
#213 = COLOUR_RGB ( '',1.000000000000000000, 0.000000000000000000, 0.000000000000000000 ) ;
#214 = LENGTH_MEASURE_WITH_UNIT ( LENGTH_MEASURE( 0.02539999999999999897 ), #225 );
#215 = CARTESIAN_POINT ( 'NONE',  ( 1.913510623667739463E-17, 0.4375000000000000000, 0.1562500000000000000 ) ) ;
#216 =( CONVERSION_BASED_UNIT ( 'INCH', #51 ) LENGTH_UNIT ( ) NAMED_UNIT ( #305 ) );
#217 = EDGE_CURVE ( 'NONE', #186, #76, #194, .T. ) ;
#218 = SURFACE_SIDE_STYLE ('',( #147 ) ) ;
#219 = FILL_AREA_STYLE ('',( #227 ) ) ;
#220 =( NAMED_UNIT ( * ) SI_UNIT ( $, .STERADIAN. ) SOLID_ANGLE_UNIT ( ) );
#221 = FILL_AREA_STYLE ('',( #96 ) ) ;
#222 = UNCERTAINTY_MEASURE_WITH_UNIT (LENGTH_MEASURE( 1.000000000000000082E-05 ), #73, 'distance_accuracy_value', 'NONE');
#223 = STYLED_ITEM ( 'NONE', ( #151 ), #123 ) ;
#224 = AXIS2_PLACEMENT_3D ( 'NONE', #110, #179, #278 ) ;
#225 =( LENGTH_UNIT ( ) NAMED_UNIT ( * ) SI_UNIT ( $, .METRE. ) );
#226 = CARTESIAN_POINT ( 'NONE',  ( 6.123233995736766036E-17, 2.000000000000000000, 0.000000000000000000 ) ) ;
#227 = FILL_AREA_STYLE_COLOUR ( '', #172 ) ;
#228 = ORIENTED_EDGE ( 'NONE', *, *, #231, .T. ) ;
#229 = LINE ( 'NONE', #201, #26 ) ;
#230 = PRODUCT_CONTEXT ( 'NONE', #183, 'mechanical' ) ;
#231 = EDGE_CURVE ( 'NONE', #274, #205, #145, .T. ) ;
#232 = APPLICATION_PROTOCOL_DEFINITION ( 'draft international standard', 'automotive_design', 1998, #74 ) ;
#233 = ORIENTED_EDGE ( 'NONE', *, *, #137, .F. ) ;
#234 = DIRECTION ( 'NONE',  ( -1.000000000000000000, 0.000000000000000000, 0.000000000000000000 ) ) ;
#235 = ADVANCED_FACE ( 'NONE', ( #185 ), #159, .T. ) ;
#236 = FILL_AREA_STYLE_COLOUR ( '', #213 ) ;
#237 = AXIS2_PLACEMENT_3D ( 'NONE', #226, #113, #234 ) ;
#238 = DIRECTION ( 'NONE',  ( -1.000000000000000000, 0.000000000000000000, 0.000000000000000000 ) ) ;
#239 = ORIENTED_EDGE ( 'NONE', *, *, #125, .F. ) ;
#240 = FACE_OUTER_BOUND ( 'NONE', #153, .T. ) ;
#241 = DIRECTION ( 'NONE',  ( 3.918869757271530214E-17, 1.000000000000000000, -0.000000000000000000 ) ) ;
#242 =( GEOMETRIC_REPRESENTATION_CONTEXT ( 3 ) GLOBAL_UNCERTAINTY_ASSIGNED_CONTEXT ( ( #65 ) ) GLOBAL_UNIT_ASSIGNED_CONTEXT ( ( #103, #244, #220 ) ) REPRESENTATION_CONTEXT ( 'NONE', 'WORKASPACE' ) );
#243 = VECTOR ( 'NONE', #84, 39.37007874015748143 ) ;
#244 =( NAMED_UNIT ( * ) PLANE_ANGLE_UNIT ( ) SI_UNIT ( $, .RADIAN. ) );
#245 =( CONVERSION_BASED_UNIT ( 'INCH', #102 ) LENGTH_UNIT ( ) NAMED_UNIT ( #279 ) );
#246 = DIRECTION ( 'NONE',  ( -0.000000000000000000, -1.000000000000000000, -0.000000000000000000 ) ) ;
#247 = CARTESIAN_POINT ( 'NONE',  ( -0.1562499999999999167, 2.000000000000000000, 0.000000000000000000 ) ) ;
#248 = EDGE_CURVE ( 'NONE', #205, #274, #31, .T. ) ;
#249 = SURFACE_STYLE_USAGE ( .BOTH. , #78 ) ;
#250 = UNCERTAINTY_MEASURE_WITH_UNIT (LENGTH_MEASURE( 1.000000000000000082E-05 ), #245, 'distance_accuracy_value', 'NONE');
#251 = DIRECTION ( 'NONE',  ( -1.000000000000000000, 3.918869757271530214E-17, 0.000000000000000000 ) ) ;
#252 = FILL_AREA_STYLE_COLOUR ( '', #13 ) ;
#253 = VERTEX_POINT ( 'NONE', #215 ) ;
#254 = DIRECTION ( 'NONE',  ( -0.000000000000000000, -1.000000000000000000, -0.000000000000000000 ) ) ;
#255 = MECHANICAL_DESIGN_GEOMETRIC_PRESENTATION_REPRESENTATION (  '', ( #122 ), #111 ) ;
#256 = SURFACE_STYLE_USAGE ( .BOTH. , #283 ) ;
#257 = DIRECTION ( 'NONE',  ( -0.000000000000000000, -1.000000000000000000, -0.000000000000000000 ) ) ;
#258 = ORIENTED_EDGE ( 'NONE', *, *, #125, .T. ) ;
#259 =( GEOMETRIC_REPRESENTATION_CONTEXT ( 3 ) GLOBAL_UNCERTAINTY_ASSIGNED_CONTEXT ( ( #15 ) ) GLOBAL_UNIT_ASSIGNED_CONTEXT ( ( #216, #97, #191 ) ) REPRESENTATION_CONTEXT ( 'NONE', 'WORKASPACE' ) );
#260 = VERTEX_POINT ( 'NONE', #55 ) ;
#261 = LINE ( 'NONE', #280, #149 ) ;
#262 = PRESENTATION_STYLE_ASSIGNMENT (( #300 ) ) ;
#263 = DIRECTION ( 'NONE',  ( 0.000000000000000000, 1.000000000000000000, 0.000000000000000000 ) ) ;
#264 = COLOUR_RGB ( '',0.7921568627450980005, 0.8196078431372548767, 0.9333333333333333481 ) ;
#265 = ADVANCED_FACE ( 'NONE', ( #240 ), #210, .T. ) ;
#266 = DIRECTION ( 'NONE',  ( 0.000000000000000000, 0.000000000000000000, -1.000000000000000000 ) ) ;
#267 = DIRECTION ( 'NONE',  ( 3.918869757271530214E-17, 1.000000000000000000, -0.000000000000000000 ) ) ;
#268 = EDGE_CURVE ( 'NONE', #253, #260, #82, .T. ) ;
#269 = CARTESIAN_POINT ( 'NONE',  ( 0.1562500000000000000, 0.4374999999999998890, 1.913510623667738847E-17 ) ) ;
#270 =( NAMED_UNIT ( * ) SI_UNIT ( $, .STERADIAN. ) SOLID_ANGLE_UNIT ( ) );
#271 = SURFACE_STYLE_FILL_AREA ( #197 ) ;
#272 = DIRECTION ( 'NONE',  ( 1.000000000000000000, -3.918869757271530214E-17, 0.000000000000000000 ) ) ;
#273 = CARTESIAN_POINT ( 'NONE',  ( 0.000000000000000000, 0.000000000000000000, 0.000000000000000000 ) ) ;
#274 = VERTEX_POINT ( 'NONE', #22 ) ;
#275 = DIRECTION ( 'NONE',  ( 3.918869757271530214E-17, 1.000000000000000000, -0.000000000000000000 ) ) ;
#276 = FACE_OUTER_BOUND ( 'NONE', #182, .T. ) ;
#277 = MECHANICAL_DESIGN_GEOMETRIC_PRESENTATION_REPRESENTATION (  '', ( #16 ), #259 ) ;
#278 = DIRECTION ( 'NONE',  ( -1.000000000000000000, 0.000000000000000000, 0.000000000000000000 ) ) ;
#279 = DIMENSIONAL_EXPONENTS ( 1.000000000000000000, 0.000000000000000000, 0.000000000000000000, 0.000000000000000000, 0.000000000000000000, 0.000000000000000000, 0.000000000000000000 ) ;
#280 = CARTESIAN_POINT ( 'NONE',  ( 1.913510623667739463E-17, 0.000000000000000000, 0.1562500000000000000 ) ) ;
#281 = MECHANICAL_DESIGN_GEOMETRIC_PRESENTATION_REPRESENTATION (  '', ( #5 ), #81 ) ;
#282 =( GEOMETRIC_REPRESENTATION_CONTEXT ( 3 ) GLOBAL_UNCERTAINTY_ASSIGNED_CONTEXT ( ( #101 ) ) GLOBAL_UNIT_ASSIGNED_CONTEXT ( ( #118, #212, #143 ) ) REPRESENTATION_CONTEXT ( 'NONE', 'WORKASPACE' ) );
#283 = SURFACE_SIDE_STYLE ('',( #105 ) ) ;
#284 = ORIENTED_EDGE ( 'NONE', *, *, #40, .F. ) ;
#285 = DIMENSIONAL_EXPONENTS ( 1.000000000000000000, 0.000000000000000000, 0.000000000000000000, 0.000000000000000000, 0.000000000000000000, 0.000000000000000000, 0.000000000000000000 ) ;
#286 = DIRECTION ( 'NONE',  ( 0.000000000000000000, 0.000000000000000000, -1.000000000000000000 ) ) ;
#287 = EDGE_LOOP ( 'NONE', ( #309, #141, #36, #239 ) ) ;
#288 = EDGE_CURVE ( 'NONE', #158, #211, #100, .T. ) ;
#289 = AXIS2_PLACEMENT_3D ( 'NONE', #83, #267, #298 ) ;
#290 = LINE ( 'NONE', #247, #146 ) ;
#291 = EDGE_CURVE ( 'NONE', #186, #205, #290, .T. ) ;
#292 = SURFACE_STYLE_FILL_AREA ( #32 ) ;
#293 = DIRECTION ( 'NONE',  ( 0.000000000000000000, -1.000000000000000000, -0.000000000000000000 ) ) ;
#294 = CARTESIAN_POINT ( 'NONE',  ( -0.1562499999999998612, 2.000000000000000000, 0.000000000000000000 ) ) ;
#295 = CIRCLE ( 'NONE', #203, 0.1562500000000000000 ) ;
#296 = MECHANICAL_DESIGN_GEOMETRIC_PRESENTATION_REPRESENTATION (  '', ( #6 ), #207 ) ;
#297 = FACE_OUTER_BOUND ( 'NONE', #94, .T. ) ;
#298 = DIRECTION ( 'NONE',  ( -1.000000000000000000, 0.000000000000000000, 0.000000000000000000 ) ) ;
#299 = FILL_AREA_STYLE_COLOUR ( '', #301 ) ;
#300 = SURFACE_STYLE_USAGE ( .BOTH. , #167 ) ;
#301 = COLOUR_RGB ( '',0.7921568627450980005, 0.8196078431372548767, 0.9333333333333333481 ) ;
#302 = LENGTH_MEASURE_WITH_UNIT ( LENGTH_MEASURE( 0.02539999999999999897 ), #42 );
#303 = ADVANCED_FACE ( 'NONE', ( #52 ), #164, .T. ) ;
#304 = AXIS2_PLACEMENT_3D ( 'NONE', #273, #152, #34 ) ;
#305 = DIMENSIONAL_EXPONENTS ( 1.000000000000000000, 0.000000000000000000, 0.000000000000000000, 0.000000000000000000, 0.000000000000000000, 0.000000000000000000, 0.000000000000000000 ) ;
#306 = CARTESIAN_POINT ( 'NONE',  ( 0.000000000000000000, 0.4375000000000000000, 0.000000000000000000 ) ) ;
#307 = ORIENTED_EDGE ( 'NONE', *, *, #248, .F. ) ;
#308 = MECHANICAL_DESIGN_GEOMETRIC_PRESENTATION_REPRESENTATION (  '', ( #223 ), #166 ) ;
#309 = ORIENTED_EDGE ( 'NONE', *, *, #157, .T. ) ;
ENDSEC;
END-ISO-10303-21;
