ISO-10303-21;
HEADER;
FILE_DESCRIPTION (( 'STEP AP214' ),
    '1' );
FILE_NAME ('30572.STEP',
    '2023-06-22T18:42:34',
    ( '' ),
    ( '' ),
    'SwSTEP 2.0',
    'SolidWorks 2023',
    '' );
FILE_SCHEMA (( 'AUTOMOTIVE_DESIGN' ));
ENDSEC;

DATA;
#1 = ORIENTED_EDGE ( 'NONE', *, *, #32, .T. ) ;
#2 = AXIS2_PLACEMENT_3D ( 'NONE', #34, #163, #184 ) ;
#3 = ADVANCED_FACE ( 'NONE', ( #145 ), #248, .T. ) ;
#4 =( LENGTH_UNIT ( ) NAMED_UNIT ( * ) SI_UNIT ( $, .METRE. ) );
#5 = VERTEX_POINT ( 'NONE', #150 ) ;
#6 = VERTEX_POINT ( 'NONE', #124 ) ;
#7 = DIRECTION ( 'NONE',  ( -2.721437331438560389E-17, 1.000000000000000000, -0.000000000000000000 ) ) ;
#8 = PRODUCT_RELATED_PRODUCT_CATEGORY ( 'part', '', ( #160 ) ) ;
#9 = UNCERTAINTY_MEASURE_WITH_UNIT (LENGTH_MEASURE( 1.000000000000000082E-05 ), #275, 'distance_accuracy_value', 'NONE');
#10 = SURFACE_STYLE_FILL_AREA ( #224 ) ;
#11 = SURFACE_STYLE_FILL_AREA ( #80 ) ;
#12 = FACE_OUTER_BOUND ( 'NONE', #148, .T. ) ;
#13 = SURFACE_STYLE_USAGE ( .BOTH. , #87 ) ;
#14 = PRESENTATION_LAYER_ASSIGNMENT (  '', '', ( #138 ) ) ;
#15 = AXIS2_PLACEMENT_3D ( 'NONE', #253, #210, #166 ) ;
#16 = CARTESIAN_POINT ( 'NONE',  ( 0.3124999999999999445, 3.500000000000000000, 3.827021247335478926E-17 ) ) ;
#17 =( NAMED_UNIT ( * ) PLANE_ANGLE_UNIT ( ) SI_UNIT ( $, .RADIAN. ) );
#18 = COLOUR_RGB ( '',1.000000000000000000, 0.000000000000000000, 0.000000000000000000 ) ;
#19 = FILL_AREA_STYLE ('',( #59 ) ) ;
#20 = DIRECTION ( 'NONE',  ( -1.000000000000000000, 0.000000000000000000, 0.000000000000000000 ) ) ;
#21 = DIRECTION ( 'NONE',  ( -2.721437331438560697E-17, 1.000000000000000000, 0.000000000000000000 ) ) ;
#22 = MECHANICAL_DESIGN_GEOMETRIC_PRESENTATION_REPRESENTATION (  '', ( #255 ), #109 ) ;
#23 = ORIENTED_EDGE ( 'NONE', *, *, #302, .F. ) ;
#24 = APPLICATION_CONTEXT ( 'automotive_design' ) ;
#25 = ORIENTED_EDGE ( 'NONE', *, *, #132, .T. ) ;
#26 = DIRECTION ( 'NONE',  ( -1.000000000000000000, 0.000000000000000000, 0.000000000000000000 ) ) ;
#27 = SURFACE_STYLE_FILL_AREA ( #296 ) ;
#28 = ORIENTED_EDGE ( 'NONE', *, *, #200, .F. ) ;
#29 = AXIS2_PLACEMENT_3D ( 'NONE', #134, #205, #232 ) ;
#30 = FACE_OUTER_BOUND ( 'NONE', #155, .T. ) ;
#31 = DIRECTION ( 'NONE',  ( 0.000000000000000000, 0.000000000000000000, -1.000000000000000000 ) ) ;
#32 = EDGE_CURVE ( 'NONE', #273, #193, #149, .T. ) ;
#33 = PRESENTATION_STYLE_ASSIGNMENT (( #81 ) ) ;
#34 = CARTESIAN_POINT ( 'NONE',  ( 0.000000000000000000, 1.250000000000000000, 0.000000000000000000 ) ) ;
#35 = AXIS2_PLACEMENT_3D ( 'NONE', #239, #213, #20 ) ;
#36 =( LENGTH_UNIT ( ) NAMED_UNIT ( * ) SI_UNIT ( $, .METRE. ) );
#37 = CARTESIAN_POINT ( 'NONE',  ( 0.000000000000000000, 0.000000000000000000, 0.000000000000000000 ) ) ;
#38 =( CONVERSION_BASED_UNIT ( 'INCH', #61 ) LENGTH_UNIT ( ) NAMED_UNIT ( #215 ) );
#39 = ADVANCED_FACE ( 'NONE', ( #219 ), #241, .T. ) ;
#40 = LINE ( 'NONE', #237, #103 ) ;
#41 = CARTESIAN_POINT ( 'NONE',  ( -6.123233995736759873E-17, 3.500000000000000000, 0.000000000000000000 ) ) ;
#42 = MECHANICAL_DESIGN_GEOMETRIC_PRESENTATION_REPRESENTATION (  '', ( #112 ), #260 ) ;
#43 =( NAMED_UNIT ( * ) PLANE_ANGLE_UNIT ( ) SI_UNIT ( $, .RADIAN. ) );
#44 = CIRCLE ( 'NONE', #242, 0.3125000000000000000 ) ;
#45 = CARTESIAN_POINT ( 'NONE',  ( 0.000000000000000000, 1.250000000000000000, 0.000000000000000000 ) ) ;
#46 = DIRECTION ( 'NONE',  ( -0.000000000000000000, -1.000000000000000000, -0.000000000000000000 ) ) ;
#47 = CARTESIAN_POINT ( 'NONE',  ( 3.827021247335478926E-17, 0.000000000000000000, 0.3125000000000000000 ) ) ;
#48 = COLOUR_RGB ( '',0.7921568627450980005, 0.8196078431372548767, 0.9333333333333333481 ) ;
#49 = ORIENTED_EDGE ( 'NONE', *, *, #188, .T. ) ;
#50 = ORIENTED_EDGE ( 'NONE', *, *, #32, .F. ) ;
#51 = EDGE_CURVE ( 'NONE', #6, #273, #257, .T. ) ;
#52 = ORIENTED_EDGE ( 'NONE', *, *, #90, .T. ) ;
#53 =( NAMED_UNIT ( * ) SI_UNIT ( $, .STERADIAN. ) SOLID_ANGLE_UNIT ( ) );
#54 = ORIENTED_EDGE ( 'NONE', *, *, #131, .F. ) ;
#55 =( LENGTH_UNIT ( ) NAMED_UNIT ( * ) SI_UNIT ( $, .METRE. ) );
#56 = EDGE_CURVE ( 'NONE', #5, #216, #162, .T. ) ;
#57 = AXIS2_PLACEMENT_3D ( 'NONE', #41, #236, #62 ) ;
#58 = PRESENTATION_STYLE_ASSIGNMENT (( #227 ) ) ;
#59 = FILL_AREA_STYLE_COLOUR ( '', #48 ) ;
#60 = ADVANCED_FACE ( 'NONE', ( #30 ), #127, .T. ) ;
#61 = LENGTH_MEASURE_WITH_UNIT ( LENGTH_MEASURE( 0.02539999999999999897 ), #251 );
#62 = DIRECTION ( 'NONE',  ( -1.000000000000000000, 0.000000000000000000, 0.000000000000000000 ) ) ;
#63 = COLOUR_RGB ( '',1.000000000000000000, 0.000000000000000000, 0.000000000000000000 ) ;
#64 =( GEOMETRIC_REPRESENTATION_CONTEXT ( 3 ) GLOBAL_UNCERTAINTY_ASSIGNED_CONTEXT ( ( #238 ) ) GLOBAL_UNIT_ASSIGNED_CONTEXT ( ( #38, #17, #130 ) ) REPRESENTATION_CONTEXT ( 'NONE', 'WORKASPACE' ) );
#65 =( CONVERSION_BASED_UNIT ( 'INCH', #230 ) LENGTH_UNIT ( ) NAMED_UNIT ( #73 ) );
#66 = PRODUCT_CONTEXT ( 'NONE', #267, 'mechanical' ) ;
#67 = APPLICATION_PROTOCOL_DEFINITION ( 'draft international standard', 'automotive_design', 1998, #267 ) ;
#68 = AXIS2_PLACEMENT_3D ( 'NONE', #45, #116, #306 ) ;
#69 = FACE_OUTER_BOUND ( 'NONE', #118, .T. ) ;
#70 = MANIFOLD_SOLID_BREP ( 'Revolve - Cutting Edge', #165 ) ;
#71 = PRESENTATION_STYLE_ASSIGNMENT (( #199 ) ) ;
#72 = MECHANICAL_DESIGN_GEOMETRIC_PRESENTATION_REPRESENTATION (  '', ( #231 ), #64 ) ;
#73 = DIMENSIONAL_EXPONENTS ( 1.000000000000000000, 0.000000000000000000, 0.000000000000000000, 0.000000000000000000, 0.000000000000000000, 0.000000000000000000, 0.000000000000000000 ) ;
#74 = EDGE_LOOP ( 'NONE', ( #100, #101, #243, #50 ) ) ;
#75 = CYLINDRICAL_SURFACE ( 'NONE', #15, 0.3125000000000000000 ) ;
#76 = CARTESIAN_POINT ( 'NONE',  ( -6.123233995736759873E-17, 3.500000000000000000, 0.000000000000000000 ) ) ;
#77 = CARTESIAN_POINT ( 'NONE',  ( 0.000000000000000000, 0.000000000000000000, 0.000000000000000000 ) ) ;
#78 = DIRECTION ( 'NONE',  ( 0.000000000000000000, 0.000000000000000000, -1.000000000000000000 ) ) ;
#79 = EDGE_LOOP ( 'NONE', ( #96, #52 ) ) ;
#80 = FILL_AREA_STYLE ('',( #226 ) ) ;
#81 = SURFACE_STYLE_USAGE ( .BOTH. , #203 ) ;
#82 = STYLED_ITEM ( 'NONE', ( #152 ), #70 ) ;
#83 = COLOUR_RGB ( '',1.000000000000000000, 0.000000000000000000, 0.000000000000000000 ) ;
#84 = CARTESIAN_POINT ( 'NONE',  ( 3.827021247335478926E-17, 0.000000000000000000, 0.3125000000000000000 ) ) ;
#85 = DIRECTION ( 'NONE',  ( 2.721437331438560697E-17, -1.000000000000000000, 0.000000000000000000 ) ) ;
#86 =( NAMED_UNIT ( * ) SI_UNIT ( $, .STERADIAN. ) SOLID_ANGLE_UNIT ( ) );
#87 = SURFACE_SIDE_STYLE ('',( #133 ) ) ;
#88 = CLOSED_SHELL ( 'NONE', ( #285, #222, #3, #159 ) ) ;
#89 = LINE ( 'NONE', #16, #190 ) ;
#90 = EDGE_CURVE ( 'NONE', #295, #173, #286, .T. ) ;
#91 = CARTESIAN_POINT ( 'NONE',  ( -0.3125000000000000000, 1.250000000000000000, 0.000000000000000000 ) ) ;
#92 = DIRECTION ( 'NONE',  ( -1.000000000000000000, -2.721437331438560697E-17, 0.000000000000000000 ) ) ;
#93 = LENGTH_MEASURE_WITH_UNIT ( LENGTH_MEASURE( 0.02539999999999999897 ), #141 );
#94 = UNCERTAINTY_MEASURE_WITH_UNIT (LENGTH_MEASURE( 1.000000000000000082E-05 ), #282, 'distance_accuracy_value', 'NONE');
#95 = COLOUR_RGB ( '',0.7921568627450980005, 0.8196078431372548767, 0.9333333333333333481 ) ;
#96 = ORIENTED_EDGE ( 'NONE', *, *, #131, .T. ) ;
#97 = CIRCLE ( 'NONE', #2, 0.3125000000000000000 ) ;
#98 = DIMENSIONAL_EXPONENTS ( 1.000000000000000000, 0.000000000000000000, 0.000000000000000000, 0.000000000000000000, 0.000000000000000000, 0.000000000000000000, 0.000000000000000000 ) ;
#99 = EDGE_LOOP ( 'NONE', ( #221, #25, #54, #272 ) ) ;
#100 = ORIENTED_EDGE ( 'NONE', *, *, #51, .F. ) ;
#101 = ORIENTED_EDGE ( 'NONE', *, *, #200, .T. ) ;
#102 = CARTESIAN_POINT ( 'NONE',  ( 0.000000000000000000, 0.000000000000000000, 0.000000000000000000 ) ) ;
#103 = VECTOR ( 'NONE', #46, 39.37007874015748143 ) ;
#104 = SURFACE_SIDE_STYLE ('',( #10 ) ) ;
#105 =( NAMED_UNIT ( * ) PLANE_ANGLE_UNIT ( ) SI_UNIT ( $, .RADIAN. ) );
#106 = EDGE_CURVE ( 'NONE', #193, #273, #261, .T. ) ;
#107 = PLANE ( 'NONE',  #29 ) ;
#108 = DIRECTION ( 'NONE',  ( 0.000000000000000000, 0.000000000000000000, -1.000000000000000000 ) ) ;
#109 =( GEOMETRIC_REPRESENTATION_CONTEXT ( 3 ) GLOBAL_UNCERTAINTY_ASSIGNED_CONTEXT ( ( #94 ) ) GLOBAL_UNIT_ASSIGNED_CONTEXT ( ( #282, #212, #278 ) ) REPRESENTATION_CONTEXT ( 'NONE', 'WORKASPACE' ) );
#110 = DIRECTION ( 'NONE',  ( -0.000000000000000000, -1.000000000000000000, -0.000000000000000000 ) ) ;
#111 = DIRECTION ( 'NONE',  ( -2.721437331438560389E-17, 1.000000000000000000, -0.000000000000000000 ) ) ;
#112 = STYLED_ITEM ( 'NONE', ( #33 ), #60 ) ;
#113 = PRODUCT_DEFINITION_FORMATION_WITH_SPECIFIED_SOURCE ( 'ANY', '', #160, .NOT_KNOWN. ) ;
#114 = SURFACE_SIDE_STYLE ('',( #252 ) ) ;
#115 = CARTESIAN_POINT ( 'NONE',  ( 0.3125000000000000000, 3.500000000000000000, 3.827021247335478926E-17 ) ) ;
#116 = DIRECTION ( 'NONE',  ( -0.000000000000000000, -1.000000000000000000, -0.000000000000000000 ) ) ;
#117 = AXIS2_PLACEMENT_3D ( 'NONE', #102, #250, #31 ) ;
#118 = EDGE_LOOP ( 'NONE', ( #195, #197 ) ) ;
#119 = ADVANCED_FACE ( 'NONE', ( #12 ), #107, .T. ) ;
#120 = ORIENTED_EDGE ( 'NONE', *, *, #90, .F. ) ;
#121 = PRESENTATION_LAYER_ASSIGNMENT (  '', '', ( #231 ) ) ;
#122 = SURFACE_SIDE_STYLE ('',( #27 ) ) ;
#123 = ORIENTED_EDGE ( 'NONE', *, *, #132, .F. ) ;
#124 = CARTESIAN_POINT ( 'NONE',  ( 3.827021247335478926E-17, 1.250000000000000000, 0.3125000000000000000 ) ) ;
#125 = FILL_AREA_STYLE_COLOUR ( '', #95 ) ;
#126 = CARTESIAN_POINT ( 'NONE',  ( 0.000000000000000000, 0.000000000000000000, 0.000000000000000000 ) ) ;
#127 = PLANE ( 'NONE',  #191 ) ;
#128 = DIRECTION ( 'NONE',  ( 0.000000000000000000, -1.000000000000000000, -0.000000000000000000 ) ) ;
#129 = UNCERTAINTY_MEASURE_WITH_UNIT (LENGTH_MEASURE( 1.000000000000000082E-05 ), #234, 'distance_accuracy_value', 'NONE');
#130 =( NAMED_UNIT ( * ) SI_UNIT ( $, .STERADIAN. ) SOLID_ANGLE_UNIT ( ) );
#131 = EDGE_CURVE ( 'NONE', #173, #295, #185, .T. ) ;
#132 = EDGE_CURVE ( 'NONE', #5, #295, #89, .T. ) ;
#133 = SURFACE_STYLE_FILL_AREA ( #298 ) ;
#134 = CARTESIAN_POINT ( 'NONE',  ( 0.000000000000000000, 1.250000000000000000, 0.000000000000000000 ) ) ;
#135 = CARTESIAN_POINT ( 'NONE',  ( 0.000000000000000000, 1.250000000000000000, 0.000000000000000000 ) ) ;
#136 =( NAMED_UNIT ( * ) SI_UNIT ( $, .STERADIAN. ) SOLID_ANGLE_UNIT ( ) );
#137 = CARTESIAN_POINT ( 'NONE',  ( 0.3125000000000000000, 3.500000000000000000, 0.000000000000000000 ) ) ;
#138 = STYLED_ITEM ( 'NONE', ( #71 ), #39 ) ;
#139 = EDGE_CURVE ( 'NONE', #216, #5, #97, .T. ) ;
#140 =( NAMED_UNIT ( * ) SI_UNIT ( $, .STERADIAN. ) SOLID_ANGLE_UNIT ( ) );
#141 =( LENGTH_UNIT ( ) NAMED_UNIT ( * ) SI_UNIT ( $, .METRE. ) );
#142 = UNCERTAINTY_MEASURE_WITH_UNIT (LENGTH_MEASURE( 1.000000000000000082E-05 ), #290, 'distance_accuracy_value', 'NONE');
#143 = AXIS2_PLACEMENT_3D ( 'NONE', #135, #111, #300 ) ;
#144 = AXIS2_PLACEMENT_3D ( 'NONE', #137, #85, #158 ) ;
#145 = FACE_OUTER_BOUND ( 'NONE', #179, .T. ) ;
#146 = CARTESIAN_POINT ( 'NONE',  ( -0.3125000000000000555, 3.500000000000000000, 0.000000000000000000 ) ) ;
#147 =( CONVERSION_BASED_UNIT ( 'INCH', #293 ) LENGTH_UNIT ( ) NAMED_UNIT ( #98 ) );
#148 = EDGE_LOOP ( 'NONE', ( #245, #28 ) ) ;
#149 = CIRCLE ( 'NONE', #196, 0.3125000000000000000 ) ;
#150 = CARTESIAN_POINT ( 'NONE',  ( 0.3125000000000000000, 1.250000000000000000, 3.827021247335478926E-17 ) ) ;
#151 = AXIS2_PLACEMENT_3D ( 'NONE', #154, #7, #220 ) ;
#152 = PRESENTATION_STYLE_ASSIGNMENT (( #244 ) ) ;
#153 = ORIENTED_EDGE ( 'NONE', *, *, #167, .T. ) ;
#154 = CARTESIAN_POINT ( 'NONE',  ( -6.123233995736759873E-17, 3.500000000000000000, 0.000000000000000000 ) ) ;
#155 = EDGE_LOOP ( 'NONE', ( #294, #1 ) ) ;
#156 = DIRECTION ( 'NONE',  ( 0.000000000000000000, 0.000000000000000000, -1.000000000000000000 ) ) ;
#157 = DIRECTION ( 'NONE',  ( -0.000000000000000000, -1.000000000000000000, -0.000000000000000000 ) ) ;
#158 = DIRECTION ( 'NONE',  ( 1.000000000000000000, 2.721437331438560697E-17, 0.000000000000000000 ) ) ;
#159 = ADVANCED_FACE ( 'NONE', ( #183 ), #187, .F. ) ;
#160 = PRODUCT ( '30572', '30572', '', ( #66 ) ) ;
#161 = LENGTH_MEASURE_WITH_UNIT ( LENGTH_MEASURE( 0.02539999999999999897 ), #36 );
#162 = CIRCLE ( 'NONE', #143, 0.3125000000000000000 ) ;
#163 = DIRECTION ( 'NONE',  ( -2.721437331438560389E-17, 1.000000000000000000, -0.000000000000000000 ) ) ;
#164 = CARTESIAN_POINT ( 'NONE',  ( 0.000000000000000000, 1.250000000000000000, -0.3125000000000000000 ) ) ;
#165 = CLOSED_SHELL ( 'NONE', ( #269, #119, #39, #60 ) ) ;
#166 = DIRECTION ( 'NONE',  ( 0.000000000000000000, 0.000000000000000000, -1.000000000000000000 ) ) ;
#167 = EDGE_CURVE ( 'NONE', #194, #6, #44, .T. ) ;
#168 = CYLINDRICAL_SURFACE ( 'NONE', #35, 0.3125000000000000000 ) ;
#169 = SHAPE_DEFINITION_REPRESENTATION ( #288, #171 ) ;
#170 = LINE ( 'NONE', #146, #204 ) ;
#171 = ADVANCED_BREP_SHAPE_REPRESENTATION ( '30572', ( #70, #178, #177 ), #271 ) ;
#172 = MECHANICAL_DESIGN_GEOMETRIC_PRESENTATION_REPRESENTATION (  '', ( #192 ), #281 ) ;
#173 = VERTEX_POINT ( 'NONE', #279 ) ;
#174 = DIRECTION ( 'NONE',  ( -2.721437331438560389E-17, 1.000000000000000000, -0.000000000000000000 ) ) ;
#175 = ORIENTED_EDGE ( 'NONE', *, *, #51, .T. ) ;
#176 = ORIENTED_EDGE ( 'NONE', *, *, #56, .T. ) ;
#177 = AXIS2_PLACEMENT_3D ( 'NONE', #308, #235, #283 ) ;
#178 = MANIFOLD_SOLID_BREP ( 'Revolve - Tool Body (Straight Shanked)', #88 ) ;
#179 = EDGE_LOOP ( 'NONE', ( #123, #176, #49, #120 ) ) ;
#180 = LENGTH_MEASURE_WITH_UNIT ( LENGTH_MEASURE( 0.02539999999999999897 ), #55 );
#181 = PRESENTATION_LAYER_ASSIGNMENT (  '', '', ( #112 ) ) ;
#182 =( LENGTH_UNIT ( ) NAMED_UNIT ( * ) SI_UNIT ( $, .METRE. ) );
#183 = FACE_OUTER_BOUND ( 'NONE', #79, .T. ) ;
#184 = DIRECTION ( 'NONE',  ( -1.000000000000000000, 0.000000000000000000, 0.000000000000000000 ) ) ;
#185 = CIRCLE ( 'NONE', #57, 0.3125000000000000555 ) ;
#186 = SURFACE_SIDE_STYLE ('',( #277 ) ) ;
#187 = PLANE ( 'NONE',  #144 ) ;
#188 = EDGE_CURVE ( 'NONE', #216, #173, #170, .T. ) ;
#189 = MECHANICAL_DESIGN_GEOMETRIC_PRESENTATION_REPRESENTATION (  '', ( #138 ), #249 ) ;
#190 = VECTOR ( 'NONE', #303, 39.37007874015748143 ) ;
#191 = AXIS2_PLACEMENT_3D ( 'NONE', #77, #128, #247 ) ;
#192 = STYLED_ITEM ( 'NONE', ( #258 ), #119 ) ;
#193 = VERTEX_POINT ( 'NONE', #229 ) ;
#194 = VERTEX_POINT ( 'NONE', #164 ) ;
#195 = ORIENTED_EDGE ( 'NONE', *, *, #139, .F. ) ;
#196 = AXIS2_PLACEMENT_3D ( 'NONE', #126, #268, #78 ) ;
#197 = ORIENTED_EDGE ( 'NONE', *, *, #56, .F. ) ;
#198 =( GEOMETRIC_REPRESENTATION_CONTEXT ( 3 ) GLOBAL_UNCERTAINTY_ASSIGNED_CONTEXT ( ( #9 ) ) GLOBAL_UNIT_ASSIGNED_CONTEXT ( ( #275, #105, #53 ) ) REPRESENTATION_CONTEXT ( 'NONE', 'WORKASPACE' ) );
#199 = SURFACE_STYLE_USAGE ( .BOTH. , #104 ) ;
#200 = EDGE_CURVE ( 'NONE', #6, #194, #211, .T. ) ;
#201 = FILL_AREA_STYLE_COLOUR ( '', #18 ) ;
#202 = UNCERTAINTY_MEASURE_WITH_UNIT (LENGTH_MEASURE( 1.000000000000000082E-05 ), #65, 'distance_accuracy_value', 'NONE');
#203 = SURFACE_SIDE_STYLE ('',( #11 ) ) ;
#204 = VECTOR ( 'NONE', #284, 39.37007874015748143 ) ;
#205 = DIRECTION ( 'NONE',  ( 0.000000000000000000, 1.000000000000000000, 0.000000000000000000 ) ) ;
#206 =( NAMED_UNIT ( * ) PLANE_ANGLE_UNIT ( ) SI_UNIT ( $, .RADIAN. ) );
#207 = FILL_AREA_STYLE_COLOUR ( '', #83 ) ;
#208 = PRESENTATION_STYLE_ASSIGNMENT (( #233 ) ) ;
#209 = LENGTH_MEASURE_WITH_UNIT ( LENGTH_MEASURE( 0.02539999999999999897 ), #305 );
#210 = DIRECTION ( 'NONE',  ( -0.000000000000000000, -1.000000000000000000, -0.000000000000000000 ) ) ;
#211 = CIRCLE ( 'NONE', #68, 0.3125000000000000000 ) ;
#212 =( NAMED_UNIT ( * ) PLANE_ANGLE_UNIT ( ) SI_UNIT ( $, .RADIAN. ) );
#213 = DIRECTION ( 'NONE',  ( -2.721437331438560389E-17, 1.000000000000000000, -0.000000000000000000 ) ) ;
#214 = PLANE ( 'NONE',  #218 ) ;
#215 = DIMENSIONAL_EXPONENTS ( 1.000000000000000000, 0.000000000000000000, 0.000000000000000000, 0.000000000000000000, 0.000000000000000000, 0.000000000000000000, 0.000000000000000000 ) ;
#216 = VERTEX_POINT ( 'NONE', #91 ) ;
#217 = COLOUR_RGB ( '',1.000000000000000000, 0.000000000000000000, 0.000000000000000000 ) ;
#218 = AXIS2_PLACEMENT_3D ( 'NONE', #263, #21, #92 ) ;
#219 = FACE_OUTER_BOUND ( 'NONE', #74, .T. ) ;
#220 = DIRECTION ( 'NONE',  ( -1.000000000000000000, 0.000000000000000000, 0.000000000000000000 ) ) ;
#221 = ORIENTED_EDGE ( 'NONE', *, *, #139, .T. ) ;
#222 = ADVANCED_FACE ( 'NONE', ( #69 ), #214, .F. ) ;
#223 = FILL_AREA_STYLE_COLOUR ( '', #63 ) ;
#224 = FILL_AREA_STYLE ('',( #223 ) ) ;
#225 = PRESENTATION_LAYER_ASSIGNMENT (  '', '', ( #255 ) ) ;
#226 = FILL_AREA_STYLE_COLOUR ( '', #217 ) ;
#227 = SURFACE_STYLE_USAGE ( .BOTH. , #186 ) ;
#228 =( NAMED_UNIT ( * ) SI_UNIT ( $, .STERADIAN. ) SOLID_ANGLE_UNIT ( ) );
#229 = CARTESIAN_POINT ( 'NONE',  ( 0.000000000000000000, 0.000000000000000000, -0.3125000000000000000 ) ) ;
#230 = LENGTH_MEASURE_WITH_UNIT ( LENGTH_MEASURE( 0.02539999999999999897 ), #4 );
#231 = STYLED_ITEM ( 'NONE', ( #58 ), #269 ) ;
#232 = DIRECTION ( 'NONE',  ( 0.000000000000000000, -0.000000000000000000, 1.000000000000000000 ) ) ;
#233 = SURFACE_STYLE_USAGE ( .BOTH. , #114 ) ;
#234 =( CONVERSION_BASED_UNIT ( 'INCH', #161 ) LENGTH_UNIT ( ) NAMED_UNIT ( #309 ) );
#235 = DIRECTION ( 'NONE',  ( 0.000000000000000000, 0.000000000000000000, 1.000000000000000000 ) ) ;
#236 = DIRECTION ( 'NONE',  ( -2.721437331438560389E-17, 1.000000000000000000, -0.000000000000000000 ) ) ;
#237 = CARTESIAN_POINT ( 'NONE',  ( 0.000000000000000000, 0.000000000000000000, -0.3125000000000000000 ) ) ;
#238 = UNCERTAINTY_MEASURE_WITH_UNIT (LENGTH_MEASURE( 1.000000000000000082E-05 ), #38, 'distance_accuracy_value', 'NONE');
#239 = CARTESIAN_POINT ( 'NONE',  ( -6.123233995736759873E-17, 3.500000000000000000, 0.000000000000000000 ) ) ;
#240 = UNCERTAINTY_MEASURE_WITH_UNIT (LENGTH_MEASURE( 1.000000000000000082E-05 ), #147, 'distance_accuracy_value', 'NONE');
#241 = CYLINDRICAL_SURFACE ( 'NONE', #280, 0.3125000000000000000 ) ;
#242 = AXIS2_PLACEMENT_3D ( 'NONE', #259, #110, #108 ) ;
#243 = ORIENTED_EDGE ( 'NONE', *, *, #302, .T. ) ;
#244 = SURFACE_STYLE_USAGE ( .BOTH. , #122 ) ;
#245 = ORIENTED_EDGE ( 'NONE', *, *, #167, .F. ) ;
#246 = FACE_OUTER_BOUND ( 'NONE', #297, .T. ) ;
#247 = DIRECTION ( 'NONE',  ( 0.000000000000000000, 0.000000000000000000, -1.000000000000000000 ) ) ;
#248 = CYLINDRICAL_SURFACE ( 'NONE', #254, 0.3125000000000000000 ) ;
#249 =( GEOMETRIC_REPRESENTATION_CONTEXT ( 3 ) GLOBAL_UNCERTAINTY_ASSIGNED_CONTEXT ( ( #202 ) ) GLOBAL_UNIT_ASSIGNED_CONTEXT ( ( #65, #206, #86 ) ) REPRESENTATION_CONTEXT ( 'NONE', 'WORKASPACE' ) );
#250 = DIRECTION ( 'NONE',  ( -0.000000000000000000, -1.000000000000000000, -0.000000000000000000 ) ) ;
#251 =( LENGTH_UNIT ( ) NAMED_UNIT ( * ) SI_UNIT ( $, .METRE. ) );
#252 = SURFACE_STYLE_FILL_AREA ( #19 ) ;
#253 = CARTESIAN_POINT ( 'NONE',  ( 0.000000000000000000, 0.000000000000000000, 0.000000000000000000 ) ) ;
#254 = AXIS2_PLACEMENT_3D ( 'NONE', #76, #174, #26 ) ;
#255 = STYLED_ITEM ( 'NONE', ( #208 ), #178 ) ;
#256 =( NAMED_UNIT ( * ) PLANE_ANGLE_UNIT ( ) SI_UNIT ( $, .RADIAN. ) );
#257 = LINE ( 'NONE', #84, #265 ) ;
#258 = PRESENTATION_STYLE_ASSIGNMENT (( #13 ) ) ;
#259 = CARTESIAN_POINT ( 'NONE',  ( 0.000000000000000000, 1.250000000000000000, 0.000000000000000000 ) ) ;
#260 =( GEOMETRIC_REPRESENTATION_CONTEXT ( 3 ) GLOBAL_UNCERTAINTY_ASSIGNED_CONTEXT ( ( #240 ) ) GLOBAL_UNIT_ASSIGNED_CONTEXT ( ( #147, #291, #228 ) ) REPRESENTATION_CONTEXT ( 'NONE', 'WORKASPACE' ) );
#261 = CIRCLE ( 'NONE', #117, 0.3125000000000000000 ) ;
#262 = APPLICATION_PROTOCOL_DEFINITION ( 'draft international standard', 'automotive_design', 1998, #24 ) ;
#263 = CARTESIAN_POINT ( 'NONE',  ( 1.157222054523036369E-34, 1.250000000000000000, 0.000000000000000000 ) ) ;
#264 = DIMENSIONAL_EXPONENTS ( 1.000000000000000000, 0.000000000000000000, 0.000000000000000000, 0.000000000000000000, 0.000000000000000000, 0.000000000000000000, 0.000000000000000000 ) ;
#265 = VECTOR ( 'NONE', #157, 39.37007874015748143 ) ;
#266 = PRESENTATION_LAYER_ASSIGNMENT (  '', '', ( #192 ) ) ;
#267 = APPLICATION_CONTEXT ( 'automotive_design' ) ;
#268 = DIRECTION ( 'NONE',  ( -0.000000000000000000, -1.000000000000000000, -0.000000000000000000 ) ) ;
#269 = ADVANCED_FACE ( 'NONE', ( #246 ), #75, .T. ) ;
#270 = ORIENTED_EDGE ( 'NONE', *, *, #106, .F. ) ;
#271 =( GEOMETRIC_REPRESENTATION_CONTEXT ( 3 ) GLOBAL_UNCERTAINTY_ASSIGNED_CONTEXT ( ( #142 ) ) GLOBAL_UNIT_ASSIGNED_CONTEXT ( ( #290, #43, #140 ) ) REPRESENTATION_CONTEXT ( 'NONE', 'WORKASPACE' ) );
#272 = ORIENTED_EDGE ( 'NONE', *, *, #188, .F. ) ;
#273 = VERTEX_POINT ( 'NONE', #47 ) ;
#274 = PRODUCT_DEFINITION_CONTEXT ( 'detailed design', #24, 'design' ) ;
#275 =( CONVERSION_BASED_UNIT ( 'INCH', #180 ) LENGTH_UNIT ( ) NAMED_UNIT ( #289 ) );
#276 = PRESENTATION_LAYER_ASSIGNMENT (  '', '', ( #82 ) ) ;
#277 = SURFACE_STYLE_FILL_AREA ( #304 ) ;
#278 =( NAMED_UNIT ( * ) SI_UNIT ( $, .STERADIAN. ) SOLID_ANGLE_UNIT ( ) );
#279 = CARTESIAN_POINT ( 'NONE',  ( -0.3125000000000001665, 3.500000000000000000, 0.000000000000000000 ) ) ;
#280 = AXIS2_PLACEMENT_3D ( 'NONE', #37, #301, #156 ) ;
#281 =( GEOMETRIC_REPRESENTATION_CONTEXT ( 3 ) GLOBAL_UNCERTAINTY_ASSIGNED_CONTEXT ( ( #129 ) ) GLOBAL_UNIT_ASSIGNED_CONTEXT ( ( #234, #256, #136 ) ) REPRESENTATION_CONTEXT ( 'NONE', 'WORKASPACE' ) );
#282 =( CONVERSION_BASED_UNIT ( 'INCH', #209 ) LENGTH_UNIT ( ) NAMED_UNIT ( #264 ) );
#283 = DIRECTION ( 'NONE',  ( 1.000000000000000000, 0.000000000000000000, 0.000000000000000000 ) ) ;
#284 = DIRECTION ( 'NONE',  ( -2.721437331438560697E-17, 1.000000000000000000, -0.000000000000000000 ) ) ;
#285 = ADVANCED_FACE ( 'NONE', ( #307 ), #168, .T. ) ;
#286 = CIRCLE ( 'NONE', #151, 0.3125000000000000555 ) ;
#287 = DIMENSIONAL_EXPONENTS ( 1.000000000000000000, 0.000000000000000000, 0.000000000000000000, 0.000000000000000000, 0.000000000000000000, 0.000000000000000000, 0.000000000000000000 ) ;
#288 = PRODUCT_DEFINITION_SHAPE ( 'NONE', 'NONE',  #299 ) ;
#289 = DIMENSIONAL_EXPONENTS ( 1.000000000000000000, 0.000000000000000000, 0.000000000000000000, 0.000000000000000000, 0.000000000000000000, 0.000000000000000000, 0.000000000000000000 ) ;
#290 =( CONVERSION_BASED_UNIT ( 'INCH', #93 ) LENGTH_UNIT ( ) NAMED_UNIT ( #287 ) );
#291 =( NAMED_UNIT ( * ) PLANE_ANGLE_UNIT ( ) SI_UNIT ( $, .RADIAN. ) );
#292 = MECHANICAL_DESIGN_GEOMETRIC_PRESENTATION_REPRESENTATION (  '', ( #82 ), #198 ) ;
#293 = LENGTH_MEASURE_WITH_UNIT ( LENGTH_MEASURE( 0.02539999999999999897 ), #182 );
#294 = ORIENTED_EDGE ( 'NONE', *, *, #106, .T. ) ;
#295 = VERTEX_POINT ( 'NONE', #115 ) ;
#296 = FILL_AREA_STYLE ('',( #125 ) ) ;
#297 = EDGE_LOOP ( 'NONE', ( #153, #175, #270, #23 ) ) ;
#298 = FILL_AREA_STYLE ('',( #201 ) ) ;
#299 = PRODUCT_DEFINITION ( 'UNKNOWN', '', #113, #274 ) ;
#300 = DIRECTION ( 'NONE',  ( -1.000000000000000000, 0.000000000000000000, 0.000000000000000000 ) ) ;
#301 = DIRECTION ( 'NONE',  ( -0.000000000000000000, -1.000000000000000000, -0.000000000000000000 ) ) ;
#302 = EDGE_CURVE ( 'NONE', #194, #193, #40, .T. ) ;
#303 = DIRECTION ( 'NONE',  ( -2.721437331438560697E-17, 1.000000000000000000, -0.000000000000000000 ) ) ;
#304 = FILL_AREA_STYLE ('',( #207 ) ) ;
#305 =( LENGTH_UNIT ( ) NAMED_UNIT ( * ) SI_UNIT ( $, .METRE. ) );
#306 = DIRECTION ( 'NONE',  ( 0.000000000000000000, 0.000000000000000000, -1.000000000000000000 ) ) ;
#307 = FACE_OUTER_BOUND ( 'NONE', #99, .T. ) ;
#308 = CARTESIAN_POINT ( 'NONE',  ( 0.000000000000000000, 0.000000000000000000, 0.000000000000000000 ) ) ;
#309 = DIMENSIONAL_EXPONENTS ( 1.000000000000000000, 0.000000000000000000, 0.000000000000000000, 0.000000000000000000, 0.000000000000000000, 0.000000000000000000, 0.000000000000000000 ) ;
ENDSEC;
END-ISO-10303-21;
