ISO-10303-21;
HEADER;
FILE_DESCRIPTION (( 'STEP AP214' ),
    '1' );
FILE_NAME ('30542.STEP',
    '2023-06-22T18:38:46',
    ( '' ),
    ( '' ),
    'SwSTEP 2.0',
    'SolidWorks 2023',
    '' );
FILE_SCHEMA (( 'AUTOMOTIVE_DESIGN' ));
ENDSEC;

DATA;
#1 = CARTESIAN_POINT ( 'NONE',  ( 0.000000000000000000, 1.625000000000000000, 0.000000000000000000 ) ) ;
#2 = FILL_AREA_STYLE_COLOUR ( '', #216 ) ;
#3 = COLOUR_RGB ( '',0.7921568627450980005, 0.8196078431372548767, 0.9333333333333333481 ) ;
#4 = CARTESIAN_POINT ( 'NONE',  ( 0.000000000000000000, 1.625000000000000000, 0.000000000000000000 ) ) ;
#5 = LENGTH_MEASURE_WITH_UNIT ( LENGTH_MEASURE( 0.02539999999999999897 ), #27 );
#6 = PRESENTATION_STYLE_ASSIGNMENT (( #260 ) ) ;
#7 = APPLICATION_PROTOCOL_DEFINITION ( 'draft international standard', 'automotive_design', 1998, #158 ) ;
#8 = DIRECTION ( 'NONE',  ( -5.156407575357275299E-17, 1.000000000000000000, -0.000000000000000000 ) ) ;
#9 = VECTOR ( 'NONE', #31, 39.37007874015748143 ) ;
#10 = SURFACE_SIDE_STYLE ('',( #57 ) ) ;
#11 = CARTESIAN_POINT ( 'NONE',  ( 0.2500000000000000000, 4.000000000000000000, 0.000000000000000000 ) ) ;
#12 = SURFACE_STYLE_FILL_AREA ( #139 ) ;
#13 = AXIS2_PLACEMENT_3D ( 'NONE', #65, #185, #35 ) ;
#14 = EDGE_CURVE ( 'NONE', #46, #120, #106, .T. ) ;
#15 = MECHANICAL_DESIGN_GEOMETRIC_PRESENTATION_REPRESENTATION (  '', ( #150 ), #199 ) ;
#16 = CARTESIAN_POINT ( 'NONE',  ( 3.061616997868383018E-17, 1.625000000000000000, 0.2500000000000000000 ) ) ;
#17 = CARTESIAN_POINT ( 'NONE',  ( 0.000000000000000000, 1.625000000000000000, -0.2500000000000000000 ) ) ;
#18 = EDGE_CURVE ( 'NONE', #46, #76, #78, .T. ) ;
#19 = AXIS2_PLACEMENT_3D ( 'NONE', #32, #112, #209 ) ;
#20 = UNCERTAINTY_MEASURE_WITH_UNIT (LENGTH_MEASURE( 1.000000000000000082E-05 ), #231, 'distance_accuracy_value', 'NONE');
#21 = FACE_OUTER_BOUND ( 'NONE', #283, .T. ) ;
#22 =( GEOMETRIC_REPRESENTATION_CONTEXT ( 3 ) GLOBAL_UNCERTAINTY_ASSIGNED_CONTEXT ( ( #66 ) ) GLOBAL_UNIT_ASSIGNED_CONTEXT ( ( #100, #292, #127 ) ) REPRESENTATION_CONTEXT ( 'NONE', 'WORKASPACE' ) );
#23 = AXIS2_PLACEMENT_3D ( 'NONE', #1, #284, #101 ) ;
#24 = EDGE_LOOP ( 'NONE', ( #174, #149, #151, #145 ) ) ;
#25 = DIRECTION ( 'NONE',  ( 0.000000000000000000, -0.000000000000000000, 1.000000000000000000 ) ) ;
#26 = CYLINDRICAL_SURFACE ( 'NONE', #277, 0.2500000000000000000 ) ;
#27 =( LENGTH_UNIT ( ) NAMED_UNIT ( * ) SI_UNIT ( $, .METRE. ) );
#28 = MECHANICAL_DESIGN_GEOMETRIC_PRESENTATION_REPRESENTATION (  '', ( #299 ), #37 ) ;
#29 = MANIFOLD_SOLID_BREP ( 'Revolve - Cutting Edge', #96 ) ;
#30 = ADVANCED_FACE ( 'NONE', ( #291 ), #26, .T. ) ;
#31 = DIRECTION ( 'NONE',  ( -5.156407575357275916E-17, 1.000000000000000000, -0.000000000000000000 ) ) ;
#32 = CARTESIAN_POINT ( 'NONE',  ( 0.000000000000000000, 0.000000000000000000, 0.000000000000000000 ) ) ;
#33 = DIMENSIONAL_EXPONENTS ( 1.000000000000000000, 0.000000000000000000, 0.000000000000000000, 0.000000000000000000, 0.000000000000000000, 0.000000000000000000, 0.000000000000000000 ) ;
#34 =( NAMED_UNIT ( * ) SI_UNIT ( $, .STERADIAN. ) SOLID_ANGLE_UNIT ( ) );
#35 = DIRECTION ( 'NONE',  ( -1.000000000000000000, 0.000000000000000000, 0.000000000000000000 ) ) ;
#36 =( GEOMETRIC_REPRESENTATION_CONTEXT ( 3 ) GLOBAL_UNCERTAINTY_ASSIGNED_CONTEXT ( ( #41 ) ) GLOBAL_UNIT_ASSIGNED_CONTEXT ( ( #98, #287, #202 ) ) REPRESENTATION_CONTEXT ( 'NONE', 'WORKASPACE' ) );
#37 =( GEOMETRIC_REPRESENTATION_CONTEXT ( 3 ) GLOBAL_UNCERTAINTY_ASSIGNED_CONTEXT ( ( #60 ) ) GLOBAL_UNIT_ASSIGNED_CONTEXT ( ( #165, #297, #34 ) ) REPRESENTATION_CONTEXT ( 'NONE', 'WORKASPACE' ) );
#38 = CARTESIAN_POINT ( 'NONE',  ( 0.2500000000000000555, 1.625000000000000000, 3.061616997868384251E-17 ) ) ;
#39 = DIRECTION ( 'NONE',  ( -5.156407575357275299E-17, 1.000000000000000000, -0.000000000000000000 ) ) ;
#40 =( NAMED_UNIT ( * ) SI_UNIT ( $, .STERADIAN. ) SOLID_ANGLE_UNIT ( ) );
#41 = UNCERTAINTY_MEASURE_WITH_UNIT (LENGTH_MEASURE( 1.000000000000000082E-05 ), #98, 'distance_accuracy_value', 'NONE');
#42 = COLOUR_RGB ( '',0.7921568627450980005, 0.8196078431372548767, 0.9333333333333333481 ) ;
#43 = PRESENTATION_STYLE_ASSIGNMENT (( #250 ) ) ;
#44 = VERTEX_POINT ( 'NONE', #17 ) ;
#45 = FILL_AREA_STYLE ('',( #233 ) ) ;
#46 = VERTEX_POINT ( 'NONE', #295 ) ;
#47 =( NAMED_UNIT ( * ) SI_UNIT ( $, .STERADIAN. ) SOLID_ANGLE_UNIT ( ) );
#48 = STYLED_ITEM ( 'NONE', ( #59 ), #29 ) ;
#49 = AXIS2_PLACEMENT_3D ( 'NONE', #152, #215, #203 ) ;
#50 = ORIENTED_EDGE ( 'NONE', *, *, #73, .F. ) ;
#51 =( CONVERSION_BASED_UNIT ( 'INCH', #256 ) LENGTH_UNIT ( ) NAMED_UNIT ( #142 ) );
#52 = ORIENTED_EDGE ( 'NONE', *, *, #18, .F. ) ;
#53 = ORIENTED_EDGE ( 'NONE', *, *, #18, .T. ) ;
#54 = AXIS2_PLACEMENT_3D ( 'NONE', #200, #8, #241 ) ;
#55 = CIRCLE ( 'NONE', #23, 0.2500000000000000000 ) ;
#56 = SURFACE_STYLE_USAGE ( .BOTH. , #259 ) ;
#57 = SURFACE_STYLE_FILL_AREA ( #220 ) ;
#58 = EDGE_CURVE ( 'NONE', #169, #123, #248, .T. ) ;
#59 = PRESENTATION_STYLE_ASSIGNMENT (( #218 ) ) ;
#60 = UNCERTAINTY_MEASURE_WITH_UNIT (LENGTH_MEASURE( 1.000000000000000082E-05 ), #165, 'distance_accuracy_value', 'NONE');
#61 = CIRCLE ( 'NONE', #194, 0.2500000000000001110 ) ;
#62 = CARTESIAN_POINT ( 'NONE',  ( 0.2499999999999999167, 4.000000000000000000, 3.061616997868383634E-17 ) ) ;
#63 = AXIS2_PLACEMENT_3D ( 'NONE', #11, #83, #162 ) ;
#64 = CARTESIAN_POINT ( 'NONE',  ( 3.061616997868383018E-17, 0.000000000000000000, 0.2500000000000000000 ) ) ;
#65 = CARTESIAN_POINT ( 'NONE',  ( -1.224646799147352714E-16, 4.000000000000000000, 0.000000000000000000 ) ) ;
#66 = UNCERTAINTY_MEASURE_WITH_UNIT (LENGTH_MEASURE( 1.000000000000000082E-05 ), #100, 'distance_accuracy_value', 'NONE');
#67 = DIMENSIONAL_EXPONENTS ( 1.000000000000000000, 0.000000000000000000, 0.000000000000000000, 0.000000000000000000, 0.000000000000000000, 0.000000000000000000, 0.000000000000000000 ) ;
#68 = MECHANICAL_DESIGN_GEOMETRIC_PRESENTATION_REPRESENTATION (  '', ( #242 ), #294 ) ;
#69 = PRESENTATION_STYLE_ASSIGNMENT (( #89 ) ) ;
#70 = FACE_OUTER_BOUND ( 'NONE', #212, .T. ) ;
#71 = ORIENTED_EDGE ( 'NONE', *, *, #103, .F. ) ;
#72 = FILL_AREA_STYLE ('',( #302 ) ) ;
#73 = EDGE_CURVE ( 'NONE', #171, #123, #113, .T. ) ;
#74 = CLOSED_SHELL ( 'NONE', ( #181, #170, #99, #153 ) ) ;
#75 = COLOUR_RGB ( '',1.000000000000000000, 0.000000000000000000, 0.000000000000000000 ) ;
#76 = VERTEX_POINT ( 'NONE', #226 ) ;
#77 = PRODUCT_RELATED_PRODUCT_CATEGORY ( 'part', '', ( #131 ) ) ;
#78 = LINE ( 'NONE', #265, #9 ) ;
#79 = FACE_OUTER_BOUND ( 'NONE', #24, .T. ) ;
#80 = MECHANICAL_DESIGN_GEOMETRIC_PRESENTATION_REPRESENTATION (  '', ( #48 ), #36 ) ;
#81 = FACE_OUTER_BOUND ( 'NONE', #192, .T. ) ;
#82 = STYLED_ITEM ( 'NONE', ( #6 ), #30 ) ;
#83 = DIRECTION ( 'NONE',  ( 5.156407575357275916E-17, -1.000000000000000000, 0.000000000000000000 ) ) ;
#84 = DIRECTION ( 'NONE',  ( -5.156407575357275916E-17, 1.000000000000000000, -0.000000000000000000 ) ) ;
#85 = ADVANCED_BREP_SHAPE_REPRESENTATION ( '30542', ( #29, #144, #173 ), #117 ) ;
#86 = SURFACE_STYLE_USAGE ( .BOTH. , #230 ) ;
#87 =( CONVERSION_BASED_UNIT ( 'INCH', #214 ) LENGTH_UNIT ( ) NAMED_UNIT ( #33 ) );
#88 = EDGE_CURVE ( 'NONE', #123, #171, #154, .T. ) ;
#89 = SURFACE_STYLE_USAGE ( .BOTH. , #141 ) ;
#90 = CIRCLE ( 'NONE', #261, 0.2500000000000000000 ) ;
#91 = PRESENTATION_LAYER_ASSIGNMENT (  '', '', ( #242 ) ) ;
#92 = SURFACE_STYLE_FILL_AREA ( #72 ) ;
#93 =( NAMED_UNIT ( * ) PLANE_ANGLE_UNIT ( ) SI_UNIT ( $, .RADIAN. ) );
#94 = PLANE ( 'NONE',  #190 ) ;
#95 = ORIENTED_EDGE ( 'NONE', *, *, #88, .T. ) ;
#96 = CLOSED_SHELL ( 'NONE', ( #30, #222, #270, #191 ) ) ;
#97 = FILL_AREA_STYLE ('',( #2 ) ) ;
#98 =( CONVERSION_BASED_UNIT ( 'INCH', #5 ) LENGTH_UNIT ( ) NAMED_UNIT ( #115 ) );
#99 = ADVANCED_FACE ( 'NONE', ( #81 ), #132, .T. ) ;
#100 =( CONVERSION_BASED_UNIT ( 'INCH', #205 ) LENGTH_UNIT ( ) NAMED_UNIT ( #136 ) );
#101 = DIRECTION ( 'NONE',  ( 0.000000000000000000, 0.000000000000000000, -1.000000000000000000 ) ) ;
#102 = COLOUR_RGB ( '',1.000000000000000000, 0.000000000000000000, 0.000000000000000000 ) ;
#103 = EDGE_CURVE ( 'NONE', #285, #76, #61, .T. ) ;
#104 = DIRECTION ( 'NONE',  ( -0.000000000000000000, -1.000000000000000000, -0.000000000000000000 ) ) ;
#105 = DIRECTION ( 'NONE',  ( 0.000000000000000000, 0.000000000000000000, -1.000000000000000000 ) ) ;
#106 = CIRCLE ( 'NONE', #54, 0.2500000000000000000 ) ;
#107 = AXIS2_PLACEMENT_3D ( 'NONE', #275, #303, #253 ) ;
#108 = DIRECTION ( 'NONE',  ( -0.000000000000000000, -1.000000000000000000, -0.000000000000000000 ) ) ;
#109 = CARTESIAN_POINT ( 'NONE',  ( 3.061616997868383018E-17, 0.000000000000000000, 0.2500000000000000000 ) ) ;
#110 = EDGE_CURVE ( 'NONE', #76, #285, #232, .T. ) ;
#111 = UNCERTAINTY_MEASURE_WITH_UNIT (LENGTH_MEASURE( 1.000000000000000082E-05 ), #51, 'distance_accuracy_value', 'NONE');
#112 = DIRECTION ( 'NONE',  ( -0.000000000000000000, -1.000000000000000000, -0.000000000000000000 ) ) ;
#113 = CIRCLE ( 'NONE', #160, 0.2500000000000000000 ) ;
#114 = ORIENTED_EDGE ( 'NONE', *, *, #166, .F. ) ;
#115 = DIMENSIONAL_EXPONENTS ( 1.000000000000000000, 0.000000000000000000, 0.000000000000000000, 0.000000000000000000, 0.000000000000000000, 0.000000000000000000, 0.000000000000000000 ) ;
#116 = LENGTH_MEASURE_WITH_UNIT ( LENGTH_MEASURE( 0.02539999999999999897 ), #249 );
#117 =( GEOMETRIC_REPRESENTATION_CONTEXT ( 3 ) GLOBAL_UNCERTAINTY_ASSIGNED_CONTEXT ( ( #298 ) ) GLOBAL_UNIT_ASSIGNED_CONTEXT ( ( #217, #286, #176 ) ) REPRESENTATION_CONTEXT ( 'NONE', 'WORKASPACE' ) );
#118 = DIRECTION ( 'NONE',  ( -5.156407575357275916E-17, 1.000000000000000000, 0.000000000000000000 ) ) ;
#119 = EDGE_CURVE ( 'NONE', #120, #46, #90, .T. ) ;
#120 = VERTEX_POINT ( 'NONE', #38 ) ;
#121 = CARTESIAN_POINT ( 'NONE',  ( 3.323567385400236968E-34, 1.625000000000000000, 0.000000000000000000 ) ) ;
#122 = PRESENTATION_STYLE_ASSIGNMENT (( #56 ) ) ;
#123 = VERTEX_POINT ( 'NONE', #64 ) ;
#124 =( NAMED_UNIT ( * ) SI_UNIT ( $, .STERADIAN. ) SOLID_ANGLE_UNIT ( ) );
#125 = MECHANICAL_DESIGN_GEOMETRIC_PRESENTATION_REPRESENTATION (  '', ( #82 ), #22 ) ;
#126 = PRESENTATION_LAYER_ASSIGNMENT (  '', '', ( #299 ) ) ;
#127 =( NAMED_UNIT ( * ) SI_UNIT ( $, .STERADIAN. ) SOLID_ANGLE_UNIT ( ) );
#128 = SHAPE_DEFINITION_REPRESENTATION ( #140, #85 ) ;
#129 = CARTESIAN_POINT ( 'NONE',  ( 0.000000000000000000, 0.000000000000000000, 0.000000000000000000 ) ) ;
#130 = PRODUCT_DEFINITION_FORMATION_WITH_SPECIFIED_SOURCE ( 'ANY', '', #131, .NOT_KNOWN. ) ;
#131 = PRODUCT ( '30542', '30542', '', ( #221 ) ) ;
#132 = CYLINDRICAL_SURFACE ( 'NONE', #13, 0.2500000000000000555 ) ;
#133 = DIRECTION ( 'NONE',  ( -0.000000000000000000, -1.000000000000000000, -0.000000000000000000 ) ) ;
#134 = DIRECTION ( 'NONE',  ( -0.000000000000000000, -1.000000000000000000, -0.000000000000000000 ) ) ;
#135 = STYLED_ITEM ( 'NONE', ( #43 ), #191 ) ;
#136 = DIMENSIONAL_EXPONENTS ( 1.000000000000000000, 0.000000000000000000, 0.000000000000000000, 0.000000000000000000, 0.000000000000000000, 0.000000000000000000, 0.000000000000000000 ) ;
#137 = EDGE_CURVE ( 'NONE', #120, #285, #228, .T. ) ;
#138 = DIRECTION ( 'NONE',  ( 0.000000000000000000, 0.000000000000000000, -1.000000000000000000 ) ) ;
#139 = FILL_AREA_STYLE ('',( #210 ) ) ;
#140 = PRODUCT_DEFINITION_SHAPE ( 'NONE', 'NONE',  #240 ) ;
#141 = SURFACE_SIDE_STYLE ('',( #92 ) ) ;
#142 = DIMENSIONAL_EXPONENTS ( 1.000000000000000000, 0.000000000000000000, 0.000000000000000000, 0.000000000000000000, 0.000000000000000000, 0.000000000000000000, 0.000000000000000000 ) ;
#143 = SURFACE_STYLE_FILL_AREA ( #45 ) ;
#144 = MANIFOLD_SOLID_BREP ( 'Revolve - Tool Body (Straight Shanked)', #74 ) ;
#145 = ORIENTED_EDGE ( 'NONE', *, *, #88, .F. ) ;
#146 = DIRECTION ( 'NONE',  ( 0.000000000000000000, 0.000000000000000000, -1.000000000000000000 ) ) ;
#147 = ORIENTED_EDGE ( 'NONE', *, *, #307, .T. ) ;
#148 = FACE_OUTER_BOUND ( 'NONE', #193, .T. ) ;
#149 = ORIENTED_EDGE ( 'NONE', *, *, #178, .T. ) ;
#150 = STYLED_ITEM ( 'NONE', ( #122 ), #270 ) ;
#151 = ORIENTED_EDGE ( 'NONE', *, *, #166, .T. ) ;
#152 = CARTESIAN_POINT ( 'NONE',  ( 0.000000000000000000, 0.000000000000000000, 0.000000000000000000 ) ) ;
#153 = ADVANCED_FACE ( 'NONE', ( #207 ), #161, .F. ) ;
#154 = CIRCLE ( 'NONE', #19, 0.2500000000000000000 ) ;
#155 = COLOUR_RGB ( '',1.000000000000000000, 0.000000000000000000, 0.000000000000000000 ) ;
#156 = ORIENTED_EDGE ( 'NONE', *, *, #137, .F. ) ;
#157 =( LENGTH_UNIT ( ) NAMED_UNIT ( * ) SI_UNIT ( $, .METRE. ) );
#158 = APPLICATION_CONTEXT ( 'automotive_design' ) ;
#159 =( NAMED_UNIT ( * ) PLANE_ANGLE_UNIT ( ) SI_UNIT ( $, .RADIAN. ) );
#160 = AXIS2_PLACEMENT_3D ( 'NONE', #187, #133, #105 ) ;
#161 = PLANE ( 'NONE',  #63 ) ;
#162 = DIRECTION ( 'NONE',  ( 1.000000000000000000, 5.156407575357275916E-17, 0.000000000000000000 ) ) ;
#163 = DIRECTION ( 'NONE',  ( -5.156407575357275299E-17, 1.000000000000000000, -0.000000000000000000 ) ) ;
#164 = PRESENTATION_LAYER_ASSIGNMENT (  '', '', ( #150 ) ) ;
#165 =( CONVERSION_BASED_UNIT ( 'INCH', #274 ) LENGTH_UNIT ( ) NAMED_UNIT ( #301 ) );
#166 = EDGE_CURVE ( 'NONE', #44, #171, #186, .T. ) ;
#167 = UNCERTAINTY_MEASURE_WITH_UNIT (LENGTH_MEASURE( 1.000000000000000082E-05 ), #87, 'distance_accuracy_value', 'NONE');
#168 = CARTESIAN_POINT ( 'NONE',  ( 0.000000000000000000, 0.000000000000000000, -0.2500000000000000000 ) ) ;
#169 = VERTEX_POINT ( 'NONE', #16 ) ;
#170 = ADVANCED_FACE ( 'NONE', ( #21 ), #254, .F. ) ;
#171 = VERTEX_POINT ( 'NONE', #168 ) ;
#172 = APPLICATION_CONTEXT ( 'automotive_design' ) ;
#173 = AXIS2_PLACEMENT_3D ( 'NONE', #244, #288, #262 ) ;
#174 = ORIENTED_EDGE ( 'NONE', *, *, #58, .F. ) ;
#175 = LENGTH_MEASURE_WITH_UNIT ( LENGTH_MEASURE( 0.02539999999999999897 ), #201 );
#176 =( NAMED_UNIT ( * ) SI_UNIT ( $, .STERADIAN. ) SOLID_ANGLE_UNIT ( ) );
#177 = SURFACE_SIDE_STYLE ('',( #183 ) ) ;
#178 = EDGE_CURVE ( 'NONE', #169, #44, #304, .T. ) ;
#179 = VECTOR ( 'NONE', #84, 39.37007874015748143 ) ;
#180 = DIRECTION ( 'NONE',  ( 0.000000000000000000, 1.000000000000000000, 0.000000000000000000 ) ) ;
#181 = ADVANCED_FACE ( 'NONE', ( #70 ), #237, .T. ) ;
#182 = FILL_AREA_STYLE_COLOUR ( '', #155 ) ;
#183 = SURFACE_STYLE_FILL_AREA ( #97 ) ;
#184 = ORIENTED_EDGE ( 'NONE', *, *, #307, .F. ) ;
#185 = DIRECTION ( 'NONE',  ( -5.156407575357275299E-17, 1.000000000000000000, -0.000000000000000000 ) ) ;
#186 = LINE ( 'NONE', #268, #305 ) ;
#187 = CARTESIAN_POINT ( 'NONE',  ( 0.000000000000000000, 0.000000000000000000, 0.000000000000000000 ) ) ;
#188 = DIRECTION ( 'NONE',  ( -1.000000000000000000, 0.000000000000000000, 0.000000000000000000 ) ) ;
#189 = PRODUCT_DEFINITION_CONTEXT ( 'detailed design', #158, 'design' ) ;
#190 = AXIS2_PLACEMENT_3D ( 'NONE', #4, #180, #25 ) ;
#191 = ADVANCED_FACE ( 'NONE', ( #148 ), #276, .T. ) ;
#192 = EDGE_LOOP ( 'NONE', ( #156, #255, #53, #71 ) ) ;
#193 = EDGE_LOOP ( 'NONE', ( #251, #95 ) ) ;
#194 = AXIS2_PLACEMENT_3D ( 'NONE', #269, #296, #206 ) ;
#195 = CARTESIAN_POINT ( 'NONE',  ( 0.000000000000000000, 0.000000000000000000, 0.000000000000000000 ) ) ;
#196 = ORIENTED_EDGE ( 'NONE', *, *, #103, .T. ) ;
#197 = DIRECTION ( 'NONE',  ( -1.000000000000000000, -5.156407575357275916E-17, 0.000000000000000000 ) ) ;
#198 = ORIENTED_EDGE ( 'NONE', *, *, #14, .F. ) ;
#199 =( GEOMETRIC_REPRESENTATION_CONTEXT ( 3 ) GLOBAL_UNCERTAINTY_ASSIGNED_CONTEXT ( ( #111 ) ) GLOBAL_UNIT_ASSIGNED_CONTEXT ( ( #51, #159, #124 ) ) REPRESENTATION_CONTEXT ( 'NONE', 'WORKASPACE' ) );
#200 = CARTESIAN_POINT ( 'NONE',  ( 3.032960542342103792E-32, 1.625000000000000000, 0.000000000000000000 ) ) ;
#201 =( LENGTH_UNIT ( ) NAMED_UNIT ( * ) SI_UNIT ( $, .METRE. ) );
#202 =( NAMED_UNIT ( * ) SI_UNIT ( $, .STERADIAN. ) SOLID_ANGLE_UNIT ( ) );
#203 = DIRECTION ( 'NONE',  ( 0.000000000000000000, 0.000000000000000000, -1.000000000000000000 ) ) ;
#204 = EDGE_LOOP ( 'NONE', ( #263, #196 ) ) ;
#205 = LENGTH_MEASURE_WITH_UNIT ( LENGTH_MEASURE( 0.02539999999999999897 ), #289 );
#206 = DIRECTION ( 'NONE',  ( -1.000000000000000000, 0.000000000000000000, 0.000000000000000000 ) ) ;
#207 = FACE_OUTER_BOUND ( 'NONE', #204, .T. ) ;
#208 = MECHANICAL_DESIGN_GEOMETRIC_PRESENTATION_REPRESENTATION (  '', ( #135 ), #278 ) ;
#209 = DIRECTION ( 'NONE',  ( 0.000000000000000000, 0.000000000000000000, -1.000000000000000000 ) ) ;
#210 = FILL_AREA_STYLE_COLOUR ( '', #42 ) ;
#211 = FACE_OUTER_BOUND ( 'NONE', #223, .T. ) ;
#212 = EDGE_LOOP ( 'NONE', ( #239, #257, #213, #52 ) ) ;
#213 = ORIENTED_EDGE ( 'NONE', *, *, #110, .F. ) ;
#214 = LENGTH_MEASURE_WITH_UNIT ( LENGTH_MEASURE( 0.02539999999999999897 ), #306 );
#215 = DIRECTION ( 'NONE',  ( -0.000000000000000000, -1.000000000000000000, -0.000000000000000000 ) ) ;
#216 = COLOUR_RGB ( '',1.000000000000000000, 0.000000000000000000, 0.000000000000000000 ) ;
#217 =( CONVERSION_BASED_UNIT ( 'INCH', #175 ) LENGTH_UNIT ( ) NAMED_UNIT ( #67 ) );
#218 = SURFACE_STYLE_USAGE ( .BOTH. , #10 ) ;
#219 = CYLINDRICAL_SURFACE ( 'NONE', #49, 0.2500000000000000000 ) ;
#220 = FILL_AREA_STYLE ('',( #258 ) ) ;
#221 = PRODUCT_CONTEXT ( 'NONE', #172, 'mechanical' ) ;
#222 = ADVANCED_FACE ( 'NONE', ( #211 ), #94, .T. ) ;
#223 = EDGE_LOOP ( 'NONE', ( #184, #281 ) ) ;
#224 = PRESENTATION_LAYER_ASSIGNMENT (  '', '', ( #48 ) ) ;
#225 = FILL_AREA_STYLE ('',( #182 ) ) ;
#226 = CARTESIAN_POINT ( 'NONE',  ( -0.2500000000000002776, 4.000000000000000000, 0.000000000000000000 ) ) ;
#227 = AXIS2_PLACEMENT_3D ( 'NONE', #293, #39, #229 ) ;
#228 = LINE ( 'NONE', #62, #179 ) ;
#229 = DIRECTION ( 'NONE',  ( -1.000000000000000000, 0.000000000000000000, 0.000000000000000000 ) ) ;
#230 = SURFACE_SIDE_STYLE ('',( #12 ) ) ;
#231 =( CONVERSION_BASED_UNIT ( 'INCH', #116 ) LENGTH_UNIT ( ) NAMED_UNIT ( #273 ) );
#232 = CIRCLE ( 'NONE', #227, 0.2500000000000001110 ) ;
#233 = FILL_AREA_STYLE_COLOUR ( '', #102 ) ;
#234 = SURFACE_SIDE_STYLE ('',( #143 ) ) ;
#235 = EDGE_LOOP ( 'NONE', ( #147, #309, #50, #114 ) ) ;
#236 = AXIS2_PLACEMENT_3D ( 'NONE', #121, #118, #197 ) ;
#237 = CYLINDRICAL_SURFACE ( 'NONE', #107, 0.2500000000000000555 ) ;
#238 = SURFACE_STYLE_FILL_AREA ( #225 ) ;
#239 = ORIENTED_EDGE ( 'NONE', *, *, #14, .T. ) ;
#240 = PRODUCT_DEFINITION ( 'UNKNOWN', '', #130, #189 ) ;
#241 = DIRECTION ( 'NONE',  ( -1.000000000000000000, 0.000000000000000000, 0.000000000000000000 ) ) ;
#242 = STYLED_ITEM ( 'NONE', ( #69 ), #222 ) ;
#243 = APPLICATION_PROTOCOL_DEFINITION ( 'draft international standard', 'automotive_design', 1998, #172 ) ;
#244 = CARTESIAN_POINT ( 'NONE',  ( 0.000000000000000000, 0.000000000000000000, 0.000000000000000000 ) ) ;
#245 = VECTOR ( 'NONE', #104, 39.37007874015748143 ) ;
#246 =( LENGTH_UNIT ( ) NAMED_UNIT ( * ) SI_UNIT ( $, .METRE. ) );
#247 = AXIS2_PLACEMENT_3D ( 'NONE', #195, #308, #146 ) ;
#248 = LINE ( 'NONE', #109, #245 ) ;
#249 =( LENGTH_UNIT ( ) NAMED_UNIT ( * ) SI_UNIT ( $, .METRE. ) );
#250 = SURFACE_STYLE_USAGE ( .BOTH. , #234 ) ;
#251 = ORIENTED_EDGE ( 'NONE', *, *, #73, .T. ) ;
#252 = DIRECTION ( 'NONE',  ( 0.000000000000000000, 0.000000000000000000, -1.000000000000000000 ) ) ;
#253 = DIRECTION ( 'NONE',  ( -1.000000000000000000, 0.000000000000000000, 0.000000000000000000 ) ) ;
#254 = PLANE ( 'NONE',  #236 ) ;
#255 = ORIENTED_EDGE ( 'NONE', *, *, #119, .T. ) ;
#256 = LENGTH_MEASURE_WITH_UNIT ( LENGTH_MEASURE( 0.02539999999999999897 ), #157 );
#257 = ORIENTED_EDGE ( 'NONE', *, *, #137, .T. ) ;
#258 = FILL_AREA_STYLE_COLOUR ( '', #3 ) ;
#259 = SURFACE_SIDE_STYLE ('',( #238 ) ) ;
#260 = SURFACE_STYLE_USAGE ( .BOTH. , #177 ) ;
#261 = AXIS2_PLACEMENT_3D ( 'NONE', #267, #163, #188 ) ;
#262 = DIRECTION ( 'NONE',  ( 1.000000000000000000, 0.000000000000000000, 0.000000000000000000 ) ) ;
#263 = ORIENTED_EDGE ( 'NONE', *, *, #110, .T. ) ;
#264 = CARTESIAN_POINT ( 'NONE',  ( 0.2500000000000000555, 4.000000000000000000, 3.061616997868384251E-17 ) ) ;
#265 = CARTESIAN_POINT ( 'NONE',  ( -0.2500000000000002220, 4.000000000000000000, 0.000000000000000000 ) ) ;
#266 = AXIS2_PLACEMENT_3D ( 'NONE', #282, #300, #252 ) ;
#267 = CARTESIAN_POINT ( 'NONE',  ( 3.032960542342103792E-32, 1.625000000000000000, 0.000000000000000000 ) ) ;
#268 = CARTESIAN_POINT ( 'NONE',  ( 0.000000000000000000, 0.000000000000000000, -0.2500000000000000000 ) ) ;
#269 = CARTESIAN_POINT ( 'NONE',  ( -1.224646799147352714E-16, 4.000000000000000000, 0.000000000000000000 ) ) ;
#270 = ADVANCED_FACE ( 'NONE', ( #79 ), #219, .T. ) ;
#271 = PRESENTATION_LAYER_ASSIGNMENT (  '', '', ( #135 ) ) ;
#272 = PRESENTATION_STYLE_ASSIGNMENT (( #86 ) ) ;
#273 = DIMENSIONAL_EXPONENTS ( 1.000000000000000000, 0.000000000000000000, 0.000000000000000000, 0.000000000000000000, 0.000000000000000000, 0.000000000000000000, 0.000000000000000000 ) ;
#274 = LENGTH_MEASURE_WITH_UNIT ( LENGTH_MEASURE( 0.02539999999999999897 ), #246 );
#275 = CARTESIAN_POINT ( 'NONE',  ( -1.224646799147352714E-16, 4.000000000000000000, 0.000000000000000000 ) ) ;
#276 = PLANE ( 'NONE',  #247 ) ;
#277 = AXIS2_PLACEMENT_3D ( 'NONE', #129, #108, #138 ) ;
#278 =( GEOMETRIC_REPRESENTATION_CONTEXT ( 3 ) GLOBAL_UNCERTAINTY_ASSIGNED_CONTEXT ( ( #167 ) ) GLOBAL_UNIT_ASSIGNED_CONTEXT ( ( #87, #93, #40 ) ) REPRESENTATION_CONTEXT ( 'NONE', 'WORKASPACE' ) );
#279 =( NAMED_UNIT ( * ) PLANE_ANGLE_UNIT ( ) SI_UNIT ( $, .RADIAN. ) );
#280 = ORIENTED_EDGE ( 'NONE', *, *, #119, .F. ) ;
#281 = ORIENTED_EDGE ( 'NONE', *, *, #178, .F. ) ;
#282 = CARTESIAN_POINT ( 'NONE',  ( 0.000000000000000000, 1.625000000000000000, 0.000000000000000000 ) ) ;
#283 = EDGE_LOOP ( 'NONE', ( #198, #280 ) ) ;
#284 = DIRECTION ( 'NONE',  ( -0.000000000000000000, -1.000000000000000000, -0.000000000000000000 ) ) ;
#285 = VERTEX_POINT ( 'NONE', #264 ) ;
#286 =( NAMED_UNIT ( * ) PLANE_ANGLE_UNIT ( ) SI_UNIT ( $, .RADIAN. ) );
#287 =( NAMED_UNIT ( * ) PLANE_ANGLE_UNIT ( ) SI_UNIT ( $, .RADIAN. ) );
#288 = DIRECTION ( 'NONE',  ( 0.000000000000000000, 0.000000000000000000, 1.000000000000000000 ) ) ;
#289 =( LENGTH_UNIT ( ) NAMED_UNIT ( * ) SI_UNIT ( $, .METRE. ) );
#290 = PRESENTATION_LAYER_ASSIGNMENT (  '', '', ( #82 ) ) ;
#291 = FACE_OUTER_BOUND ( 'NONE', #235, .T. ) ;
#292 =( NAMED_UNIT ( * ) PLANE_ANGLE_UNIT ( ) SI_UNIT ( $, .RADIAN. ) );
#293 = CARTESIAN_POINT ( 'NONE',  ( -1.224646799147352714E-16, 4.000000000000000000, 0.000000000000000000 ) ) ;
#294 =( GEOMETRIC_REPRESENTATION_CONTEXT ( 3 ) GLOBAL_UNCERTAINTY_ASSIGNED_CONTEXT ( ( #20 ) ) GLOBAL_UNIT_ASSIGNED_CONTEXT ( ( #231, #279, #47 ) ) REPRESENTATION_CONTEXT ( 'NONE', 'WORKASPACE' ) );
#295 = CARTESIAN_POINT ( 'NONE',  ( -0.2500000000000000000, 1.625000000000000000, 0.000000000000000000 ) ) ;
#296 = DIRECTION ( 'NONE',  ( -5.156407575357275299E-17, 1.000000000000000000, -0.000000000000000000 ) ) ;
#297 =( NAMED_UNIT ( * ) PLANE_ANGLE_UNIT ( ) SI_UNIT ( $, .RADIAN. ) );
#298 = UNCERTAINTY_MEASURE_WITH_UNIT (LENGTH_MEASURE( 1.000000000000000082E-05 ), #217, 'distance_accuracy_value', 'NONE');
#299 = STYLED_ITEM ( 'NONE', ( #272 ), #144 ) ;
#300 = DIRECTION ( 'NONE',  ( -0.000000000000000000, -1.000000000000000000, -0.000000000000000000 ) ) ;
#301 = DIMENSIONAL_EXPONENTS ( 1.000000000000000000, 0.000000000000000000, 0.000000000000000000, 0.000000000000000000, 0.000000000000000000, 0.000000000000000000, 0.000000000000000000 ) ;
#302 = FILL_AREA_STYLE_COLOUR ( '', #75 ) ;
#303 = DIRECTION ( 'NONE',  ( -5.156407575357275299E-17, 1.000000000000000000, -0.000000000000000000 ) ) ;
#304 = CIRCLE ( 'NONE', #266, 0.2500000000000000000 ) ;
#305 = VECTOR ( 'NONE', #134, 39.37007874015748143 ) ;
#306 =( LENGTH_UNIT ( ) NAMED_UNIT ( * ) SI_UNIT ( $, .METRE. ) );
#307 = EDGE_CURVE ( 'NONE', #44, #169, #55, .T. ) ;
#308 = DIRECTION ( 'NONE',  ( 0.000000000000000000, -1.000000000000000000, -0.000000000000000000 ) ) ;
#309 = ORIENTED_EDGE ( 'NONE', *, *, #58, .T. ) ;
ENDSEC;
END-ISO-10303-21;
