ISO-10303-21;
HEADER;
FILE_DESCRIPTION (( 'STEP AP214' ),
    '1' );
FILE_NAME ('59565.STEP',
    '2023-07-24T15:11:28',
    ( '' ),
    ( '' ),
    'SwSTEP 2.0',
    'SolidWorks 2023',
    '' );
FILE_SCHEMA (( 'AUTOMOTIVE_DESIGN' ));
ENDSEC;

DATA;
#1 = COLOUR_RGB ( '',0.7921568627450980005, 0.8196078431372548767, 0.9333333333333333481 ) ;
#2 =( LENGTH_UNIT ( ) NAMED_UNIT ( * ) SI_UNIT ( .MILLI., .METRE. ) );
#3 = PRESENTATION_LAYER_ASSIGNMENT (  '', '', ( #285 ) ) ;
#4 = DIRECTION ( 'NONE',  ( -1.252807796048505441E-16, 1.000000000000000000, -0.000000000000000000 ) ) ;
#5 = FACE_OUTER_BOUND ( 'NONE', #91, .T. ) ;
#6 = FILL_AREA_STYLE ('',( #123 ) ) ;
#7 = ORIENTED_EDGE ( 'NONE', *, *, #164, .T. ) ;
#8 = EDGE_CURVE ( 'NONE', #286, #113, #245, .T. ) ;
#9 =( LENGTH_UNIT ( ) NAMED_UNIT ( * ) SI_UNIT ( .MILLI., .METRE. ) );
#10 = DIRECTION ( 'NONE',  ( -1.252807796048505441E-16, 1.000000000000000000, 0.000000000000000000 ) ) ;
#11 = FACE_OUTER_BOUND ( 'NONE', #45, .T. ) ;
#12 = AXIS2_PLACEMENT_3D ( 'NONE', #31, #348, #151 ) ;
#13 =( GEOMETRIC_REPRESENTATION_CONTEXT ( 3 ) GLOBAL_UNCERTAINTY_ASSIGNED_CONTEXT ( ( #370 ) ) GLOBAL_UNIT_ASSIGNED_CONTEXT ( ( #323, #90, #249 ) ) REPRESENTATION_CONTEXT ( 'NONE', 'WORKASPACE' ) );
#14 = DIRECTION ( 'NONE',  ( 0.000000000000000000, 0.000000000000000000, -1.000000000000000000 ) ) ;
#15 = ORIENTED_EDGE ( 'NONE', *, *, #16, .F. ) ;
#16 = EDGE_CURVE ( 'NONE', #94, #368, #171, .T. ) ;
#17 = DIRECTION ( 'NONE',  ( -1.224646799147353454E-16, 0.000000000000000000, -1.000000000000000000 ) ) ;
#18 = FACE_OUTER_BOUND ( 'NONE', #207, .T. ) ;
#19 = CIRCLE ( 'NONE', #266, 10.00000000000000533 ) ;
#20 = UNCERTAINTY_MEASURE_WITH_UNIT (LENGTH_MEASURE( 1.000000000000000082E-05 ), #2, 'distance_accuracy_value', 'NONE');
#21 = SURFACE_STYLE_USAGE ( .BOTH. , #308 ) ;
#22 = ORIENTED_EDGE ( 'NONE', *, *, #352, .T. ) ;
#23 = CARTESIAN_POINT ( 'NONE',  ( 0.000000000000000000, 50.00000000000000000, -10.00000000000000000 ) ) ;
#24 = CIRCLE ( 'NONE', #228, 9.999999999999996447 ) ;
#25 =( LENGTH_UNIT ( ) NAMED_UNIT ( * ) SI_UNIT ( .MILLI., .METRE. ) );
#26 = ORIENTED_EDGE ( 'NONE', *, *, #119, .T. ) ;
#27 = DIRECTION ( 'NONE',  ( 1.252807796048505441E-16, -1.000000000000000000, 0.000000000000000000 ) ) ;
#28 = LINE ( 'NONE', #284, #69 ) ;
#29 = DIRECTION ( 'NONE',  ( 1.000000000000000000, 0.000000000000000000, 0.000000000000000000 ) ) ;
#30 = STYLED_ITEM ( 'NONE', ( #238 ), #248 ) ;
#31 = CARTESIAN_POINT ( 'NONE',  ( 4.987329993433318819E-15, 50.00000000000000000, 0.000000000000000000 ) ) ;
#32 = CARTESIAN_POINT ( 'NONE',  ( -10.00000000000001066, 124.9999999999999858, 0.000000000000000000 ) ) ;
#33 = ORIENTED_EDGE ( 'NONE', *, *, #236, .F. ) ;
#34 = DIRECTION ( 'NONE',  ( -0.000000000000000000, -1.000000000000000000, -0.000000000000000000 ) ) ;
#35 = CIRCLE ( 'NONE', #148, 9.000000000000001776 ) ;
#36 = DIRECTION ( 'NONE',  ( 0.000000000000000000, 0.000000000000000000, -1.000000000000000000 ) ) ;
#37 = FILL_AREA_STYLE_COLOUR ( '', #99 ) ;
#38 = SURFACE_SIDE_STYLE ('',( #104 ) ) ;
#39 = EDGE_CURVE ( 'NONE', #337, #191, #137, .T. ) ;
#40 = AXIS2_PLACEMENT_3D ( 'NONE', #153, #254, #103 ) ;
#41 = PLANE ( 'NONE',  #204 ) ;
#42 = AXIS2_PLACEMENT_3D ( 'NONE', #281, #165, #96 ) ;
#43 = CARTESIAN_POINT ( 'NONE',  ( 10.00000000000000000, 124.9999999999999858, 1.224646799147353454E-15 ) ) ;
#44 = FACE_OUTER_BOUND ( 'NONE', #146, .T. ) ;
#45 = EDGE_LOOP ( 'NONE', ( #97, #136 ) ) ;
#46 = CARTESIAN_POINT ( 'NONE',  ( 1.163414459189985682E-15, 0.000000000000000000, 9.000000000000001776 ) ) ;
#47 = EDGE_CURVE ( 'NONE', #52, #275, #115, .T. ) ;
#48 = AXIS2_PLACEMENT_3D ( 'NONE', #150, #312, #63 ) ;
#49 = SURFACE_STYLE_FILL_AREA ( #339 ) ;
#50 = CIRCLE ( 'NONE', #255, 10.00000000000000000 ) ;
#51 = FILL_AREA_STYLE ('',( #363 ) ) ;
#52 = VERTEX_POINT ( 'NONE', #169 ) ;
#53 = DIRECTION ( 'NONE',  ( -1.000000000000000000, 0.000000000000000000, 0.000000000000000000 ) ) ;
#54 = FILL_AREA_STYLE ('',( #306 ) ) ;
#55 = CARTESIAN_POINT ( 'NONE',  ( 0.000000000000000000, 0.000000000000000000, -10.00000000000000178 ) ) ;
#56 = ORIENTED_EDGE ( 'NONE', *, *, #359, .F. ) ;
#57 =( GEOMETRIC_REPRESENTATION_CONTEXT ( 3 ) GLOBAL_UNCERTAINTY_ASSIGNED_CONTEXT ( ( #59 ) ) GLOBAL_UNIT_ASSIGNED_CONTEXT ( ( #25, #222, #198 ) ) REPRESENTATION_CONTEXT ( 'NONE', 'WORKASPACE' ) );
#58 = PRESENTATION_STYLE_ASSIGNMENT (( #118 ) ) ;
#59 = UNCERTAINTY_MEASURE_WITH_UNIT (LENGTH_MEASURE( 1.000000000000000082E-05 ), #25, 'distance_accuracy_value', 'NONE');
#60 = FILL_AREA_STYLE ('',( #219 ) ) ;
#61 =( LENGTH_UNIT ( ) NAMED_UNIT ( * ) SI_UNIT ( .MILLI., .METRE. ) );
#62 = ORIENTED_EDGE ( 'NONE', *, *, #130, .F. ) ;
#63 = DIRECTION ( 'NONE',  ( 0.000000000000000000, 0.000000000000000000, -1.000000000000000000 ) ) ;
#64 = AXIS2_PLACEMENT_3D ( 'NONE', #269, #294, #36 ) ;
#65 = SURFACE_STYLE_USAGE ( .BOTH. , #351 ) ;
#66 = MECHANICAL_DESIGN_GEOMETRIC_PRESENTATION_REPRESENTATION (  '', ( #285 ), #173 ) ;
#67 =( NAMED_UNIT ( * ) SI_UNIT ( $, .STERADIAN. ) SOLID_ANGLE_UNIT ( ) );
#68 = ADVANCED_FACE ( 'NONE', ( #258 ), #195, .T. ) ;
#69 = VECTOR ( 'NONE', #4, 1000.000000000000000 ) ;
#70 = SURFACE_STYLE_USAGE ( .BOTH. , #267 ) ;
#71 = PRESENTATION_LAYER_ASSIGNMENT (  '', '', ( #30 ) ) ;
#72 = COLOUR_RGB ( '',0.7921568627450980005, 0.8196078431372548767, 0.9333333333333333481 ) ;
#73 = CARTESIAN_POINT ( 'NONE',  ( 0.000000000000000000, 0.000000000000000000, -9.000000000000001776 ) ) ;
#74 = CARTESIAN_POINT ( 'NONE',  ( 10.00000000000000355, 50.00000000000000000, 1.224646799147353848E-15 ) ) ;
#75 = EDGE_CURVE ( 'NONE', #275, #241, #28, .T. ) ;
#76 = DIRECTION ( 'NONE',  ( 0.000000000000000000, -0.000000000000000000, 1.000000000000000000 ) ) ;
#77 = CARTESIAN_POINT ( 'NONE',  ( 0.000000000000000000, 1.000000000000000000, 0.000000000000000000 ) ) ;
#78 = CARTESIAN_POINT ( 'NONE',  ( 0.000000000000000000, 0.000000000000000000, 0.000000000000000000 ) ) ;
#79 = TOROIDAL_SURFACE ( 'NONE', #117, 9.000000000000001776, 1.000000000000000444 ) ;
#80 = CARTESIAN_POINT ( 'NONE',  ( -10.00000000000000533, 124.9999999999999858, 0.000000000000000000 ) ) ;
#81 = CARTESIAN_POINT ( 'NONE',  ( 0.000000000000000000, 0.000000000000000000, 0.000000000000000000 ) ) ;
#82 = DIRECTION ( 'NONE',  ( -0.000000000000000000, -1.000000000000000000, -0.000000000000000000 ) ) ;
#83 = ORIENTED_EDGE ( 'NONE', *, *, #8, .T. ) ;
#84 = AXIS2_PLACEMENT_3D ( 'NONE', #174, #200, #225 ) ;
#85 = DIRECTION ( 'NONE',  ( 1.000000000000000000, 1.252807796048505441E-16, 0.000000000000000000 ) ) ;
#86 =( LENGTH_UNIT ( ) NAMED_UNIT ( * ) SI_UNIT ( .MILLI., .METRE. ) );
#87 = CARTESIAN_POINT ( 'NONE',  ( 10.00000000000000000, 124.9999999999999858, 0.000000000000000000 ) ) ;
#88 = ORIENTED_EDGE ( 'NONE', *, *, #298, .T. ) ;
#89 = SURFACE_STYLE_FILL_AREA ( #60 ) ;
#90 =( NAMED_UNIT ( * ) PLANE_ANGLE_UNIT ( ) SI_UNIT ( $, .RADIAN. ) );
#91 = EDGE_LOOP ( 'NONE', ( #216, #367, #15, #330 ) ) ;
#92 = AXIS2_PLACEMENT_3D ( 'NONE', #291, #159, #76 ) ;
#93 = UNCERTAINTY_MEASURE_WITH_UNIT (LENGTH_MEASURE( 1.000000000000000082E-05 ), #61, 'distance_accuracy_value', 'NONE');
#94 = VERTEX_POINT ( 'NONE', #260 ) ;
#95 = EDGE_CURVE ( 'NONE', #94, #113, #155, .T. ) ;
#96 = DIRECTION ( 'NONE',  ( 0.000000000000000000, 0.000000000000000000, -1.000000000000000000 ) ) ;
#97 = ORIENTED_EDGE ( 'NONE', *, *, #39, .F. ) ;
#98 = FACE_OUTER_BOUND ( 'NONE', #143, .T. ) ;
#99 = COLOUR_RGB ( '',1.000000000000000000, 0.000000000000000000, 0.000000000000000000 ) ;
#100 = COLOUR_RGB ( '',1.000000000000000000, 0.000000000000000000, 0.000000000000000000 ) ;
#101 =( NAMED_UNIT ( * ) SI_UNIT ( $, .STERADIAN. ) SOLID_ANGLE_UNIT ( ) );
#102 = PRODUCT_DEFINITION_FORMATION_WITH_SPECIFIED_SOURCE ( 'ANY', '', #127, .NOT_KNOWN. ) ;
#103 = DIRECTION ( 'NONE',  ( -1.000000000000000000, 0.000000000000000000, 0.000000000000000000 ) ) ;
#104 = SURFACE_STYLE_FILL_AREA ( #353 ) ;
#105 =( GEOMETRIC_REPRESENTATION_CONTEXT ( 3 ) GLOBAL_UNCERTAINTY_ASSIGNED_CONTEXT ( ( #138 ) ) GLOBAL_UNIT_ASSIGNED_CONTEXT ( ( #257, #196, #67 ) ) REPRESENTATION_CONTEXT ( 'NONE', 'WORKASPACE' ) );
#106 = PRESENTATION_LAYER_ASSIGNMENT (  '', '', ( #186 ) ) ;
#107 = ORIENTED_EDGE ( 'NONE', *, *, #130, .T. ) ;
#108 = ADVANCED_FACE ( 'NONE', ( #98 ), #197, .T. ) ;
#109 =( NAMED_UNIT ( * ) SI_UNIT ( $, .STERADIAN. ) SOLID_ANGLE_UNIT ( ) );
#110 = FILL_AREA_STYLE_COLOUR ( '', #361 ) ;
#111 = CARTESIAN_POINT ( 'NONE',  ( 1.102182119232617911E-15, 1.000000000000000000, 9.000000000000001776 ) ) ;
#112 = FACE_OUTER_BOUND ( 'NONE', #342, .T. ) ;
#113 = VERTEX_POINT ( 'NONE', #73 ) ;
#114 = ORIENTED_EDGE ( 'NONE', *, *, #176, .T. ) ;
#115 = CIRCLE ( 'NONE', #12, 9.999999999999996447 ) ;
#116 = ADVANCED_FACE ( 'NONE', ( #11 ), #230, .T. ) ;
#117 = AXIS2_PLACEMENT_3D ( 'NONE', #340, #214, #218 ) ;
#118 = SURFACE_STYLE_USAGE ( .BOTH. , #350 ) ;
#119 = EDGE_CURVE ( 'NONE', #113, #286, #35, .T. ) ;
#120 = AXIS2_PLACEMENT_3D ( 'NONE', #170, #122, #226 ) ;
#121 = PRESENTATION_LAYER_ASSIGNMENT (  '', '', ( #316 ) ) ;
#122 = DIRECTION ( 'NONE',  ( -1.000000000000000000, 0.000000000000000000, 0.000000000000000000 ) ) ;
#123 = FILL_AREA_STYLE_COLOUR ( '', #278 ) ;
#124 =( NAMED_UNIT ( * ) PLANE_ANGLE_UNIT ( ) SI_UNIT ( $, .RADIAN. ) );
#125 = SURFACE_STYLE_FILL_AREA ( #6 ) ;
#126 = DIRECTION ( 'NONE',  ( 0.000000000000000000, 0.000000000000000000, -1.000000000000000000 ) ) ;
#127 = PRODUCT ( '59565', '59565', '', ( #227 ) ) ;
#128 = STYLED_ITEM ( 'NONE', ( #201 ), #108 ) ;
#129 = AXIS2_PLACEMENT_3D ( 'NONE', #87, #27, #85 ) ;
#130 = EDGE_CURVE ( 'NONE', #368, #94, #289, .T. ) ;
#131 = CLOSED_SHELL ( 'NONE', ( #68, #262, #369, #332 ) ) ;
#132 = CIRCLE ( 'NONE', #172, 10.00000000000000533 ) ;
#133 = CARTESIAN_POINT ( 'NONE',  ( 0.000000000000000000, 50.00000000000000000, 0.000000000000000000 ) ) ;
#134 =( NAMED_UNIT ( * ) PLANE_ANGLE_UNIT ( ) SI_UNIT ( $, .RADIAN. ) );
#135 = CARTESIAN_POINT ( 'NONE',  ( -4.408728476930469278E-15, 124.9999999999999858, 0.000000000000000000 ) ) ;
#136 = ORIENTED_EDGE ( 'NONE', *, *, #282, .F. ) ;
#137 = CIRCLE ( 'NONE', #253, 10.00000000000000000 ) ;
#138 = UNCERTAINTY_MEASURE_WITH_UNIT (LENGTH_MEASURE( 1.000000000000000082E-05 ), #257, 'distance_accuracy_value', 'NONE');
#139 = EDGE_LOOP ( 'NONE', ( #7, #114 ) ) ;
#140 =( GEOMETRIC_REPRESENTATION_CONTEXT ( 3 ) GLOBAL_UNCERTAINTY_ASSIGNED_CONTEXT ( ( #341 ) ) GLOBAL_UNIT_ASSIGNED_CONTEXT ( ( #86, #299, #109 ) ) REPRESENTATION_CONTEXT ( 'NONE', 'WORKASPACE' ) );
#141 = CYLINDRICAL_SURFACE ( 'NONE', #336, 10.00000000000000000 ) ;
#142 = STYLED_ITEM ( 'NONE', ( #58 ), #221 ) ;
#143 = EDGE_LOOP ( 'NONE', ( #26, #83 ) ) ;
#144 = FACE_OUTER_BOUND ( 'NONE', #139, .T. ) ;
#145 = UNCERTAINTY_MEASURE_WITH_UNIT (LENGTH_MEASURE( 1.000000000000000082E-05 ), #9, 'distance_accuracy_value', 'NONE');
#146 = EDGE_LOOP ( 'NONE', ( #250, #107, #223, #280 ) ) ;
#147 = FILL_AREA_STYLE_COLOUR ( '', #209 ) ;
#148 = AXIS2_PLACEMENT_3D ( 'NONE', #81, #180, #14 ) ;
#149 = SURFACE_STYLE_USAGE ( .BOTH. , #283 ) ;
#150 = CARTESIAN_POINT ( 'NONE',  ( 0.000000000000000000, 0.000000000000000000, 0.000000000000000000 ) ) ;
#151 = DIRECTION ( 'NONE',  ( -1.000000000000000000, 0.000000000000000000, 0.000000000000000000 ) ) ;
#152 = PRODUCT_DEFINITION ( 'UNKNOWN', '', #102, #192 ) ;
#153 = CARTESIAN_POINT ( 'NONE',  ( -4.408728476930469278E-15, 124.9999999999999858, 0.000000000000000000 ) ) ;
#154 = DIRECTION ( 'NONE',  ( -1.252807796048505441E-16, 1.000000000000000000, -0.000000000000000000 ) ) ;
#155 = CIRCLE ( 'NONE', #120, 1.000000000000000888 ) ;
#156 = PRESENTATION_STYLE_ASSIGNMENT (( #206 ) ) ;
#157 = MECHANICAL_DESIGN_GEOMETRIC_PRESENTATION_REPRESENTATION (  '', ( #142 ), #210 ) ;
#158 = FACE_OUTER_BOUND ( 'NONE', #358, .T. ) ;
#159 = DIRECTION ( 'NONE',  ( 0.000000000000000000, 1.000000000000000000, 0.000000000000000000 ) ) ;
#160 = ORIENTED_EDGE ( 'NONE', *, *, #298, .F. ) ;
#161 = AXIS2_PLACEMENT_3D ( 'NONE', #77, #82, #271 ) ;
#162 = MECHANICAL_DESIGN_GEOMETRIC_PRESENTATION_REPRESENTATION (  '', ( #186 ), #234 ) ;
#163 =( LENGTH_UNIT ( ) NAMED_UNIT ( * ) SI_UNIT ( .MILLI., .METRE. ) );
#164 = EDGE_CURVE ( 'NONE', #208, #241, #132, .T. ) ;
#165 = DIRECTION ( 'NONE',  ( -0.000000000000000000, -1.000000000000000000, -0.000000000000000000 ) ) ;
#166 = DIRECTION ( 'NONE',  ( -1.252807796048505441E-16, 1.000000000000000000, -0.000000000000000000 ) ) ;
#167 = ORIENTED_EDGE ( 'NONE', *, *, #75, .F. ) ;
#168 =( NAMED_UNIT ( * ) PLANE_ANGLE_UNIT ( ) SI_UNIT ( $, .RADIAN. ) );
#169 = CARTESIAN_POINT ( 'NONE',  ( -9.999999999999991118, 50.00000000000000000, 0.000000000000000000 ) ) ;
#170 = CARTESIAN_POINT ( 'NONE',  ( 0.000000000000000000, 1.000000000000000000, -9.000000000000001776 ) ) ;
#171 = CIRCLE ( 'NONE', #84, 10.00000000000000178 ) ;
#172 = AXIS2_PLACEMENT_3D ( 'NONE', #360, #154, #203 ) ;
#173 =( GEOMETRIC_REPRESENTATION_CONTEXT ( 3 ) GLOBAL_UNCERTAINTY_ASSIGNED_CONTEXT ( ( #346 ) ) GLOBAL_UNIT_ASSIGNED_CONTEXT ( ( #163, #168, #307 ) ) REPRESENTATION_CONTEXT ( 'NONE', 'WORKASPACE' ) );
#174 = CARTESIAN_POINT ( 'NONE',  ( 0.000000000000000000, 1.000000000000000000, 0.000000000000000000 ) ) ;
#175 = APPLICATION_PROTOCOL_DEFINITION ( 'draft international standard', 'automotive_design', 1998, #320 ) ;
#176 = EDGE_CURVE ( 'NONE', #241, #208, #19, .T. ) ;
#177 = AXIS2_PLACEMENT_3D ( 'NONE', #211, #264, #235 ) ;
#178 = DIRECTION ( 'NONE',  ( -1.252807796048505441E-16, 1.000000000000000000, -0.000000000000000000 ) ) ;
#179 = ORIENTED_EDGE ( 'NONE', *, *, #95, .F. ) ;
#180 = DIRECTION ( 'NONE',  ( -0.000000000000000000, -1.000000000000000000, -0.000000000000000000 ) ) ;
#181 = DIRECTION ( 'NONE',  ( -0.000000000000000000, -1.000000000000000000, -0.000000000000000000 ) ) ;
#182 = DIRECTION ( 'NONE',  ( 0.000000000000000000, 0.000000000000000000, -1.000000000000000000 ) ) ;
#183 = MECHANICAL_DESIGN_GEOMETRIC_PRESENTATION_REPRESENTATION (  '', ( #316 ), #13 ) ;
#184 =( NAMED_UNIT ( * ) SI_UNIT ( $, .STERADIAN. ) SOLID_ANGLE_UNIT ( ) );
#185 = ADVANCED_FACE ( 'NONE', ( #44 ), #79, .T. ) ;
#186 = STYLED_ITEM ( 'NONE', ( #220 ), #318 ) ;
#187 = DIRECTION ( 'NONE',  ( -0.000000000000000000, -1.000000000000000000, -0.000000000000000000 ) ) ;
#188 = AXIS2_PLACEMENT_3D ( 'NONE', #111, #268, #17 ) ;
#189 = DIRECTION ( 'NONE',  ( -1.000000000000000000, 0.000000000000000000, 0.000000000000000000 ) ) ;
#190 = ORIENTED_EDGE ( 'NONE', *, *, #176, .F. ) ;
#191 = VERTEX_POINT ( 'NONE', #231 ) ;
#192 = PRODUCT_DEFINITION_CONTEXT ( 'detailed design', #320, 'design' ) ;
#193 = ORIENTED_EDGE ( 'NONE', *, *, #47, .T. ) ;
#194 = APPLICATION_PROTOCOL_DEFINITION ( 'draft international standard', 'automotive_design', 1998, #252 ) ;
#195 = CYLINDRICAL_SURFACE ( 'NONE', #40, 10.00000000000000000 ) ;
#196 =( NAMED_UNIT ( * ) PLANE_ANGLE_UNIT ( ) SI_UNIT ( $, .RADIAN. ) );
#197 = PLANE ( 'NONE',  #177 ) ;
#198 =( NAMED_UNIT ( * ) SI_UNIT ( $, .STERADIAN. ) SOLID_ANGLE_UNIT ( ) );
#199 = MANIFOLD_SOLID_BREP ( 'Revolve - Tool Body (Straight Shanked)', #131 ) ;
#200 = DIRECTION ( 'NONE',  ( -0.000000000000000000, -1.000000000000000000, -0.000000000000000000 ) ) ;
#201 = PRESENTATION_STYLE_ASSIGNMENT (( #65 ) ) ;
#202 = PRODUCT_DEFINITION_SHAPE ( 'NONE', 'NONE',  #152 ) ;
#203 = DIRECTION ( 'NONE',  ( -1.000000000000000000, 0.000000000000000000, 0.000000000000000000 ) ) ;
#204 = AXIS2_PLACEMENT_3D ( 'NONE', #237, #10, #292 ) ;
#205 = AXIS2_PLACEMENT_3D ( 'NONE', #349, #259, #29 ) ;
#206 = SURFACE_STYLE_USAGE ( .BOTH. , #38 ) ;
#207 = EDGE_LOOP ( 'NONE', ( #362, #56 ) ) ;
#208 = VERTEX_POINT ( 'NONE', #32 ) ;
#209 = COLOUR_RGB ( '',1.000000000000000000, 0.000000000000000000, 0.000000000000000000 ) ;
#210 =( GEOMETRIC_REPRESENTATION_CONTEXT ( 3 ) GLOBAL_UNCERTAINTY_ASSIGNED_CONTEXT ( ( #93 ) ) GLOBAL_UNIT_ASSIGNED_CONTEXT ( ( #61, #134, #240 ) ) REPRESENTATION_CONTEXT ( 'NONE', 'WORKASPACE' ) );
#211 = CARTESIAN_POINT ( 'NONE',  ( 0.000000000000000000, 0.000000000000000000, 0.000000000000000000 ) ) ;
#212 = CYLINDRICAL_SURFACE ( 'NONE', #42, 10.00000000000000178 ) ;
#213 = ADVANCED_BREP_SHAPE_REPRESENTATION ( '59565', ( #328, #199, #205 ), #57 ) ;
#214 = DIRECTION ( 'NONE',  ( -0.000000000000000000, -1.000000000000000000, -0.000000000000000000 ) ) ;
#215 = UNCERTAINTY_MEASURE_WITH_UNIT (LENGTH_MEASURE( 1.000000000000000082E-05 ), #244, 'distance_accuracy_value', 'NONE');
#216 = ORIENTED_EDGE ( 'NONE', *, *, #39, .T. ) ;
#217 = PRESENTATION_STYLE_ASSIGNMENT (( #21 ) ) ;
#218 = DIRECTION ( 'NONE',  ( 0.000000000000000000, 0.000000000000000000, -1.000000000000000000 ) ) ;
#219 = FILL_AREA_STYLE_COLOUR ( '', #256 ) ;
#220 = PRESENTATION_STYLE_ASSIGNMENT (( #242 ) ) ;
#221 = ADVANCED_FACE ( 'NONE', ( #5 ), #335, .T. ) ;
#222 =( NAMED_UNIT ( * ) PLANE_ANGLE_UNIT ( ) SI_UNIT ( $, .RADIAN. ) );
#223 = ORIENTED_EDGE ( 'NONE', *, *, #95, .T. ) ;
#224 = VECTOR ( 'NONE', #293, 1000.000000000000000 ) ;
#225 = DIRECTION ( 'NONE',  ( 0.000000000000000000, 0.000000000000000000, -1.000000000000000000 ) ) ;
#226 = DIRECTION ( 'NONE',  ( 0.000000000000000000, 0.000000000000000000, 1.000000000000000000 ) ) ;
#227 = PRODUCT_CONTEXT ( 'NONE', #252, 'mechanical' ) ;
#228 = AXIS2_PLACEMENT_3D ( 'NONE', #273, #166, #189 ) ;
#229 = FILL_AREA_STYLE ('',( #147 ) ) ;
#230 = PLANE ( 'NONE',  #92 ) ;
#231 = CARTESIAN_POINT ( 'NONE',  ( 1.224646799147353256E-15, 50.00000000000000000, 10.00000000000000000 ) ) ;
#232 = ORIENTED_EDGE ( 'NONE', *, *, #75, .T. ) ;
#233 = CLOSED_SHELL ( 'NONE', ( #221, #248, #108, #185, #318, #116 ) ) ;
#234 =( GEOMETRIC_REPRESENTATION_CONTEXT ( 3 ) GLOBAL_UNCERTAINTY_ASSIGNED_CONTEXT ( ( #215 ) ) GLOBAL_UNIT_ASSIGNED_CONTEXT ( ( #244, #276, #345 ) ) REPRESENTATION_CONTEXT ( 'NONE', 'WORKASPACE' ) );
#235 = DIRECTION ( 'NONE',  ( 0.000000000000000000, 0.000000000000000000, -1.000000000000000000 ) ) ;
#236 = EDGE_CURVE ( 'NONE', #191, #368, #270, .T. ) ;
#237 = CARTESIAN_POINT ( 'NONE',  ( 4.987329993433320396E-15, 50.00000000000000000, 0.000000000000000000 ) ) ;
#238 = PRESENTATION_STYLE_ASSIGNMENT (( #300 ) ) ;
#239 = DIRECTION ( 'NONE',  ( 0.000000000000000000, 0.000000000000000000, -1.000000000000000000 ) ) ;
#240 =( NAMED_UNIT ( * ) SI_UNIT ( $, .STERADIAN. ) SOLID_ANGLE_UNIT ( ) );
#241 = VERTEX_POINT ( 'NONE', #43 ) ;
#242 = SURFACE_STYLE_USAGE ( .BOTH. , #331 ) ;
#243 = ORIENTED_EDGE ( 'NONE', *, *, #287, .T. ) ;
#244 =( LENGTH_UNIT ( ) NAMED_UNIT ( * ) SI_UNIT ( .MILLI., .METRE. ) );
#245 = CIRCLE ( 'NONE', #48, 9.000000000000001776 ) ;
#246 = STYLED_ITEM ( 'NONE', ( #314 ), #199 ) ;
#247 = DIRECTION ( 'NONE',  ( -1.252807796048505441E-16, 1.000000000000000000, -0.000000000000000000 ) ) ;
#248 = ADVANCED_FACE ( 'NONE', ( #158 ), #322, .T. ) ;
#249 =( NAMED_UNIT ( * ) SI_UNIT ( $, .STERADIAN. ) SOLID_ANGLE_UNIT ( ) );
#250 = ORIENTED_EDGE ( 'NONE', *, *, #287, .F. ) ;
#251 = DIRECTION ( 'NONE',  ( -0.000000000000000000, -1.000000000000000000, -0.000000000000000000 ) ) ;
#252 = APPLICATION_CONTEXT ( 'automotive_design' ) ;
#253 = AXIS2_PLACEMENT_3D ( 'NONE', #319, #34, #126 ) ;
#254 = DIRECTION ( 'NONE',  ( -1.252807796048505441E-16, 1.000000000000000000, -0.000000000000000000 ) ) ;
#255 = AXIS2_PLACEMENT_3D ( 'NONE', #133, #181, #239 ) ;
#256 = COLOUR_RGB ( '',1.000000000000000000, 0.000000000000000000, 0.000000000000000000 ) ;
#257 =( LENGTH_UNIT ( ) NAMED_UNIT ( * ) SI_UNIT ( .MILLI., .METRE. ) );
#258 = FACE_OUTER_BOUND ( 'NONE', #288, .T. ) ;
#259 = DIRECTION ( 'NONE',  ( 0.000000000000000000, 0.000000000000000000, 1.000000000000000000 ) ) ;
#260 = CARTESIAN_POINT ( 'NONE',  ( 0.000000000000000000, 1.000000000000000000, -10.00000000000000178 ) ) ;
#261 = STYLED_ITEM ( 'NONE', ( #263 ), #116 ) ;
#262 = ADVANCED_FACE ( 'NONE', ( #18 ), #41, .F. ) ;
#263 = PRESENTATION_STYLE_ASSIGNMENT (( #70 ) ) ;
#264 = DIRECTION ( 'NONE',  ( 0.000000000000000000, -1.000000000000000000, -0.000000000000000000 ) ) ;
#265 = PRODUCT_RELATED_PRODUCT_CATEGORY ( 'part', '', ( #127 ) ) ;
#266 = AXIS2_PLACEMENT_3D ( 'NONE', #357, #178, #324 ) ;
#267 = SURFACE_SIDE_STYLE ('',( #329 ) ) ;
#268 = DIRECTION ( 'NONE',  ( 1.000000000000000000, 0.000000000000000000, -1.224646799147353207E-16 ) ) ;
#269 = CARTESIAN_POINT ( 'NONE',  ( 0.000000000000000000, 1.000000000000000000, 0.000000000000000000 ) ) ;
#270 = LINE ( 'NONE', #356, #224 ) ;
#271 = DIRECTION ( 'NONE',  ( 0.000000000000000000, 0.000000000000000000, -1.000000000000000000 ) ) ;
#272 = MECHANICAL_DESIGN_GEOMETRIC_PRESENTATION_REPRESENTATION (  '', ( #30 ), #140 ) ;
#273 = CARTESIAN_POINT ( 'NONE',  ( 4.987329993433318819E-15, 50.00000000000000000, 0.000000000000000000 ) ) ;
#274 = SURFACE_SIDE_STYLE ('',( #296 ) ) ;
#275 = VERTEX_POINT ( 'NONE', #74 ) ;
#276 =( NAMED_UNIT ( * ) PLANE_ANGLE_UNIT ( ) SI_UNIT ( $, .RADIAN. ) );
#277 =( GEOMETRIC_REPRESENTATION_CONTEXT ( 3 ) GLOBAL_UNCERTAINTY_ASSIGNED_CONTEXT ( ( #20 ) ) GLOBAL_UNIT_ASSIGNED_CONTEXT ( ( #2, #124, #101 ) ) REPRESENTATION_CONTEXT ( 'NONE', 'WORKASPACE' ) );
#278 = COLOUR_RGB ( '',1.000000000000000000, 0.000000000000000000, 0.000000000000000000 ) ;
#279 = LINE ( 'NONE', #55, #310 ) ;
#280 = ORIENTED_EDGE ( 'NONE', *, *, #8, .F. ) ;
#281 = CARTESIAN_POINT ( 'NONE',  ( 0.000000000000000000, 0.000000000000000000, 0.000000000000000000 ) ) ;
#282 = EDGE_CURVE ( 'NONE', #191, #337, #50, .T. ) ;
#283 = SURFACE_SIDE_STYLE ('',( #317 ) ) ;
#284 = CARTESIAN_POINT ( 'NONE',  ( 9.999999999999994671, 124.9999999999999858, 1.224646799147353256E-15 ) ) ;
#285 = STYLED_ITEM ( 'NONE', ( #217 ), #328 ) ;
#286 = VERTEX_POINT ( 'NONE', #46 ) ;
#287 = EDGE_CURVE ( 'NONE', #368, #286, #303, .T. ) ;
#288 = EDGE_LOOP ( 'NONE', ( #193, #232, #344, #160 ) ) ;
#289 = CIRCLE ( 'NONE', #64, 10.00000000000000178 ) ;
#290 = VECTOR ( 'NONE', #295, 1000.000000000000000 ) ;
#291 = CARTESIAN_POINT ( 'NONE',  ( 0.000000000000000000, 50.00000000000000000, 0.000000000000000000 ) ) ;
#292 = DIRECTION ( 'NONE',  ( -1.000000000000000000, -1.252807796048505441E-16, 0.000000000000000000 ) ) ;
#293 = DIRECTION ( 'NONE',  ( -0.000000000000000000, -1.000000000000000000, -0.000000000000000000 ) ) ;
#294 = DIRECTION ( 'NONE',  ( -0.000000000000000000, -1.000000000000000000, -0.000000000000000000 ) ) ;
#295 = DIRECTION ( 'NONE',  ( -1.252807796048505441E-16, 1.000000000000000000, -0.000000000000000000 ) ) ;
#296 = SURFACE_STYLE_FILL_AREA ( #51 ) ;
#297 =( NAMED_UNIT ( * ) PLANE_ANGLE_UNIT ( ) SI_UNIT ( $, .RADIAN. ) );
#298 = EDGE_CURVE ( 'NONE', #52, #208, #327, .T. ) ;
#299 =( NAMED_UNIT ( * ) PLANE_ANGLE_UNIT ( ) SI_UNIT ( $, .RADIAN. ) );
#300 = SURFACE_STYLE_USAGE ( .BOTH. , #274 ) ;
#301 = EDGE_LOOP ( 'NONE', ( #167, #326, #88, #190 ) ) ;
#302 = PRESENTATION_LAYER_ASSIGNMENT (  '', '', ( #261 ) ) ;
#303 = CIRCLE ( 'NONE', #188, 1.000000000000000888 ) ;
#304 = ORIENTED_EDGE ( 'NONE', *, *, #119, .F. ) ;
#305 = CARTESIAN_POINT ( 'NONE',  ( 1.224646799147353256E-15, 1.000000000000000000, 10.00000000000000178 ) ) ;
#306 = FILL_AREA_STYLE_COLOUR ( '', #1 ) ;
#307 =( NAMED_UNIT ( * ) SI_UNIT ( $, .STERADIAN. ) SOLID_ANGLE_UNIT ( ) );
#308 = SURFACE_SIDE_STYLE ('',( #49 ) ) ;
#309 = AXIS2_PLACEMENT_3D ( 'NONE', #78, #187, #182 ) ;
#310 = VECTOR ( 'NONE', #251, 1000.000000000000000 ) ;
#311 = FACE_OUTER_BOUND ( 'NONE', #301, .T. ) ;
#312 = DIRECTION ( 'NONE',  ( -0.000000000000000000, -1.000000000000000000, -0.000000000000000000 ) ) ;
#313 = SHAPE_DEFINITION_REPRESENTATION ( #202, #213 ) ;
#314 = PRESENTATION_STYLE_ASSIGNMENT (( #149 ) ) ;
#315 = SURFACE_STYLE_FILL_AREA ( #229 ) ;
#316 = STYLED_ITEM ( 'NONE', ( #156 ), #185 ) ;
#317 = SURFACE_STYLE_FILL_AREA ( #54 ) ;
#318 = ADVANCED_FACE ( 'NONE', ( #112 ), #212, .T. ) ;
#319 = CARTESIAN_POINT ( 'NONE',  ( 0.000000000000000000, 50.00000000000000000, 0.000000000000000000 ) ) ;
#320 = APPLICATION_CONTEXT ( 'automotive_design' ) ;
#321 = PRESENTATION_LAYER_ASSIGNMENT (  '', '', ( #128 ) ) ;
#322 = TOROIDAL_SURFACE ( 'NONE', #161, 9.000000000000001776, 1.000000000000000444 ) ;
#323 =( LENGTH_UNIT ( ) NAMED_UNIT ( * ) SI_UNIT ( .MILLI., .METRE. ) );
#324 = DIRECTION ( 'NONE',  ( -1.000000000000000000, 0.000000000000000000, 0.000000000000000000 ) ) ;
#325 = FILL_AREA_STYLE ('',( #37 ) ) ;
#326 = ORIENTED_EDGE ( 'NONE', *, *, #359, .T. ) ;
#327 = LINE ( 'NONE', #80, #290 ) ;
#328 = MANIFOLD_SOLID_BREP ( 'Revolve - Cutting Edge', #233 ) ;
#329 = SURFACE_STYLE_FILL_AREA ( #325 ) ;
#330 = ORIENTED_EDGE ( 'NONE', *, *, #352, .F. ) ;
#331 = SURFACE_SIDE_STYLE ('',( #89 ) ) ;
#332 = ADVANCED_FACE ( 'NONE', ( #144 ), #338, .F. ) ;
#333 = MECHANICAL_DESIGN_GEOMETRIC_PRESENTATION_REPRESENTATION (  '', ( #261 ), #334 ) ;
#334 =( GEOMETRIC_REPRESENTATION_CONTEXT ( 3 ) GLOBAL_UNCERTAINTY_ASSIGNED_CONTEXT ( ( #145 ) ) GLOBAL_UNIT_ASSIGNED_CONTEXT ( ( #9, #297, #184 ) ) REPRESENTATION_CONTEXT ( 'NONE', 'WORKASPACE' ) );
#335 = CYLINDRICAL_SURFACE ( 'NONE', #309, 10.00000000000000178 ) ;
#336 = AXIS2_PLACEMENT_3D ( 'NONE', #135, #247, #53 ) ;
#337 = VERTEX_POINT ( 'NONE', #23 ) ;
#338 = PLANE ( 'NONE',  #129 ) ;
#339 = FILL_AREA_STYLE ('',( #364 ) ) ;
#340 = CARTESIAN_POINT ( 'NONE',  ( 0.000000000000000000, 1.000000000000000000, 0.000000000000000000 ) ) ;
#341 = UNCERTAINTY_MEASURE_WITH_UNIT (LENGTH_MEASURE( 1.000000000000000082E-05 ), #86, 'distance_accuracy_value', 'NONE');
#342 = EDGE_LOOP ( 'NONE', ( #33, #347, #22, #62 ) ) ;
#343 = PRESENTATION_LAYER_ASSIGNMENT (  '', '', ( #142 ) ) ;
#344 = ORIENTED_EDGE ( 'NONE', *, *, #164, .F. ) ;
#345 =( NAMED_UNIT ( * ) SI_UNIT ( $, .STERADIAN. ) SOLID_ANGLE_UNIT ( ) );
#346 = UNCERTAINTY_MEASURE_WITH_UNIT (LENGTH_MEASURE( 1.000000000000000082E-05 ), #163, 'distance_accuracy_value', 'NONE');
#347 = ORIENTED_EDGE ( 'NONE', *, *, #282, .T. ) ;
#348 = DIRECTION ( 'NONE',  ( -1.252807796048505441E-16, 1.000000000000000000, -0.000000000000000000 ) ) ;
#349 = CARTESIAN_POINT ( 'NONE',  ( 0.000000000000000000, 0.000000000000000000, 0.000000000000000000 ) ) ;
#350 = SURFACE_SIDE_STYLE ('',( #125 ) ) ;
#351 = SURFACE_SIDE_STYLE ('',( #315 ) ) ;
#352 = EDGE_CURVE ( 'NONE', #337, #94, #279, .T. ) ;
#353 = FILL_AREA_STYLE ('',( #110 ) ) ;
#354 = ORIENTED_EDGE ( 'NONE', *, *, #16, .T. ) ;
#355 = PRESENTATION_LAYER_ASSIGNMENT (  '', '', ( #246 ) ) ;
#356 = CARTESIAN_POINT ( 'NONE',  ( 1.224646799147353454E-15, 0.000000000000000000, 10.00000000000000178 ) ) ;
#357 = CARTESIAN_POINT ( 'NONE',  ( -4.408728476930469278E-15, 124.9999999999999858, 0.000000000000000000 ) ) ;
#358 = EDGE_LOOP ( 'NONE', ( #354, #243, #304, #179 ) ) ;
#359 = EDGE_CURVE ( 'NONE', #275, #52, #24, .T. ) ;
#360 = CARTESIAN_POINT ( 'NONE',  ( -4.408728476930469278E-15, 124.9999999999999858, 0.000000000000000000 ) ) ;
#361 = COLOUR_RGB ( '',1.000000000000000000, 0.000000000000000000, 0.000000000000000000 ) ;
#362 = ORIENTED_EDGE ( 'NONE', *, *, #47, .F. ) ;
#363 = FILL_AREA_STYLE_COLOUR ( '', #100 ) ;
#364 = FILL_AREA_STYLE_COLOUR ( '', #72 ) ;
#365 = MECHANICAL_DESIGN_GEOMETRIC_PRESENTATION_REPRESENTATION (  '', ( #128 ), #277 ) ;
#366 = MECHANICAL_DESIGN_GEOMETRIC_PRESENTATION_REPRESENTATION (  '', ( #246 ), #105 ) ;
#367 = ORIENTED_EDGE ( 'NONE', *, *, #236, .T. ) ;
#368 = VERTEX_POINT ( 'NONE', #305 ) ;
#369 = ADVANCED_FACE ( 'NONE', ( #311 ), #141, .T. ) ;
#370 = UNCERTAINTY_MEASURE_WITH_UNIT (LENGTH_MEASURE( 1.000000000000000082E-05 ), #323, 'distance_accuracy_value', 'NONE');
ENDSEC;
END-ISO-10303-21;
