ISO-10303-21;
HEADER;
FILE_DESCRIPTION (( 'STEP AP214' ),
    '1' );
FILE_NAME ('59558.STEP',
    '2023-07-24T15:10:57',
    ( '' ),
    ( '' ),
    'SwSTEP 2.0',
    'SolidWorks 2023',
    '' );
FILE_SCHEMA (( 'AUTOMOTIVE_DESIGN' ));
ENDSEC;

DATA;
#1 = EDGE_CURVE ( 'NONE', #49, #195, #8, .T. ) ;
#2 = CARTESIAN_POINT ( 'NONE',  ( 6.123233995736762930E-15, 75.00000000000000000, 0.000000000000000000 ) ) ;
#3 = AXIS2_PLACEMENT_3D ( 'NONE', #178, #304, #38 ) ;
#4 = CIRCLE ( 'NONE', #35, 5.500000000000000000 ) ;
#5 = CARTESIAN_POINT ( 'NONE',  ( 5.421010862427522170E-15, 30.00000000000000000, 0.000000000000000000 ) ) ;
#6 =( LENGTH_UNIT ( ) NAMED_UNIT ( * ) SI_UNIT ( .MILLI., .METRE. ) );
#7 =( NAMED_UNIT ( * ) SI_UNIT ( $, .STERADIAN. ) SOLID_ANGLE_UNIT ( ) );
#8 = CIRCLE ( 'NONE', #292, 6.000000000000000000 ) ;
#9 = ORIENTED_EDGE ( 'NONE', *, *, #44, .T. ) ;
#10 = DIRECTION ( 'NONE',  ( 1.560495851798313744E-17, 1.000000000000000000, -0.000000000000000000 ) ) ;
#11 = CARTESIAN_POINT ( 'NONE',  ( 5.421010862427522170E-15, 30.00000000000000000, 0.000000000000000000 ) ) ;
#12 = SURFACE_STYLE_FILL_AREA ( #200 ) ;
#13 = COLOUR_RGB ( '',1.000000000000000000, 0.000000000000000000, 0.000000000000000000 ) ;
#14 = ORIENTED_EDGE ( 'NONE', *, *, #148, .T. ) ;
#15 = PLANE ( 'NONE',  #194 ) ;
#16 = ORIENTED_EDGE ( 'NONE', *, *, #247, .F. ) ;
#17 = SURFACE_STYLE_FILL_AREA ( #272 ) ;
#18 = PRESENTATION_LAYER_ASSIGNMENT (  '', '', ( #228 ) ) ;
#19 = VECTOR ( 'NONE', #94, 1000.000000000000000 ) ;
#20 = UNCERTAINTY_MEASURE_WITH_UNIT (LENGTH_MEASURE( 1.000000000000000082E-05 ), #248, 'distance_accuracy_value', 'NONE');
#21 =( NAMED_UNIT ( * ) PLANE_ANGLE_UNIT ( ) SI_UNIT ( $, .RADIAN. ) );
#22 = ADVANCED_FACE ( 'NONE', ( #278 ), #123, .T. ) ;
#23 = COLOUR_RGB ( '',0.7921568627450980005, 0.8196078431372548767, 0.9333333333333333481 ) ;
#24 = EDGE_LOOP ( 'NONE', ( #32, #359, #317, #283 ) ) ;
#25 = PRESENTATION_STYLE_ASSIGNMENT (( #310 ) ) ;
#26 = FACE_OUTER_BOUND ( 'NONE', #343, .T. ) ;
#27 = EDGE_LOOP ( 'NONE', ( #141, #265, #251, #82 ) ) ;
#28 = VERTEX_POINT ( 'NONE', #213 ) ;
#29 =( GEOMETRIC_REPRESENTATION_CONTEXT ( 3 ) GLOBAL_UNCERTAINTY_ASSIGNED_CONTEXT ( ( #100 ) ) GLOBAL_UNIT_ASSIGNED_CONTEXT ( ( #360, #179, #7 ) ) REPRESENTATION_CONTEXT ( 'NONE', 'WORKASPACE' ) );
#30 = EDGE_CURVE ( 'NONE', #345, #53, #212, .T. ) ;
#31 = CARTESIAN_POINT ( 'NONE',  ( 0.000000000000000000, 0.000000000000000000, 0.000000000000000000 ) ) ;
#32 = ORIENTED_EDGE ( 'NONE', *, *, #1, .T. ) ;
#33 = VERTEX_POINT ( 'NONE', #208 ) ;
#34 = FILL_AREA_STYLE_COLOUR ( '', #203 ) ;
#35 = AXIS2_PLACEMENT_3D ( 'NONE', #31, #263, #238 ) ;
#36 = CIRCLE ( 'NONE', #340, 6.000000000000000000 ) ;
#37 = APPLICATION_PROTOCOL_DEFINITION ( 'draft international standard', 'automotive_design', 1998, #135 ) ;
#38 = DIRECTION ( 'NONE',  ( 1.000000000000000000, -1.560495851798313744E-17, 0.000000000000000000 ) ) ;
#39 = SURFACE_SIDE_STYLE ('',( #74 ) ) ;
#40 = AXIS2_PLACEMENT_3D ( 'NONE', #337, #99, #184 ) ;
#41 = CIRCLE ( 'NONE', #324, 5.999999999999993783 ) ;
#42 =( NAMED_UNIT ( * ) SI_UNIT ( $, .STERADIAN. ) SOLID_ANGLE_UNIT ( ) );
#43 = PRESENTATION_STYLE_ASSIGNMENT (( #285 ) ) ;
#44 = EDGE_CURVE ( 'NONE', #288, #237, #36, .T. ) ;
#45 = DIRECTION ( 'NONE',  ( -1.000000000000000000, 0.000000000000000000, 0.000000000000000000 ) ) ;
#46 = PRESENTATION_LAYER_ASSIGNMENT (  '', '', ( #102 ) ) ;
#47 = UNCERTAINTY_MEASURE_WITH_UNIT (LENGTH_MEASURE( 1.000000000000000082E-05 ), #215, 'distance_accuracy_value', 'NONE');
#48 = SURFACE_STYLE_FILL_AREA ( #81 ) ;
#49 = VERTEX_POINT ( 'NONE', #66 ) ;
#50 = CARTESIAN_POINT ( 'NONE',  ( 6.000000000000000000, 30.00000000000000000, 7.347880794884112834E-16 ) ) ;
#51 = ADVANCED_FACE ( 'NONE', ( #183 ), #326, .F. ) ;
#52 = CLOSED_SHELL ( 'NONE', ( #321, #346, #22, #51 ) ) ;
#53 = VERTEX_POINT ( 'NONE', #71 ) ;
#54 = PRESENTATION_LAYER_ASSIGNMENT (  '', '', ( #130 ) ) ;
#55 = FILL_AREA_STYLE_COLOUR ( '', #23 ) ;
#56 = MECHANICAL_DESIGN_GEOMETRIC_PRESENTATION_REPRESENTATION (  '', ( #267 ), #367 ) ;
#57 = FILL_AREA_STYLE_COLOUR ( '', #222 ) ;
#58 = SURFACE_STYLE_USAGE ( .BOTH. , #351 ) ;
#59 = AXIS2_PLACEMENT_3D ( 'NONE', #65, #305, #302 ) ;
#60 = DIRECTION ( 'NONE',  ( -0.000000000000000000, -1.000000000000000000, -0.000000000000000000 ) ) ;
#61 = CARTESIAN_POINT ( 'NONE',  ( 5.421010862427522170E-15, 30.00000000000000000, 0.000000000000000000 ) ) ;
#62 = FILL_AREA_STYLE ('',( #55 ) ) ;
#63 = AXIS2_PLACEMENT_3D ( 'NONE', #188, #318, #312 ) ;
#64 = DIRECTION ( 'NONE',  ( -1.000000000000000000, 0.000000000000000000, 0.000000000000000000 ) ) ;
#65 = CARTESIAN_POINT ( 'NONE',  ( 0.000000000000000000, 0.000000000000000000, 0.000000000000000000 ) ) ;
#66 = CARTESIAN_POINT ( 'NONE',  ( 0.000000000000000000, 30.00000000000000000, -6.000000000000000000 ) ) ;
#67 = PRESENTATION_LAYER_ASSIGNMENT (  '', '', ( #289 ) ) ;
#68 = PRESENTATION_STYLE_ASSIGNMENT (( #159 ) ) ;
#69 = PRESENTATION_STYLE_ASSIGNMENT (( #217 ) ) ;
#70 = DIRECTION ( 'NONE',  ( 1.560495851798313744E-17, 1.000000000000000000, -0.000000000000000000 ) ) ;
#71 = CARTESIAN_POINT ( 'NONE',  ( 0.000000000000000000, 0.000000000000000000, -5.500000000000000000 ) ) ;
#72 = SURFACE_SIDE_STYLE ('',( #338 ) ) ;
#73 = AXIS2_PLACEMENT_3D ( 'NONE', #2, #147, #192 ) ;
#74 = SURFACE_STYLE_FILL_AREA ( #364 ) ;
#75 = CLOSED_SHELL ( 'NONE', ( #275, #103, #224, #84, #297, #151 ) ) ;
#76 =( NAMED_UNIT ( * ) SI_UNIT ( $, .STERADIAN. ) SOLID_ANGLE_UNIT ( ) );
#77 = ORIENTED_EDGE ( 'NONE', *, *, #249, .F. ) ;
#78 = DIRECTION ( 'NONE',  ( 0.000000000000000000, 0.000000000000000000, -1.000000000000000000 ) ) ;
#79 = PRODUCT_RELATED_PRODUCT_CATEGORY ( 'part', '', ( #180 ) ) ;
#80 = ORIENTED_EDGE ( 'NONE', *, *, #148, .F. ) ;
#81 = FILL_AREA_STYLE ('',( #316 ) ) ;
#82 = ORIENTED_EDGE ( 'NONE', *, *, #30, .F. ) ;
#83 =( NAMED_UNIT ( * ) SI_UNIT ( $, .STERADIAN. ) SOLID_ANGLE_UNIT ( ) );
#84 = ADVANCED_FACE ( 'NONE', ( #187 ), #269, .T. ) ;
#85 = ORIENTED_EDGE ( 'NONE', *, *, #369, .T. ) ;
#86 = CARTESIAN_POINT ( 'NONE',  ( 0.000000000000000000, 0.5000000000000000000, -5.500000000000000000 ) ) ;
#87 = CARTESIAN_POINT ( 'NONE',  ( 6.000000000000000888, 75.00000000000000000, 7.347880794884112834E-16 ) ) ;
#88 = SURFACE_SIDE_STYLE ('',( #115 ) ) ;
#89 = MECHANICAL_DESIGN_GEOMETRIC_PRESENTATION_REPRESENTATION (  '', ( #95 ), #320 ) ;
#90 = VECTOR ( 'NONE', #117, 1000.000000000000000 ) ;
#91 = SURFACE_SIDE_STYLE ('',( #226 ) ) ;
#92 = LINE ( 'NONE', #350, #19 ) ;
#93 =( LENGTH_UNIT ( ) NAMED_UNIT ( * ) SI_UNIT ( .MILLI., .METRE. ) );
#94 = DIRECTION ( 'NONE',  ( -0.000000000000000000, -1.000000000000000000, -0.000000000000000000 ) ) ;
#95 = STYLED_ITEM ( 'NONE', ( #43 ), #202 ) ;
#96 = ORIENTED_EDGE ( 'NONE', *, *, #199, .T. ) ;
#97 = DIRECTION ( 'NONE',  ( -1.000000000000000000, 1.560495851798313744E-17, 0.000000000000000000 ) ) ;
#98 = FACE_OUTER_BOUND ( 'NONE', #24, .T. ) ;
#99 = DIRECTION ( 'NONE',  ( -0.000000000000000000, -1.000000000000000000, -0.000000000000000000 ) ) ;
#100 = UNCERTAINTY_MEASURE_WITH_UNIT (LENGTH_MEASURE( 1.000000000000000082E-05 ), #360, 'distance_accuracy_value', 'NONE');
#101 = PRESENTATION_LAYER_ASSIGNMENT (  '', '', ( #267 ) ) ;
#102 = STYLED_ITEM ( 'NONE', ( #306 ), #151 ) ;
#103 = ADVANCED_FACE ( 'NONE', ( #190 ), #181, .T. ) ;
#104 = FILL_AREA_STYLE_COLOUR ( '', #243 ) ;
#105 = ORIENTED_EDGE ( 'NONE', *, *, #247, .T. ) ;
#106 = DIRECTION ( 'NONE',  ( -1.000000000000000000, 0.000000000000000000, 0.000000000000000000 ) ) ;
#107 = CARTESIAN_POINT ( 'NONE',  ( 6.123233995736762930E-15, 75.00000000000000000, 0.000000000000000000 ) ) ;
#108 = ADVANCED_BREP_SHAPE_REPRESENTATION ( '59558', ( #202, #332, #59 ), #303 ) ;
#109 = DIRECTION ( 'NONE',  ( 1.560495851798313744E-17, 1.000000000000000000, -0.000000000000000000 ) ) ;
#110 = SURFACE_SIDE_STYLE ('',( #113 ) ) ;
#111 = AXIS2_PLACEMENT_3D ( 'NONE', #293, #60, #229 ) ;
#112 = ORIENTED_EDGE ( 'NONE', *, *, #235, .T. ) ;
#113 = SURFACE_STYLE_FILL_AREA ( #325 ) ;
#114 =( NAMED_UNIT ( * ) SI_UNIT ( $, .STERADIAN. ) SOLID_ANGLE_UNIT ( ) );
#115 = SURFACE_STYLE_FILL_AREA ( #62 ) ;
#116 = EDGE_LOOP ( 'NONE', ( #77, #105, #353, #344 ) ) ;
#117 = DIRECTION ( 'NONE',  ( 1.560495851798313744E-17, 1.000000000000000000, -0.000000000000000000 ) ) ;
#118 = CARTESIAN_POINT ( 'NONE',  ( -5.999999999999988454, 75.00000000000000000, 0.000000000000000000 ) ) ;
#119 = CIRCLE ( 'NONE', #204, 5.999999999999994671 ) ;
#120 = DIRECTION ( 'NONE',  ( -1.000000000000000000, 0.000000000000000000, 0.000000000000000000 ) ) ;
#121 = CARTESIAN_POINT ( 'NONE',  ( 0.000000000000000000, 30.00000000000000000, 0.000000000000000000 ) ) ;
#122 =( LENGTH_UNIT ( ) NAMED_UNIT ( * ) SI_UNIT ( .MILLI., .METRE. ) );
#123 = CYLINDRICAL_SURFACE ( 'NONE', #347, 5.999999999999994671 ) ;
#124 = FACE_OUTER_BOUND ( 'NONE', #290, .T. ) ;
#125 = PRODUCT_DEFINITION_SHAPE ( 'NONE', 'NONE',  #160 ) ;
#126 = ORIENTED_EDGE ( 'NONE', *, *, #315, .F. ) ;
#127 = PRODUCT_CONTEXT ( 'NONE', #135, 'mechanical' ) ;
#128 = VERTEX_POINT ( 'NONE', #264 ) ;
#129 = CARTESIAN_POINT ( 'NONE',  ( 0.000000000000000000, 30.00000000000000000, 0.000000000000000000 ) ) ;
#130 = STYLED_ITEM ( 'NONE', ( #68 ), #297 ) ;
#131 = COLOUR_RGB ( '',1.000000000000000000, 0.000000000000000000, 0.000000000000000000 ) ;
#132 = MECHANICAL_DESIGN_GEOMETRIC_PRESENTATION_REPRESENTATION (  '', ( #334 ), #201 ) ;
#133 = CARTESIAN_POINT ( 'NONE',  ( 7.347880794884119736E-16, 0.000000000000000000, 6.000000000000000000 ) ) ;
#134 = PLANE ( 'NONE',  #282 ) ;
#135 = APPLICATION_CONTEXT ( 'automotive_design' ) ;
#136 = UNCERTAINTY_MEASURE_WITH_UNIT (LENGTH_MEASURE( 1.000000000000000082E-05 ), #139, 'distance_accuracy_value', 'NONE');
#137 = AXIS2_PLACEMENT_3D ( 'NONE', #157, #241, #330 ) ;
#138 = SURFACE_SIDE_STYLE ('',( #48 ) ) ;
#139 =( LENGTH_UNIT ( ) NAMED_UNIT ( * ) SI_UNIT ( .MILLI., .METRE. ) );
#140 = UNCERTAINTY_MEASURE_WITH_UNIT (LENGTH_MEASURE( 1.000000000000000082E-05 ), #250, 'distance_accuracy_value', 'NONE');
#141 = ORIENTED_EDGE ( 'NONE', *, *, #369, .F. ) ;
#142 = CARTESIAN_POINT ( 'NONE',  ( 0.000000000000000000, 0.5000000000000000000, 0.000000000000000000 ) ) ;
#143 = CIRCLE ( 'NONE', #73, 5.999999999999993783 ) ;
#144 = COLOUR_RGB ( '',0.7921568627450980005, 0.8196078431372548767, 0.9333333333333333481 ) ;
#145 = ORIENTED_EDGE ( 'NONE', *, *, #230, .F. ) ;
#146 =( NAMED_UNIT ( * ) PLANE_ANGLE_UNIT ( ) SI_UNIT ( $, .RADIAN. ) );
#147 = DIRECTION ( 'NONE',  ( 1.560495851798313744E-17, 1.000000000000000000, -0.000000000000000000 ) ) ;
#148 = EDGE_CURVE ( 'NONE', #33, #128, #177, .T. ) ;
#149 = PRESENTATION_STYLE_ASSIGNMENT (( #58 ) ) ;
#150 =( LENGTH_UNIT ( ) NAMED_UNIT ( * ) SI_UNIT ( .MILLI., .METRE. ) );
#151 = ADVANCED_FACE ( 'NONE', ( #328 ), #296, .T. ) ;
#152 = ORIENTED_EDGE ( 'NONE', *, *, #30, .T. ) ;
#153 = PRESENTATION_STYLE_ASSIGNMENT (( #348 ) ) ;
#154 =( NAMED_UNIT ( * ) PLANE_ANGLE_UNIT ( ) SI_UNIT ( $, .RADIAN. ) );
#155 = DIRECTION ( 'NONE',  ( -0.000000000000000000, -1.000000000000000000, -0.000000000000000000 ) ) ;
#156 = CARTESIAN_POINT ( 'NONE',  ( 6.735557395310442023E-16, 0.5000000000000000000, 5.500000000000000000 ) ) ;
#157 = CARTESIAN_POINT ( 'NONE',  ( 0.000000000000000000, 0.000000000000000000, 0.000000000000000000 ) ) ;
#158 = FILL_AREA_STYLE_COLOUR ( '', #13 ) ;
#159 = SURFACE_STYLE_USAGE ( .BOTH. , #39 ) ;
#160 = PRODUCT_DEFINITION ( 'UNKNOWN', '', #370, #277 ) ;
#161 =( NAMED_UNIT ( * ) PLANE_ANGLE_UNIT ( ) SI_UNIT ( $, .RADIAN. ) );
#162 = CARTESIAN_POINT ( 'NONE',  ( 0.000000000000000000, 0.5000000000000000000, -6.000000000000000000 ) ) ;
#163 = CIRCLE ( 'NONE', #196, 5.999999999999994671 ) ;
#164 = VERTEX_POINT ( 'NONE', #50 ) ;
#165 = CIRCLE ( 'NONE', #271, 0.5000000000000004441 ) ;
#166 = EDGE_LOOP ( 'NONE', ( #145, #223, #14, #198 ) ) ;
#167 = CARTESIAN_POINT ( 'NONE',  ( 7.347880794884119736E-16, 30.00000000000000000, 6.000000000000000000 ) ) ;
#168 = MECHANICAL_DESIGN_GEOMETRIC_PRESENTATION_REPRESENTATION (  '', ( #228 ), #189 ) ;
#169 = DIRECTION ( 'NONE',  ( -0.000000000000000000, -1.000000000000000000, -0.000000000000000000 ) ) ;
#170 = EDGE_LOOP ( 'NONE', ( #112, #152 ) ) ;
#171 = AXIS2_PLACEMENT_3D ( 'NONE', #86, #286, #233 ) ;
#172 = DIRECTION ( 'NONE',  ( -1.000000000000000000, 0.000000000000000000, 0.000000000000000000 ) ) ;
#173 = ORIENTED_EDGE ( 'NONE', *, *, #315, .T. ) ;
#174 = SURFACE_STYLE_USAGE ( .BOTH. , #110 ) ;
#175 = DIRECTION ( 'NONE',  ( 0.000000000000000000, -1.000000000000000000, -0.000000000000000000 ) ) ;
#176 = EDGE_CURVE ( 'NONE', #33, #164, #163, .T. ) ;
#177 = LINE ( 'NONE', #118, #309 ) ;
#178 = CARTESIAN_POINT ( 'NONE',  ( 6.000000000000000000, 75.00000000000000000, 0.000000000000000000 ) ) ;
#179 =( NAMED_UNIT ( * ) PLANE_ANGLE_UNIT ( ) SI_UNIT ( $, .RADIAN. ) );
#180 = PRODUCT ( '59558', '59558', '', ( #127 ) ) ;
#181 = TOROIDAL_SURFACE ( 'NONE', #111, 5.500000000000000000, 0.5000000000000002220 ) ;
#182 = DIRECTION ( 'NONE',  ( 1.000000000000000000, 0.000000000000000000, -1.224646799147353207E-16 ) ) ;
#183 = FACE_OUTER_BOUND ( 'NONE', #259, .T. ) ;
#184 = DIRECTION ( 'NONE',  ( 0.000000000000000000, 0.000000000000000000, -1.000000000000000000 ) ) ;
#185 = EDGE_CURVE ( 'NONE', #237, #288, #245, .T. ) ;
#186 = COLOUR_RGB ( '',1.000000000000000000, 0.000000000000000000, 0.000000000000000000 ) ;
#187 = FACE_OUTER_BOUND ( 'NONE', #27, .T. ) ;
#188 = CARTESIAN_POINT ( 'NONE',  ( 0.000000000000000000, 30.00000000000000000, 0.000000000000000000 ) ) ;
#189 =( GEOMETRIC_REPRESENTATION_CONTEXT ( 3 ) GLOBAL_UNCERTAINTY_ASSIGNED_CONTEXT ( ( #311 ) ) GLOBAL_UNIT_ASSIGNED_CONTEXT ( ( #93, #154, #83 ) ) REPRESENTATION_CONTEXT ( 'NONE', 'WORKASPACE' ) );
#190 = FACE_OUTER_BOUND ( 'NONE', #257, .T. ) ;
#191 = DIRECTION ( 'NONE',  ( 1.560495851798313744E-17, 1.000000000000000000, -0.000000000000000000 ) ) ;
#192 = DIRECTION ( 'NONE',  ( -1.000000000000000000, 0.000000000000000000, 0.000000000000000000 ) ) ;
#193 = ORIENTED_EDGE ( 'NONE', *, *, #216, .F. ) ;
#194 = AXIS2_PLACEMENT_3D ( 'NONE', #231, #175, #236 ) ;
#195 = VERTEX_POINT ( 'NONE', #167 ) ;
#196 = AXIS2_PLACEMENT_3D ( 'NONE', #5, #284, #106 ) ;
#197 = DIRECTION ( 'NONE',  ( 0.000000000000000000, 0.000000000000000000, -1.000000000000000000 ) ) ;
#198 = ORIENTED_EDGE ( 'NONE', *, *, #199, .F. ) ;
#199 = EDGE_CURVE ( 'NONE', #28, #128, #41, .T. ) ;
#200 = FILL_AREA_STYLE ('',( #358 ) ) ;
#201 =( GEOMETRIC_REPRESENTATION_CONTEXT ( 3 ) GLOBAL_UNCERTAINTY_ASSIGNED_CONTEXT ( ( #20 ) ) GLOBAL_UNIT_ASSIGNED_CONTEXT ( ( #248, #298, #42 ) ) REPRESENTATION_CONTEXT ( 'NONE', 'WORKASPACE' ) );
#202 = MANIFOLD_SOLID_BREP ( 'Revolve - Cutting Edge', #75 ) ;
#203 = COLOUR_RGB ( '',1.000000000000000000, 0.000000000000000000, 0.000000000000000000 ) ;
#204 = AXIS2_PLACEMENT_3D ( 'NONE', #11, #109, #172 ) ;
#205 = ORIENTED_EDGE ( 'NONE', *, *, #235, .F. ) ;
#206 = DIRECTION ( 'NONE',  ( 1.560495851798313744E-17, 1.000000000000000000, -0.000000000000000000 ) ) ;
#207 =( NAMED_UNIT ( * ) SI_UNIT ( $, .STERADIAN. ) SOLID_ANGLE_UNIT ( ) );
#208 = CARTESIAN_POINT ( 'NONE',  ( -5.999999999999989342, 30.00000000000000000, 0.000000000000000000 ) ) ;
#209 = FILL_AREA_STYLE ('',( #57 ) ) ;
#210 = CARTESIAN_POINT ( 'NONE',  ( 0.000000000000000000, 0.5000000000000000000, 0.000000000000000000 ) ) ;
#211 =( NAMED_UNIT ( * ) SI_UNIT ( $, .STERADIAN. ) SOLID_ANGLE_UNIT ( ) );
#212 = CIRCLE ( 'NONE', #137, 5.500000000000000000 ) ;
#213 = CARTESIAN_POINT ( 'NONE',  ( 6.000000000000000000, 75.00000000000000000, 7.347880794884112834E-16 ) ) ;
#214 = SURFACE_STYLE_USAGE ( .BOTH. , #72 ) ;
#215 =( LENGTH_UNIT ( ) NAMED_UNIT ( * ) SI_UNIT ( .MILLI., .METRE. ) );
#216 = EDGE_CURVE ( 'NONE', #164, #33, #119, .T. ) ;
#217 = SURFACE_STYLE_USAGE ( .BOTH. , #366 ) ;
#218 =( GEOMETRIC_REPRESENTATION_CONTEXT ( 3 ) GLOBAL_UNCERTAINTY_ASSIGNED_CONTEXT ( ( #136 ) ) GLOBAL_UNIT_ASSIGNED_CONTEXT ( ( #139, #146, #76 ) ) REPRESENTATION_CONTEXT ( 'NONE', 'WORKASPACE' ) );
#219 = UNCERTAINTY_MEASURE_WITH_UNIT (LENGTH_MEASURE( 1.000000000000000082E-05 ), #150, 'distance_accuracy_value', 'NONE');
#220 = MECHANICAL_DESIGN_GEOMETRIC_PRESENTATION_REPRESENTATION (  '', ( #289 ), #322 ) ;
#221 = AXIS2_PLACEMENT_3D ( 'NONE', #142, #252, #78 ) ;
#222 = COLOUR_RGB ( '',1.000000000000000000, 0.000000000000000000, 0.000000000000000000 ) ;
#223 = ORIENTED_EDGE ( 'NONE', *, *, #216, .T. ) ;
#224 = ADVANCED_FACE ( 'NONE', ( #261 ), #15, .T. ) ;
#225 = ORIENTED_EDGE ( 'NONE', *, *, #1, .F. ) ;
#226 = SURFACE_STYLE_FILL_AREA ( #209 ) ;
#227 = ORIENTED_EDGE ( 'NONE', *, *, #176, .T. ) ;
#228 = STYLED_ITEM ( 'NONE', ( #149 ), #103 ) ;
#229 = DIRECTION ( 'NONE',  ( 0.000000000000000000, 0.000000000000000000, -1.000000000000000000 ) ) ;
#230 = EDGE_CURVE ( 'NONE', #164, #28, #352, .T. ) ;
#231 = CARTESIAN_POINT ( 'NONE',  ( 0.000000000000000000, 0.000000000000000000, 0.000000000000000000 ) ) ;
#232 = ORIENTED_EDGE ( 'NONE', *, *, #176, .F. ) ;
#233 = DIRECTION ( 'NONE',  ( 0.000000000000000000, 0.000000000000000000, 1.000000000000000000 ) ) ;
#234 = CARTESIAN_POINT ( 'NONE',  ( 0.000000000000000000, 0.5000000000000000000, 0.000000000000000000 ) ) ;
#235 = EDGE_CURVE ( 'NONE', #53, #345, #4, .T. ) ;
#236 = DIRECTION ( 'NONE',  ( 0.000000000000000000, 0.000000000000000000, -1.000000000000000000 ) ) ;
#237 = VERTEX_POINT ( 'NONE', #357 ) ;
#238 = DIRECTION ( 'NONE',  ( 0.000000000000000000, 0.000000000000000000, -1.000000000000000000 ) ) ;
#239 = EDGE_LOOP ( 'NONE', ( #225, #16 ) ) ;
#240 = ORIENTED_EDGE ( 'NONE', *, *, #230, .T. ) ;
#241 = DIRECTION ( 'NONE',  ( -0.000000000000000000, -1.000000000000000000, -0.000000000000000000 ) ) ;
#242 = SHAPE_DEFINITION_REPRESENTATION ( #125, #108 ) ;
#243 = COLOUR_RGB ( '',1.000000000000000000, 0.000000000000000000, 0.000000000000000000 ) ;
#244 = DIRECTION ( 'NONE',  ( -0.000000000000000000, -1.000000000000000000, -0.000000000000000000 ) ) ;
#245 = CIRCLE ( 'NONE', #221, 6.000000000000000000 ) ;
#246 = VECTOR ( 'NONE', #155, 1000.000000000000000 ) ;
#247 = EDGE_CURVE ( 'NONE', #195, #49, #276, .T. ) ;
#248 =( LENGTH_UNIT ( ) NAMED_UNIT ( * ) SI_UNIT ( .MILLI., .METRE. ) );
#249 = EDGE_CURVE ( 'NONE', #195, #237, #365, .T. ) ;
#250 =( LENGTH_UNIT ( ) NAMED_UNIT ( * ) SI_UNIT ( .MILLI., .METRE. ) );
#251 = ORIENTED_EDGE ( 'NONE', *, *, #339, .T. ) ;
#252 = DIRECTION ( 'NONE',  ( -0.000000000000000000, -1.000000000000000000, -0.000000000000000000 ) ) ;
#253 =( NAMED_UNIT ( * ) SI_UNIT ( $, .STERADIAN. ) SOLID_ANGLE_UNIT ( ) );
#254 = AXIS2_PLACEMENT_3D ( 'NONE', #121, #329, #362 ) ;
#255 = PRESENTATION_LAYER_ASSIGNMENT (  '', '', ( #95 ) ) ;
#256 = PRESENTATION_LAYER_ASSIGNMENT (  '', '', ( #334 ) ) ;
#257 = EDGE_LOOP ( 'NONE', ( #9, #85, #205, #349 ) ) ;
#258 = CYLINDRICAL_SURFACE ( 'NONE', #294, 5.999999999999994671 ) ;
#259 = EDGE_LOOP ( 'NONE', ( #173, #96 ) ) ;
#260 = CIRCLE ( 'NONE', #171, 0.5000000000000004441 ) ;
#261 = FACE_OUTER_BOUND ( 'NONE', #170, .T. ) ;
#262 = MECHANICAL_DESIGN_GEOMETRIC_PRESENTATION_REPRESENTATION (  '', ( #102 ), #300 ) ;
#263 = DIRECTION ( 'NONE',  ( -0.000000000000000000, -1.000000000000000000, -0.000000000000000000 ) ) ;
#264 = CARTESIAN_POINT ( 'NONE',  ( -5.999999999999987566, 75.00000000000000000, 0.000000000000000000 ) ) ;
#265 = ORIENTED_EDGE ( 'NONE', *, *, #185, .T. ) ;
#266 = CARTESIAN_POINT ( 'NONE',  ( 6.123233995736762930E-15, 75.00000000000000000, 0.000000000000000000 ) ) ;
#267 = STYLED_ITEM ( 'NONE', ( #153 ), #224 ) ;
#268 =( NAMED_UNIT ( * ) PLANE_ANGLE_UNIT ( ) SI_UNIT ( $, .RADIAN. ) );
#269 = TOROIDAL_SURFACE ( 'NONE', #313, 5.500000000000000000, 0.5000000000000002220 ) ;
#270 = CYLINDRICAL_SURFACE ( 'NONE', #40, 6.000000000000000000 ) ;
#271 = AXIS2_PLACEMENT_3D ( 'NONE', #156, #182, #363 ) ;
#272 = FILL_AREA_STYLE ('',( #158 ) ) ;
#273 = APPLICATION_PROTOCOL_DEFINITION ( 'draft international standard', 'automotive_design', 1998, #323 ) ;
#274 = MECHANICAL_DESIGN_GEOMETRIC_PRESENTATION_REPRESENTATION (  '', ( #130 ), #218 ) ;
#275 = ADVANCED_FACE ( 'NONE', ( #98 ), #270, .T. ) ;
#276 = CIRCLE ( 'NONE', #254, 6.000000000000000000 ) ;
#277 = PRODUCT_DEFINITION_CONTEXT ( 'detailed design', #323, 'design' ) ;
#278 = FACE_OUTER_BOUND ( 'NONE', #166, .T. ) ;
#279 = STYLED_ITEM ( 'NONE', ( #295 ), #84 ) ;
#280 = CARTESIAN_POINT ( 'NONE',  ( 6.123233995736762930E-15, 75.00000000000000000, 0.000000000000000000 ) ) ;
#281 = UNCERTAINTY_MEASURE_WITH_UNIT (LENGTH_MEASURE( 1.000000000000000082E-05 ), #6, 'distance_accuracy_value', 'NONE');
#282 = AXIS2_PLACEMENT_3D ( 'NONE', #61, #70, #97 ) ;
#283 = ORIENTED_EDGE ( 'NONE', *, *, #341, .F. ) ;
#284 = DIRECTION ( 'NONE',  ( 1.560495851798313744E-17, 1.000000000000000000, -0.000000000000000000 ) ) ;
#285 = SURFACE_STYLE_USAGE ( .BOTH. , #138 ) ;
#286 = DIRECTION ( 'NONE',  ( -1.000000000000000000, 0.000000000000000000, 0.000000000000000000 ) ) ;
#287 = CARTESIAN_POINT ( 'NONE',  ( 0.000000000000000000, 0.000000000000000000, 0.000000000000000000 ) ) ;
#288 = VERTEX_POINT ( 'NONE', #162 ) ;
#289 = STYLED_ITEM ( 'NONE', ( #25 ), #332 ) ;
#290 = EDGE_LOOP ( 'NONE', ( #232, #193 ) ) ;
#291 = DIRECTION ( 'NONE',  ( -0.000000000000000000, -1.000000000000000000, -0.000000000000000000 ) ) ;
#292 = AXIS2_PLACEMENT_3D ( 'NONE', #129, #244, #342 ) ;
#293 = CARTESIAN_POINT ( 'NONE',  ( 0.000000000000000000, 0.5000000000000000000, 0.000000000000000000 ) ) ;
#294 = AXIS2_PLACEMENT_3D ( 'NONE', #107, #319, #120 ) ;
#295 = PRESENTATION_STYLE_ASSIGNMENT (( #174 ) ) ;
#296 = PLANE ( 'NONE',  #63 ) ;
#297 = ADVANCED_FACE ( 'NONE', ( #333 ), #307, .T. ) ;
#298 =( NAMED_UNIT ( * ) PLANE_ANGLE_UNIT ( ) SI_UNIT ( $, .RADIAN. ) );
#299 = FILL_AREA_STYLE ('',( #34 ) ) ;
#300 =( GEOMETRIC_REPRESENTATION_CONTEXT ( 3 ) GLOBAL_UNCERTAINTY_ASSIGNED_CONTEXT ( ( #47 ) ) GLOBAL_UNIT_ASSIGNED_CONTEXT ( ( #215, #308, #335 ) ) REPRESENTATION_CONTEXT ( 'NONE', 'WORKASPACE' ) );
#301 = DIRECTION ( 'NONE',  ( 0.000000000000000000, 0.000000000000000000, -1.000000000000000000 ) ) ;
#302 = DIRECTION ( 'NONE',  ( 1.000000000000000000, 0.000000000000000000, 0.000000000000000000 ) ) ;
#303 =( GEOMETRIC_REPRESENTATION_CONTEXT ( 3 ) GLOBAL_UNCERTAINTY_ASSIGNED_CONTEXT ( ( #336 ) ) GLOBAL_UNIT_ASSIGNED_CONTEXT ( ( #122, #331, #211 ) ) REPRESENTATION_CONTEXT ( 'NONE', 'WORKASPACE' ) );
#304 = DIRECTION ( 'NONE',  ( -1.560495851798313744E-17, -1.000000000000000000, 0.000000000000000000 ) ) ;
#305 = DIRECTION ( 'NONE',  ( 0.000000000000000000, 0.000000000000000000, 1.000000000000000000 ) ) ;
#306 = PRESENTATION_STYLE_ASSIGNMENT (( #214 ) ) ;
#307 = CYLINDRICAL_SURFACE ( 'NONE', #354, 6.000000000000000000 ) ;
#308 =( NAMED_UNIT ( * ) PLANE_ANGLE_UNIT ( ) SI_UNIT ( $, .RADIAN. ) );
#309 = VECTOR ( 'NONE', #10, 1000.000000000000000 ) ;
#310 = SURFACE_STYLE_USAGE ( .BOTH. , #88 ) ;
#311 = UNCERTAINTY_MEASURE_WITH_UNIT (LENGTH_MEASURE( 1.000000000000000082E-05 ), #93, 'distance_accuracy_value', 'NONE');
#312 = DIRECTION ( 'NONE',  ( 0.000000000000000000, -0.000000000000000000, 1.000000000000000000 ) ) ;
#313 = AXIS2_PLACEMENT_3D ( 'NONE', #234, #291, #327 ) ;
#314 = FILL_AREA_STYLE_COLOUR ( '', #186 ) ;
#315 = EDGE_CURVE ( 'NONE', #128, #28, #143, .T. ) ;
#316 = FILL_AREA_STYLE_COLOUR ( '', #144 ) ;
#317 = ORIENTED_EDGE ( 'NONE', *, *, #44, .F. ) ;
#318 = DIRECTION ( 'NONE',  ( 0.000000000000000000, 1.000000000000000000, 0.000000000000000000 ) ) ;
#319 = DIRECTION ( 'NONE',  ( 1.560495851798313744E-17, 1.000000000000000000, -0.000000000000000000 ) ) ;
#320 =( GEOMETRIC_REPRESENTATION_CONTEXT ( 3 ) GLOBAL_UNCERTAINTY_ASSIGNED_CONTEXT ( ( #281 ) ) GLOBAL_UNIT_ASSIGNED_CONTEXT ( ( #6, #161, #207 ) ) REPRESENTATION_CONTEXT ( 'NONE', 'WORKASPACE' ) );
#321 = ADVANCED_FACE ( 'NONE', ( #26 ), #258, .T. ) ;
#322 =( GEOMETRIC_REPRESENTATION_CONTEXT ( 3 ) GLOBAL_UNCERTAINTY_ASSIGNED_CONTEXT ( ( #140 ) ) GLOBAL_UNIT_ASSIGNED_CONTEXT ( ( #250, #21, #253 ) ) REPRESENTATION_CONTEXT ( 'NONE', 'WORKASPACE' ) );
#323 = APPLICATION_CONTEXT ( 'automotive_design' ) ;
#324 = AXIS2_PLACEMENT_3D ( 'NONE', #280, #191, #45 ) ;
#325 = FILL_AREA_STYLE ('',( #314 ) ) ;
#326 = PLANE ( 'NONE',  #3 ) ;
#327 = DIRECTION ( 'NONE',  ( 0.000000000000000000, 0.000000000000000000, -1.000000000000000000 ) ) ;
#328 = FACE_OUTER_BOUND ( 'NONE', #239, .T. ) ;
#329 = DIRECTION ( 'NONE',  ( -0.000000000000000000, -1.000000000000000000, -0.000000000000000000 ) ) ;
#330 = DIRECTION ( 'NONE',  ( 0.000000000000000000, 0.000000000000000000, -1.000000000000000000 ) ) ;
#331 =( NAMED_UNIT ( * ) PLANE_ANGLE_UNIT ( ) SI_UNIT ( $, .RADIAN. ) );
#332 = MANIFOLD_SOLID_BREP ( 'Revolve - Tool Body (Straight Shanked)', #52 ) ;
#333 = FACE_OUTER_BOUND ( 'NONE', #116, .T. ) ;
#334 = STYLED_ITEM ( 'NONE', ( #69 ), #275 ) ;
#335 =( NAMED_UNIT ( * ) SI_UNIT ( $, .STERADIAN. ) SOLID_ANGLE_UNIT ( ) );
#336 = UNCERTAINTY_MEASURE_WITH_UNIT (LENGTH_MEASURE( 1.000000000000000082E-05 ), #122, 'distance_accuracy_value', 'NONE');
#337 = CARTESIAN_POINT ( 'NONE',  ( 0.000000000000000000, 0.000000000000000000, 0.000000000000000000 ) ) ;
#338 = SURFACE_STYLE_FILL_AREA ( #299 ) ;
#339 = EDGE_CURVE ( 'NONE', #288, #53, #260, .T. ) ;
#340 = AXIS2_PLACEMENT_3D ( 'NONE', #210, #356, #301 ) ;
#341 = EDGE_CURVE ( 'NONE', #49, #288, #92, .T. ) ;
#342 = DIRECTION ( 'NONE',  ( 0.000000000000000000, 0.000000000000000000, -1.000000000000000000 ) ) ;
#343 = EDGE_LOOP ( 'NONE', ( #227, #240, #126, #80 ) ) ;
#344 = ORIENTED_EDGE ( 'NONE', *, *, #185, .F. ) ;
#345 = VERTEX_POINT ( 'NONE', #361 ) ;
#346 = ADVANCED_FACE ( 'NONE', ( #124 ), #134, .F. ) ;
#347 = AXIS2_PLACEMENT_3D ( 'NONE', #266, #206, #64 ) ;
#348 = SURFACE_STYLE_USAGE ( .BOTH. , #91 ) ;
#349 = ORIENTED_EDGE ( 'NONE', *, *, #339, .F. ) ;
#350 = CARTESIAN_POINT ( 'NONE',  ( 0.000000000000000000, 0.000000000000000000, -6.000000000000000000 ) ) ;
#351 = SURFACE_SIDE_STYLE ('',( #12 ) ) ;
#352 = LINE ( 'NONE', #87, #90 ) ;
#353 = ORIENTED_EDGE ( 'NONE', *, *, #341, .T. ) ;
#354 = AXIS2_PLACEMENT_3D ( 'NONE', #287, #169, #197 ) ;
#355 = PRESENTATION_LAYER_ASSIGNMENT (  '', '', ( #279 ) ) ;
#356 = DIRECTION ( 'NONE',  ( -0.000000000000000000, -1.000000000000000000, -0.000000000000000000 ) ) ;
#357 = CARTESIAN_POINT ( 'NONE',  ( 7.347880794884119736E-16, 0.5000000000000000000, 6.000000000000000000 ) ) ;
#358 = FILL_AREA_STYLE_COLOUR ( '', #131 ) ;
#359 = ORIENTED_EDGE ( 'NONE', *, *, #249, .T. ) ;
#360 =( LENGTH_UNIT ( ) NAMED_UNIT ( * ) SI_UNIT ( .MILLI., .METRE. ) );
#361 = CARTESIAN_POINT ( 'NONE',  ( 7.041719095097280880E-16, 0.000000000000000000, 5.500000000000000000 ) ) ;
#362 = DIRECTION ( 'NONE',  ( 0.000000000000000000, 0.000000000000000000, -1.000000000000000000 ) ) ;
#363 = DIRECTION ( 'NONE',  ( -1.224646799147353454E-16, 0.000000000000000000, -1.000000000000000000 ) ) ;
#364 = FILL_AREA_STYLE ('',( #104 ) ) ;
#365 = LINE ( 'NONE', #133, #246 ) ;
#366 = SURFACE_SIDE_STYLE ('',( #17 ) ) ;
#367 =( GEOMETRIC_REPRESENTATION_CONTEXT ( 3 ) GLOBAL_UNCERTAINTY_ASSIGNED_CONTEXT ( ( #219 ) ) GLOBAL_UNIT_ASSIGNED_CONTEXT ( ( #150, #268, #114 ) ) REPRESENTATION_CONTEXT ( 'NONE', 'WORKASPACE' ) );
#368 = MECHANICAL_DESIGN_GEOMETRIC_PRESENTATION_REPRESENTATION (  '', ( #279 ), #29 ) ;
#369 = EDGE_CURVE ( 'NONE', #237, #345, #165, .T. ) ;
#370 = PRODUCT_DEFINITION_FORMATION_WITH_SPECIFIED_SOURCE ( 'ANY', '', #180, .NOT_KNOWN. ) ;
ENDSEC;
END-ISO-10303-21;
