ISO-10303-21;
HEADER;
FILE_DESCRIPTION (( 'STEP AP214' ),
    '1' );
FILE_NAME ('Micro_BMS-013-2X.STEP',
    '2021-09-03T14:46:24',
    ( '' ),
    ( '' ),
    'SwSTEP 2.0',
    'SolidWorks 2020',
    '' );
FILE_SCHEMA (( 'AUTOMOTIVE_DESIGN' ));
ENDSEC;

DATA;
#1 =( NAMED_UNIT ( * ) SI_UNIT ( $, .STERADIAN. ) SOLID_ANGLE_UNIT ( ) );
#2 = DIRECTION ( 'NONE',  ( -1.224646799147353454E-16, -0.0000000000000000000, -1.000000000000000000 ) ) ;
#3 = ADVANCED_FACE ( 'NONE', ( #186 ), #169, .T. ) ;
#4 = ORIENTED_EDGE ( 'NONE', *, *, #18, .T. ) ;
#5 = DIRECTION ( 'NONE',  ( -1.224646799147353454E-16, -0.0000000000000000000, -1.000000000000000000 ) ) ;
#6 = EDGE_LOOP ( 'NONE', ( #136, #63, #59, #197 ) ) ;
#7 = DIRECTION ( 'NONE',  ( 0.0000000000000000000, 1.000000000000000000, 0.0000000000000000000 ) ) ;
#8 = DIRECTION ( 'NONE',  ( -1.000000000000000000, 0.0000000000000000000, 0.0000000000000000000 ) ) ;
#9 = VERTEX_POINT ( 'NONE', #244 ) ;
#10 = DIRECTION ( 'NONE',  ( 1.000000000000000000, 0.0000000000000000000, 0.0000000000000000000 ) ) ;
#11 = DIRECTION ( 'NONE',  ( -1.000000000000000000, 0.0000000000000000000, 0.0000000000000000000 ) ) ;
#12 = DIRECTION ( 'NONE',  ( -1.224646799147353454E-16, -0.0000000000000000000, -1.000000000000000000 ) ) ;
#13 = EDGE_CURVE ( 'NONE', #219, #234, #139, .T. ) ;
#14 = AXIS2_PLACEMENT_3D ( 'NONE', #218, #5, #114 ) ;
#15 = AXIS2_PLACEMENT_3D ( 'NONE', #44, #316, #141 ) ;
#16 = DIRECTION ( 'NONE',  ( -0.0000000000000000000, -0.0000000000000000000, -1.000000000000000000 ) ) ;
#17 = CARTESIAN_POINT ( 'NONE',  ( 0.04750000000000064587, 6.735557395310482421E-18, 1.500000000000000222 ) ) ;
#18 = EDGE_CURVE ( 'NONE', #79, #159, #22, .T. ) ;
#19 =( LENGTH_UNIT ( ) NAMED_UNIT ( * ) SI_UNIT ( $, .METRE. ) );
#20 = EDGE_CURVE ( 'NONE', #234, #107, #291, .T. ) ;
#21 = CYLINDRICAL_SURFACE ( 'NONE', #98, 0.006493499999999999273 ) ;
#22 = CIRCLE ( 'NONE', #322, 0.06250000000000000000 ) ;
#23 = ORIENTED_EDGE ( 'NONE', *, *, #13, .F. ) ;
#24 = CYLINDRICAL_SURFACE ( 'NONE', #69, 0.006493499999999999273 ) ;
#25 =( NAMED_UNIT ( * ) SI_UNIT ( $, .STERADIAN. ) SOLID_ANGLE_UNIT ( ) );
#26 = AXIS2_PLACEMENT_3D ( 'NONE', #239, #162, #8 ) ;
#27 = AXIS2_PLACEMENT_3D ( 'NONE', #105, #148, #29 ) ;
#28 = FILL_AREA_STYLE_COLOUR ( '', #174 ) ;
#29 = DIRECTION ( 'NONE',  ( 1.000000000000000000, 0.0000000000000000000, -0.0000000000000000000 ) ) ;
#30 = ORIENTED_EDGE ( 'NONE', *, *, #193, .F. ) ;
#31 =( NAMED_UNIT ( * ) PLANE_ANGLE_UNIT ( ) SI_UNIT ( $, .RADIAN. ) );
#32 = AXIS2_PLACEMENT_3D ( 'NONE', #64, #164, #190 ) ;
#33 = AXIS2_PLACEMENT_3D ( 'NONE', #278, #82, #80 ) ;
#34 = ORIENTED_EDGE ( 'NONE', *, *, #261, .T. ) ;
#35 = ORIENTED_EDGE ( 'NONE', *, *, #215, .F. ) ;
#36 = DIRECTION ( 'NONE',  ( 1.224646799147353454E-16, 0.0000000000000000000, 1.000000000000000000 ) ) ;
#37 = ORIENTED_EDGE ( 'NONE', *, *, #215, .T. ) ;
#38 = ORIENTED_EDGE ( 'NONE', *, *, #236, .T. ) ;
#39 = VECTOR ( 'NONE', #93, 39.37007874015748143 ) ;
#40 = EDGE_LOOP ( 'NONE', ( #4, #180, #196, #207 ) ) ;
#41 = CARTESIAN_POINT ( 'NONE',  ( 7.952243990263339486E-19, 0.0000000000000000000, 0.006493500000000000140 ) ) ;
#42 = ORIENTED_EDGE ( 'NONE', *, *, #257, .T. ) ;
#43 = DIRECTION ( 'NONE',  ( 1.000000000000000000, 0.0000000000000000000, 0.0000000000000000000 ) ) ;
#44 = CARTESIAN_POINT ( 'NONE',  ( 4.122511928827407796E-17, 0.0000000000000000000, 0.3366286452304174670 ) ) ;
#45 = VECTOR ( 'NONE', #188, 39.37007874015748143 ) ;
#46 =( GEOMETRIC_REPRESENTATION_CONTEXT ( 3 ) GLOBAL_UNCERTAINTY_ASSIGNED_CONTEXT ( ( #202 ) ) GLOBAL_UNIT_ASSIGNED_CONTEXT ( ( #208, #31, #25 ) ) REPRESENTATION_CONTEXT ( 'NONE', 'WORKASPACE' ) );
#47 = DIRECTION ( 'NONE',  ( 0.0000000000000000000, 1.000000000000000000, 0.0000000000000000000 ) ) ;
#48 =( NAMED_UNIT ( * ) PLANE_ANGLE_UNIT ( ) SI_UNIT ( $, .RADIAN. ) );
#49 =( CONVERSION_BASED_UNIT ( 'INCH', #119 ) LENGTH_UNIT ( ) NAMED_UNIT ( #61 ) );
#50 = PRODUCT ( 'Micro_BMS-013-2X', 'Micro_BMS-013-2X', '', ( #184 ) ) ;
#51 = LENGTH_MEASURE_WITH_UNIT ( LENGTH_MEASURE( 0.02539999999999999897 ), #127 );
#52 = ORIENTED_EDGE ( 'NONE', *, *, #55, .F. ) ;
#53 = LINE ( 'NONE', #303, #250 ) ;
#54 = CONICAL_SURFACE ( 'NONE', #58, 0.006493500000000001007, 0.1745329251994338637 ) ;
#55 = EDGE_CURVE ( 'NONE', #159, #242, #88, .T. ) ;
#56 = EDGE_CURVE ( 'NONE', #211, #159, #117, .T. ) ;
#57 = ORIENTED_EDGE ( 'NONE', *, *, #20, .F. ) ;
#58 = AXIS2_PLACEMENT_3D ( 'NONE', #243, #36, #10 ) ;
#59 = ORIENTED_EDGE ( 'NONE', *, *, #18, .F. ) ;
#60 = DIRECTION ( 'NONE',  ( -1.000000000000000000, 0.0000000000000000000, 1.643378952067610679E-16 ) ) ;
#61 = DIMENSIONAL_EXPONENTS ( 1.000000000000000000, 0.0000000000000000000, 0.0000000000000000000, 0.0000000000000000000, 0.0000000000000000000, 0.0000000000000000000, 0.0000000000000000000 ) ;
#62 = LINE ( 'NONE', #221, #306 ) ;
#63 = ORIENTED_EDGE ( 'NONE', *, *, #56, .T. ) ;
#64 = CARTESIAN_POINT ( 'NONE',  ( 0.0000000000000000000, 0.0000000000000000000, 1.500000000000000222 ) ) ;
#65 = ORIENTED_EDGE ( 'NONE', *, *, #97, .T. ) ;
#66 = CIRCLE ( 'NONE', #176, 0.006493499999999999273 ) ;
#67 = PRESENTATION_LAYER_ASSIGNMENT (  '', '', ( #178 ) ) ;
#68 = DIRECTION ( 'NONE',  ( -1.000000000000000000, 1.224646799147353207E-16, 0.0000000000000000000 ) ) ;
#69 = AXIS2_PLACEMENT_3D ( 'NONE', #194, #298, #172 ) ;
#70 = SURFACE_STYLE_USAGE ( .BOTH. , #171 ) ;
#71 = ADVANCED_BREP_SHAPE_REPRESENTATION ( 'Micro_BMS-013-2X', ( #238, #233 ), #46 ) ;
#72 = CARTESIAN_POINT ( 'NONE',  ( 7.952243990263339486E-19, 0.0000000000000000000, 0.006493500000000000140 ) ) ;
#73 = CARTESIAN_POINT ( 'NONE',  ( 7.952243990263339486E-19, 0.0000000000000000000, 0.006493500000000000140 ) ) ;
#74 = PRODUCT_DEFINITION_FORMATION_WITH_SPECIFIED_SOURCE ( 'ANY', '', #50, .NOT_KNOWN. ) ;
#75 = ADVANCED_FACE ( 'NONE', ( #319 ), #150, .T. ) ;
#76 = APPLICATION_PROTOCOL_DEFINITION ( 'draft international standard', 'automotive_design', 1998, #143 ) ;
#77 = PLANE ( 'NONE',  #27 ) ;
#78 = EDGE_CURVE ( 'NONE', #266, #107, #128, .T. ) ;
#79 = VERTEX_POINT ( 'NONE', #134 ) ;
#80 = DIRECTION ( 'NONE',  ( -1.000000000000000000, 0.0000000000000000000, 0.0000000000000000000 ) ) ;
#81 = AXIS2_PLACEMENT_3D ( 'NONE', #198, #192, #122 ) ;
#82 = DIRECTION ( 'NONE',  ( -1.224646799147353454E-16, -0.0000000000000000000, -1.000000000000000000 ) ) ;
#83 = UNCERTAINTY_MEASURE_WITH_UNIT (LENGTH_MEASURE( 1.000000000000000082E-05 ), #175, 'distance_accuracy_value', 'NONE');
#84 = EDGE_CURVE ( 'NONE', #219, #9, #62, .T. ) ;
#85 = ORIENTED_EDGE ( 'NONE', *, *, #147, .F. ) ;
#86 = CARTESIAN_POINT ( 'NONE',  ( 7.952243990263339486E-19, 0.0000000000000000000, 0.006493500000000000140 ) ) ;
#87 = DIRECTION ( 'NONE',  ( 0.0000000000000000000, 0.0000000000000000000, 1.000000000000000000 ) ) ;
#88 = LINE ( 'NONE', #288, #39 ) ;
#89 = ADVANCED_FACE ( 'NONE', ( #113 ), #268, .T. ) ;
#90 = ORIENTED_EDGE ( 'NONE', *, *, #115, .T. ) ;
#91 = DIRECTION ( 'NONE',  ( 0.0000000000000000000, 0.0000000000000000000, 1.000000000000000000 ) ) ;
#92 = CARTESIAN_POINT ( 'NONE',  ( 0.006493500000000003609, 0.0000000000000000000, 0.01899999999999999953 ) ) ;
#93 = DIRECTION ( 'NONE',  ( -0.0000000000000000000, -0.0000000000000000000, -1.000000000000000000 ) ) ;
#94 = CARTESIAN_POINT ( 'NONE',  ( 0.04750000000000064587, 5.817072295950006528E-18, 1.500000000000000222 ) ) ;
#95 = ADVANCED_FACE ( 'NONE', ( #158 ), #315, .T. ) ;
#96 = DIRECTION ( 'NONE',  ( -1.224646799147353454E-16, -0.0000000000000000000, -1.000000000000000000 ) ) ;
#97 = EDGE_CURVE ( 'NONE', #211, #183, #222, .T. ) ;
#98 = AXIS2_PLACEMENT_3D ( 'NONE', #121, #96, #125 ) ;
#99 = CIRCLE ( 'NONE', #33, 0.006493500000000001007 ) ;
#100 = DIRECTION ( 'NONE',  ( -0.7071067811865456854, 0.0000000000000000000, -0.7071067811865493491 ) ) ;
#101 = CARTESIAN_POINT ( 'NONE',  ( 0.006493500000000003609, 0.0000000000000000000, 0.01899999999999999953 ) ) ;
#102 = AXIS2_PLACEMENT_3D ( 'NONE', #235, #87, #217 ) ;
#103 = CARTESIAN_POINT ( 'NONE',  ( 2.326828918379971334E-18, 0.0000000000000000000, 0.01899999999999999953 ) ) ;
#104 = SURFACE_STYLE_FILL_AREA ( #132 ) ;
#105 = CARTESIAN_POINT ( 'NONE',  ( 0.0000000000000000000, 0.0000000000000000000, 1.500000000000000222 ) ) ;
#106 = CIRCLE ( 'NONE', #15, 0.06250000000000000000 ) ;
#107 = VERTEX_POINT ( 'NONE', #111 ) ;
#108 = CARTESIAN_POINT ( 'NONE',  ( -0.06249999999999995837, 0.0000000000000000000, 0.3366286452304174670 ) ) ;
#109 = EDGE_CURVE ( 'NONE', #107, #9, #66, .T. ) ;
#110 = EDGE_LOOP ( 'NONE', ( #23, #289, #90, #85 ) ) ;
#111 = CARTESIAN_POINT ( 'NONE',  ( 0.006493500000000000140, 7.952243990263336597E-19, 0.006493499999999999273 ) ) ;
#112 = ORIENTED_EDGE ( 'NONE', *, *, #324, .T. ) ;
#113 = FACE_OUTER_BOUND ( 'NONE', #302, .T. ) ;
#114 = DIRECTION ( 'NONE',  ( -1.000000000000000000, 0.0000000000000000000, 0.0000000000000000000 ) ) ;
#115 = EDGE_CURVE ( 'NONE', #269, #242, #259, .T. ) ;
#116 = DIRECTION ( 'NONE',  ( 0.0000000000000000000, 0.0000000000000000000, 1.000000000000000000 ) ) ;
#117 = LINE ( 'NONE', #94, #173 ) ;
#118 = AXIS2_PLACEMENT_3D ( 'NONE', #214, #286, #264 ) ;
#119 = LENGTH_MEASURE_WITH_UNIT ( LENGTH_MEASURE( 0.02539999999999999897 ), #19 );
#120 = ADVANCED_FACE ( 'NONE', ( #310 ), #54, .T. ) ;
#121 = CARTESIAN_POINT ( 'NONE',  ( 0.0000000000000000000, 0.0000000000000000000, 0.0000000000000000000 ) ) ;
#122 = DIRECTION ( 'NONE',  ( 1.000000000000000000, 0.0000000000000000000, 0.0000000000000000000 ) ) ;
#123 = AXIS2_PLACEMENT_3D ( 'NONE', #296, #321, #11 ) ;
#124 = CONICAL_SURFACE ( 'NONE', #255, 0.006493500000000001007, 0.1745329251994338637 ) ;
#125 = DIRECTION ( 'NONE',  ( -1.000000000000000000, 0.0000000000000000000, 1.224646799147353454E-16 ) ) ;
#126 = FACE_OUTER_BOUND ( 'NONE', #262, .T. ) ;
#127 =( LENGTH_UNIT ( ) NAMED_UNIT ( * ) SI_UNIT ( $, .METRE. ) );
#128 = CIRCLE ( 'NONE', #165, 0.006493500000000000140 ) ;
#129 = PRESENTATION_STYLE_ASSIGNMENT (( #276 ) ) ;
#130 = ORIENTED_EDGE ( 'NONE', *, *, #317, .F. ) ;
#131 = ORIENTED_EDGE ( 'NONE', *, *, #324, .F. ) ;
#132 = FILL_AREA_STYLE ('',( #28 ) ) ;
#133 = ORIENTED_EDGE ( 'NONE', *, *, #144, .F. ) ;
#134 = CARTESIAN_POINT ( 'NONE',  ( -0.06250000000000000000, 0.0000000000000000000, 1.485000000000000764 ) ) ;
#135 = ORIENTED_EDGE ( 'NONE', *, *, #193, .T. ) ;
#136 = ORIENTED_EDGE ( 'NONE', *, *, #97, .F. ) ;
#137 = AXIS2_PLACEMENT_3D ( 'NONE', #177, #275, #230 ) ;
#138 = ORIENTED_EDGE ( 'NONE', *, *, #277, .F. ) ;
#139 = CIRCLE ( 'NONE', #14, 0.006493500000000001007 ) ;
#140 =( GEOMETRIC_REPRESENTATION_CONTEXT ( 3 ) GLOBAL_UNCERTAINTY_ASSIGNED_CONTEXT ( ( #209 ) ) GLOBAL_UNIT_ASSIGNED_CONTEXT ( ( #49, #48, #146 ) ) REPRESENTATION_CONTEXT ( 'NONE', 'WORKASPACE' ) );
#141 = DIRECTION ( 'NONE',  ( 1.000000000000000000, 0.0000000000000000000, 0.0000000000000000000 ) ) ;
#142 = LINE ( 'NONE', #227, #325 ) ;
#143 = APPLICATION_CONTEXT ( 'automotive_design' ) ;
#144 = EDGE_CURVE ( 'NONE', #183, #211, #249, .T. ) ;
#145 = CIRCLE ( 'NONE', #137, 0.006493499999999999273 ) ;
#146 =( NAMED_UNIT ( * ) SI_UNIT ( $, .STERADIAN. ) SOLID_ANGLE_UNIT ( ) );
#147 = EDGE_CURVE ( 'NONE', #234, #242, #220, .T. ) ;
#148 = DIRECTION ( 'NONE',  ( 0.0000000000000000000, 0.0000000000000000000, 1.000000000000000000 ) ) ;
#149 = PRODUCT_RELATED_PRODUCT_CATEGORY ( 'part', '', ( #50 ) ) ;
#150 = CONICAL_SURFACE ( 'NONE', #123, 0.04750000000000064587, 0.7853981633974457255 ) ;
#151 = ORIENTED_EDGE ( 'NONE', *, *, #78, .F. ) ;
#152 = FACE_OUTER_BOUND ( 'NONE', #265, .T. ) ;
#153 = LENGTH_MEASURE_WITH_UNIT ( LENGTH_MEASURE( 0.02539999999999999897 ), #300 );
#154 = DIRECTION ( 'NONE',  ( -0.1736481776669311639, 2.126576849575783008E-17, 0.9848077530122080203 ) ) ;
#155 = PRODUCT_DEFINITION ( 'UNKNOWN', '', #74, #157 ) ;
#156 = EDGE_LOOP ( 'NONE', ( #130, #138, #285, #37 ) ) ;
#157 = PRODUCT_DEFINITION_CONTEXT ( 'detailed design', #232, 'design' ) ;
#158 = FACE_OUTER_BOUND ( 'NONE', #297, .T. ) ;
#159 = VERTEX_POINT ( 'NONE', #290 ) ;
#160 = ORIENTED_EDGE ( 'NONE', *, *, #56, .F. ) ;
#161 = DIRECTION ( 'NONE',  ( 1.000000000000000000, 0.0000000000000000000, 0.0000000000000000000 ) ) ;
#162 = DIRECTION ( 'NONE',  ( 0.0000000000000000000, 0.0000000000000000000, -1.000000000000000000 ) ) ;
#163 = ORIENTED_EDGE ( 'NONE', *, *, #109, .F. ) ;
#164 = DIRECTION ( 'NONE',  ( -0.0000000000000000000, -0.0000000000000000000, -1.000000000000000000 ) ) ;
#165 = AXIS2_PLACEMENT_3D ( 'NONE', #86, #182, #246 ) ;
#166 = SHAPE_DEFINITION_REPRESENTATION ( #229, #71 ) ;
#167 = DIRECTION ( 'NONE',  ( 0.0000000000000000000, 0.0000000000000000000, -1.000000000000000000 ) ) ;
#168 = SPHERICAL_SURFACE ( 'NONE', #280, 0.006493500000000000140 ) ;
#169 = CONICAL_SURFACE ( 'NONE', #26, 0.04750000000000064587, 0.7853981633974457255 ) ;
#170 = COLOUR_RGB ( '',0.7921568627450980005, 0.8196078431372548767, 0.9333333333333333481 ) ;
#171 = SURFACE_SIDE_STYLE ('',( #295 ) ) ;
#172 = DIRECTION ( 'NONE',  ( -1.000000000000000000, 0.0000000000000000000, 1.224646799147353454E-16 ) ) ;
#173 = VECTOR ( 'NONE', #191, 39.37007874015748143 ) ;
#174 = COLOUR_RGB ( '',0.7921568627450980005, 0.8196078431372548767, 0.9333333333333333481 ) ;
#175 =( CONVERSION_BASED_UNIT ( 'INCH', #51 ) LENGTH_UNIT ( ) NAMED_UNIT ( #240 ) );
#176 = AXIS2_PLACEMENT_3D ( 'NONE', #41, #185, #60 ) ;
#177 = CARTESIAN_POINT ( 'NONE',  ( 7.952243990263339486E-19, 0.0000000000000000000, 0.006493500000000000140 ) ) ;
#178 = STYLED_ITEM ( 'NONE', ( #129 ), #71 ) ;
#179 = EDGE_LOOP ( 'NONE', ( #308, #237, #189, #256 ) ) ;
#180 = ORIENTED_EDGE ( 'NONE', *, *, #55, .T. ) ;
#181 = AXIS2_PLACEMENT_3D ( 'NONE', #309, #116, #161 ) ;
#182 = DIRECTION ( 'NONE',  ( 0.0000000000000000000, -1.000000000000000000, 0.0000000000000000000 ) ) ;
#183 = VERTEX_POINT ( 'NONE', #228 ) ;
#184 = PRODUCT_CONTEXT ( 'NONE', #143, 'mechanical' ) ;
#185 = DIRECTION ( 'NONE',  ( 1.224646799147353454E-16, 0.0000000000000000000, 1.000000000000000000 ) ) ;
#186 = FACE_OUTER_BOUND ( 'NONE', #6, .T. ) ;
#187 = ORIENTED_EDGE ( 'NONE', *, *, #84, .T. ) ;
#188 = DIRECTION ( 'NONE',  ( 0.1736481776669313581, 0.0000000000000000000, 0.9848077530122077983 ) ) ;
#189 = ORIENTED_EDGE ( 'NONE', *, *, #109, .T. ) ;
#190 = DIRECTION ( 'NONE',  ( -1.000000000000000000, 0.0000000000000000000, 0.0000000000000000000 ) ) ;
#191 = DIRECTION ( 'NONE',  ( 0.7071067811865456854, 8.659560562354911904E-17, -0.7071067811865493491 ) ) ;
#192 = DIRECTION ( 'NONE',  ( 0.0000000000000000000, 0.0000000000000000000, -1.000000000000000000 ) ) ;
#193 = EDGE_CURVE ( 'NONE', #266, #9, #212, .T. ) ;
#194 = CARTESIAN_POINT ( 'NONE',  ( 0.0000000000000000000, 0.0000000000000000000, 0.0000000000000000000 ) ) ;
#195 = FACE_OUTER_BOUND ( 'NONE', #40, .T. ) ;
#196 = ORIENTED_EDGE ( 'NONE', *, *, #115, .F. ) ;
#197 = ORIENTED_EDGE ( 'NONE', *, *, #236, .F. ) ;
#198 = CARTESIAN_POINT ( 'NONE',  ( 0.0000000000000000000, 0.0000000000000000000, 1.485000000000000764 ) ) ;
#199 = AXIS2_PLACEMENT_3D ( 'NONE', #73, #224, #68 ) ;
#200 = VECTOR ( 'NONE', #100, 39.37007874015748143 ) ;
#201 = DIRECTION ( 'NONE',  ( 1.224646799147353454E-16, 0.0000000000000000000, 1.000000000000000000 ) ) ;
#202 = UNCERTAINTY_MEASURE_WITH_UNIT (LENGTH_MEASURE( 1.000000000000000082E-05 ), #208, 'distance_accuracy_value', 'NONE');
#203 = ADVANCED_FACE ( 'NONE', ( #320 ), #24, .T. ) ;
#204 = AXIS2_PLACEMENT_3D ( 'NONE', #287, #7, #284 ) ;
#205 = DIRECTION ( 'NONE',  ( 1.000000000000000000, 0.0000000000000000000, 0.0000000000000000000 ) ) ;
#206 = ADVANCED_FACE ( 'NONE', ( #318 ), #21, .T. ) ;
#207 = ORIENTED_EDGE ( 'NONE', *, *, #261, .F. ) ;
#208 =( CONVERSION_BASED_UNIT ( 'INCH', #153 ) LENGTH_UNIT ( ) NAMED_UNIT ( #304 ) );
#209 = UNCERTAINTY_MEASURE_WITH_UNIT (LENGTH_MEASURE( 1.000000000000000082E-05 ), #49, 'distance_accuracy_value', 'NONE');
#210 = ADVANCED_FACE ( 'NONE', ( #195 ), #270, .T. ) ;
#211 = VERTEX_POINT ( 'NONE', #17 ) ;
#212 = CIRCLE ( 'NONE', #199, 0.006493500000000000140 ) ;
#213 = MECHANICAL_DESIGN_GEOMETRIC_PRESENTATION_REPRESENTATION (  '', ( #307 ), #140 ) ;
#214 = CARTESIAN_POINT ( 'NONE',  ( 4.122511928827407796E-17, 0.0000000000000000000, 0.3366286452304174670 ) ) ;
#215 = EDGE_CURVE ( 'NONE', #242, #269, #106, .T. ) ;
#216 = ORIENTED_EDGE ( 'NONE', *, *, #144, .T. ) ;
#217 = DIRECTION ( 'NONE',  ( 1.000000000000000000, 0.0000000000000000000, 0.0000000000000000000 ) ) ;
#218 = CARTESIAN_POINT ( 'NONE',  ( 2.326828918379971334E-18, 0.0000000000000000000, 0.01899999999999999953 ) ) ;
#219 = VERTEX_POINT ( 'NONE', #225 ) ;
#220 = LINE ( 'NONE', #92, #45 ) ;
#221 = CARTESIAN_POINT ( 'NONE',  ( -0.006493499999999999273, 0.0000000000000000000, 7.952243990263338523E-19 ) ) ;
#222 = CIRCLE ( 'NONE', #102, 0.04750000000000064587 ) ;
#223 = MECHANICAL_DESIGN_GEOMETRIC_PRESENTATION_REPRESENTATION (  '', ( #178 ), #283 ) ;
#224 = DIRECTION ( 'NONE',  ( 1.224646799147353207E-16, 1.000000000000000000, -0.0000000000000000000 ) ) ;
#225 = CARTESIAN_POINT ( 'NONE',  ( -0.006493499999999999273, 4.224633446848644976E-18, 0.01899999999999999953 ) ) ;
#226 = ADVANCED_FACE ( 'NONE', ( #126 ), #168, .T. ) ;
#227 = CARTESIAN_POINT ( 'NONE',  ( -0.06250000000000000000, 0.0000000000000000000, 1.500000000000000222 ) ) ;
#228 = CARTESIAN_POINT ( 'NONE',  ( -0.04750000000000064587, 0.0000000000000000000, 1.500000000000000222 ) ) ;
#229 = PRODUCT_DEFINITION_SHAPE ( 'NONE', 'NONE',  #155 ) ;
#230 = DIRECTION ( 'NONE',  ( -1.000000000000000000, 0.0000000000000000000, 1.643378952067610679E-16 ) ) ;
#231 =( NAMED_UNIT ( * ) PLANE_ANGLE_UNIT ( ) SI_UNIT ( $, .RADIAN. ) );
#232 = APPLICATION_CONTEXT ( 'automotive_design' ) ;
#233 = AXIS2_PLACEMENT_3D ( 'NONE', #263, #91, #245 ) ;
#234 = VERTEX_POINT ( 'NONE', #101 ) ;
#235 = CARTESIAN_POINT ( 'NONE',  ( 0.0000000000000000000, 0.0000000000000000000, 1.500000000000000222 ) ) ;
#236 = EDGE_CURVE ( 'NONE', #183, #79, #293, .T. ) ;
#237 = ORIENTED_EDGE ( 'NONE', *, *, #20, .T. ) ;
#238 = MANIFOLD_SOLID_BREP ( 'Fillet1', #271 ) ;
#239 = CARTESIAN_POINT ( 'NONE',  ( 0.0000000000000000000, 0.0000000000000000000, 1.500000000000000222 ) ) ;
#240 = DIMENSIONAL_EXPONENTS ( 1.000000000000000000, 0.0000000000000000000, 0.0000000000000000000, 0.0000000000000000000, 0.0000000000000000000, 0.0000000000000000000, 0.0000000000000000000 ) ;
#241 = PRESENTATION_LAYER_ASSIGNMENT (  '', '', ( #307 ) ) ;
#242 = VERTEX_POINT ( 'NONE', #252 ) ;
#243 = CARTESIAN_POINT ( 'NONE',  ( 2.326828918379971334E-18, 0.0000000000000000000, 0.01899999999999999953 ) ) ;
#244 = CARTESIAN_POINT ( 'NONE',  ( -0.006493499999999998405, 0.0000000000000000000, 0.006493500000000001007 ) ) ;
#245 = DIRECTION ( 'NONE',  ( 1.000000000000000000, 0.0000000000000000000, 0.0000000000000000000 ) ) ;
#246 = DIRECTION ( 'NONE',  ( 0.0000000000000000000, 0.0000000000000000000, -1.000000000000000000 ) ) ;
#247 = CARTESIAN_POINT ( 'NONE',  ( 0.006493499999999999273, 7.952243990263336597E-19, -7.952243990263338523E-19 ) ) ;
#248 = FILL_AREA_STYLE ('',( #292 ) ) ;
#249 = CIRCLE ( 'NONE', #181, 0.04750000000000064587 ) ;
#250 = VECTOR ( 'NONE', #154, 39.37007874015747433 ) ;
#251 = CARTESIAN_POINT ( 'NONE',  ( -0.04750000000000064587, 0.0000000000000000000, 1.500000000000000222 ) ) ;
#252 = CARTESIAN_POINT ( 'NONE',  ( 0.06250000000000004163, 7.654042494670960626E-18, 0.3366286452304174670 ) ) ;
#253 = CARTESIAN_POINT ( 'NONE',  ( 1.192836598539500923E-18, 0.0000000000000000000, 0.0000000000000000000 ) ) ;
#254 = CARTESIAN_POINT ( 'NONE',  ( 0.0000000000000000000, 0.0000000000000000000, 1.500000000000000222 ) ) ;
#255 = AXIS2_PLACEMENT_3D ( 'NONE', #103, #201, #205 ) ;
#256 = ORIENTED_EDGE ( 'NONE', *, *, #84, .F. ) ;
#257 = EDGE_CURVE ( 'NONE', #159, #79, #314, .T. ) ;
#258 = EDGE_LOOP ( 'NONE', ( #57, #312, #187, #112 ) ) ;
#259 = CIRCLE ( 'NONE', #118, 0.06250000000000000000 ) ;
#260 = ORIENTED_EDGE ( 'NONE', *, *, #257, .F. ) ;
#261 = EDGE_CURVE ( 'NONE', #79, #269, #142, .T. ) ;
#262 = EDGE_LOOP ( 'NONE', ( #151, #135, #163 ) ) ;
#263 = CARTESIAN_POINT ( 'NONE',  ( 0.0000000000000000000, 0.0000000000000000000, 0.0000000000000000000 ) ) ;
#264 = DIRECTION ( 'NONE',  ( 1.000000000000000000, 0.0000000000000000000, 0.0000000000000000000 ) ) ;
#265 = EDGE_LOOP ( 'NONE', ( #216, #65 ) ) ;
#266 = VERTEX_POINT ( 'NONE', #253 ) ;
#267 = APPLICATION_PROTOCOL_DEFINITION ( 'draft international standard', 'automotive_design', 1998, #232 ) ;
#268 = SPHERICAL_SURFACE ( 'NONE', #204, 0.006493500000000000140 ) ;
#269 = VERTEX_POINT ( 'NONE', #108 ) ;
#270 = CYLINDRICAL_SURFACE ( 'NONE', #279, 0.06250000000000000000 ) ;
#271 = CLOSED_SHELL ( 'NONE', ( #226, #206, #299, #3, #210, #95, #282, #75, #120, #203, #89 ) ) ;
#272 = PRESENTATION_STYLE_ASSIGNMENT (( #70 ) ) ;
#273 = DIRECTION ( 'NONE',  ( -1.000000000000000000, 0.0000000000000000000, 0.0000000000000000000 ) ) ;
#274 = DIRECTION ( 'NONE',  ( 1.000000000000000000, 0.0000000000000000000, 0.0000000000000000000 ) ) ;
#275 = DIRECTION ( 'NONE',  ( 1.224646799147353454E-16, 0.0000000000000000000, 1.000000000000000000 ) ) ;
#276 = SURFACE_STYLE_USAGE ( .BOTH. , #301 ) ;
#277 = EDGE_CURVE ( 'NONE', #234, #219, #99, .T. ) ;
#278 = CARTESIAN_POINT ( 'NONE',  ( 2.326828918379971334E-18, 0.0000000000000000000, 0.01899999999999999953 ) ) ;
#279 = AXIS2_PLACEMENT_3D ( 'NONE', #254, #16, #273 ) ;
#280 = AXIS2_PLACEMENT_3D ( 'NONE', #72, #47, #274 ) ;
#281 = FACE_OUTER_BOUND ( 'NONE', #110, .T. ) ;
#282 = ADVANCED_FACE ( 'NONE', ( #152 ), #77, .T. ) ;
#283 =( GEOMETRIC_REPRESENTATION_CONTEXT ( 3 ) GLOBAL_UNCERTAINTY_ASSIGNED_CONTEXT ( ( #83 ) ) GLOBAL_UNIT_ASSIGNED_CONTEXT ( ( #175, #231, #1 ) ) REPRESENTATION_CONTEXT ( 'NONE', 'WORKASPACE' ) );
#284 = DIRECTION ( 'NONE',  ( 1.000000000000000000, 0.0000000000000000000, 0.0000000000000000000 ) ) ;
#285 = ORIENTED_EDGE ( 'NONE', *, *, #147, .T. ) ;
#286 = DIRECTION ( 'NONE',  ( -1.224646799147353454E-16, -0.0000000000000000000, -1.000000000000000000 ) ) ;
#287 = CARTESIAN_POINT ( 'NONE',  ( 7.952243990263339486E-19, 0.0000000000000000000, 0.006493500000000000140 ) ) ;
#288 = CARTESIAN_POINT ( 'NONE',  ( 0.06250000000000000000, 7.654042494670956004E-18, 1.500000000000000222 ) ) ;
#289 = ORIENTED_EDGE ( 'NONE', *, *, #317, .T. ) ;
#290 = CARTESIAN_POINT ( 'NONE',  ( 0.06250000000000000000, 7.654042494670956004E-18, 1.485000000000000764 ) ) ;
#291 = LINE ( 'NONE', #247, #313 ) ;
#292 = FILL_AREA_STYLE_COLOUR ( '', #170 ) ;
#293 = LINE ( 'NONE', #251, #200 ) ;
#294 = DIRECTION ( 'NONE',  ( -0.0000000000000000000, -0.0000000000000000000, -1.000000000000000000 ) ) ;
#295 = SURFACE_STYLE_FILL_AREA ( #248 ) ;
#296 = CARTESIAN_POINT ( 'NONE',  ( 0.0000000000000000000, 0.0000000000000000000, 1.500000000000000222 ) ) ;
#297 = EDGE_LOOP ( 'NONE', ( #52, #42, #34, #35 ) ) ;
#298 = DIRECTION ( 'NONE',  ( -1.224646799147353454E-16, -0.0000000000000000000, -1.000000000000000000 ) ) ;
#299 = ADVANCED_FACE ( 'NONE', ( #281 ), #124, .T. ) ;
#300 =( LENGTH_UNIT ( ) NAMED_UNIT ( * ) SI_UNIT ( $, .METRE. ) );
#301 = SURFACE_SIDE_STYLE ('',( #104 ) ) ;
#302 = EDGE_LOOP ( 'NONE', ( #30, #305, #131 ) ) ;
#303 = CARTESIAN_POINT ( 'NONE',  ( -0.006493499999999999273, 7.952243990263339486E-19, 0.01899999999999999953 ) ) ;
#304 = DIMENSIONAL_EXPONENTS ( 1.000000000000000000, 0.0000000000000000000, 0.0000000000000000000, 0.0000000000000000000, 0.0000000000000000000, 0.0000000000000000000, 0.0000000000000000000 ) ;
#305 = ORIENTED_EDGE ( 'NONE', *, *, #78, .T. ) ;
#306 = VECTOR ( 'NONE', #2, 39.37007874015748143 ) ;
#307 = STYLED_ITEM ( 'NONE', ( #272 ), #238 ) ;
#308 = ORIENTED_EDGE ( 'NONE', *, *, #13, .T. ) ;
#309 = CARTESIAN_POINT ( 'NONE',  ( 0.0000000000000000000, 0.0000000000000000000, 1.500000000000000222 ) ) ;
#310 = FACE_OUTER_BOUND ( 'NONE', #156, .T. ) ;
#311 = CARTESIAN_POINT ( 'NONE',  ( 0.0000000000000000000, 0.0000000000000000000, 1.485000000000000764 ) ) ;
#312 = ORIENTED_EDGE ( 'NONE', *, *, #277, .T. ) ;
#313 = VECTOR ( 'NONE', #12, 39.37007874015748143 ) ;
#314 = CIRCLE ( 'NONE', #81, 0.06250000000000000000 ) ;
#315 = CYLINDRICAL_SURFACE ( 'NONE', #32, 0.06250000000000000000 ) ;
#316 = DIRECTION ( 'NONE',  ( -1.224646799147353454E-16, -0.0000000000000000000, -1.000000000000000000 ) ) ;
#317 = EDGE_CURVE ( 'NONE', #219, #269, #53, .T. ) ;
#318 = FACE_OUTER_BOUND ( 'NONE', #179, .T. ) ;
#319 = FACE_OUTER_BOUND ( 'NONE', #323, .T. ) ;
#320 = FACE_OUTER_BOUND ( 'NONE', #258, .T. ) ;
#321 = DIRECTION ( 'NONE',  ( 0.0000000000000000000, 0.0000000000000000000, -1.000000000000000000 ) ) ;
#322 = AXIS2_PLACEMENT_3D ( 'NONE', #311, #167, #43 ) ;
#323 = EDGE_LOOP ( 'NONE', ( #160, #133, #38, #260 ) ) ;
#324 = EDGE_CURVE ( 'NONE', #9, #107, #145, .T. ) ;
#325 = VECTOR ( 'NONE', #294, 39.37007874015748143 ) ;
ENDSEC;
END-ISO-10303-21;
