ISO-10303-21;
HEADER;
FILE_DESCRIPTION (( 'STEP AP214' ),
    '1' );
FILE_NAME ('30142.STEP',
    '2023-06-22T18:01:13',
    ( '' ),
    ( '' ),
    'SwSTEP 2.0',
    'SolidWorks 2023',
    '' );
FILE_SCHEMA (( 'AUTOMOTIVE_DESIGN' ));
ENDSEC;

DATA;
#1 = DIRECTION ( 'NONE',  ( -0.000000000000000000, -1.000000000000000000, -0.000000000000000000 ) ) ;
#2 = ADVANCED_FACE ( 'NONE', ( #70 ), #90, .F. ) ;
#3 = DIRECTION ( 'NONE',  ( 0.000000000000000000, 0.000000000000000000, -1.000000000000000000 ) ) ;
#4 = DIMENSIONAL_EXPONENTS ( 1.000000000000000000, 0.000000000000000000, 0.000000000000000000, 0.000000000000000000, 0.000000000000000000, 0.000000000000000000, 0.000000000000000000 ) ;
#5 =( NAMED_UNIT ( * ) SI_UNIT ( $, .STERADIAN. ) SOLID_ANGLE_UNIT ( ) );
#6 = VERTEX_POINT ( 'NONE', #36 ) ;
#7 = ADVANCED_FACE ( 'NONE', ( #296 ), #244, .F. ) ;
#8 = CARTESIAN_POINT ( 'NONE',  ( -6.123233995736766036E-17, 2.500000000000000000, 0.000000000000000000 ) ) ;
#9 = FILL_AREA_STYLE_COLOUR ( '', #134 ) ;
#10 =( CONVERSION_BASED_UNIT ( 'INCH', #214 ) LENGTH_UNIT ( ) NAMED_UNIT ( #55 ) );
#11 = ORIENTED_EDGE ( 'NONE', *, *, #240, .T. ) ;
#12 = ORIENTED_EDGE ( 'NONE', *, *, #300, .F. ) ;
#13 = STYLED_ITEM ( 'NONE', ( #172 ), #136 ) ;
#14 = AXIS2_PLACEMENT_3D ( 'NONE', #181, #288, #263 ) ;
#15 = CYLINDRICAL_SURFACE ( 'NONE', #120, 0.1250000000000000000 ) ;
#16 = DIMENSIONAL_EXPONENTS ( 1.000000000000000000, 0.000000000000000000, 0.000000000000000000, 0.000000000000000000, 0.000000000000000000, 0.000000000000000000, 0.000000000000000000 ) ;
#17 = SURFACE_STYLE_USAGE ( .BOTH. , #123 ) ;
#18 =( LENGTH_UNIT ( ) NAMED_UNIT ( * ) SI_UNIT ( $, .METRE. ) );
#19 = COLOUR_RGB ( '',0.7921568627450980005, 0.8196078431372548767, 0.9333333333333333481 ) ;
#20 = CARTESIAN_POINT ( 'NONE',  ( 0.000000000000000000, 0.000000000000000000, 0.000000000000000000 ) ) ;
#21 = PRESENTATION_STYLE_ASSIGNMENT (( #206 ) ) ;
#22 = APPLICATION_CONTEXT ( 'automotive_design' ) ;
#23 =( LENGTH_UNIT ( ) NAMED_UNIT ( * ) SI_UNIT ( $, .METRE. ) );
#24 = ORIENTED_EDGE ( 'NONE', *, *, #39, .T. ) ;
#25 = CIRCLE ( 'NONE', #221, 0.1250000000000000555 ) ;
#26 =( NAMED_UNIT ( * ) PLANE_ANGLE_UNIT ( ) SI_UNIT ( $, .RADIAN. ) );
#27 = CIRCLE ( 'NONE', #107, 0.1250000000000000000 ) ;
#28 = SURFACE_SIDE_STYLE ('',( #208 ) ) ;
#29 = STYLED_ITEM ( 'NONE', ( #283 ), #203 ) ;
#30 = ORIENTED_EDGE ( 'NONE', *, *, #124, .T. ) ;
#31 = AXIS2_PLACEMENT_3D ( 'NONE', #8, #141, #241 ) ;
#32 = EDGE_LOOP ( 'NONE', ( #237, #85 ) ) ;
#33 = CARTESIAN_POINT ( 'NONE',  ( -6.123233995736766036E-17, 2.500000000000000000, 0.000000000000000000 ) ) ;
#34 = FILL_AREA_STYLE ('',( #9 ) ) ;
#35 = LINE ( 'NONE', #113, #246 ) ;
#36 = CARTESIAN_POINT ( 'NONE',  ( -0.1249999999999999861, 0.5000000000000001110, 0.000000000000000000 ) ) ;
#37 = DIRECTION ( 'NONE',  ( -1.000000000000000000, 0.000000000000000000, 0.000000000000000000 ) ) ;
#38 = DIRECTION ( 'NONE',  ( -3.061616997868383018E-17, 1.000000000000000000, -0.000000000000000000 ) ) ;
#39 = EDGE_CURVE ( 'NONE', #164, #127, #27, .T. ) ;
#40 = PRESENTATION_LAYER_ASSIGNMENT (  '', '', ( #29 ) ) ;
#41 = SURFACE_STYLE_FILL_AREA ( #247 ) ;
#42 = COLOUR_RGB ( '',1.000000000000000000, 0.000000000000000000, 0.000000000000000000 ) ;
#43 =( NAMED_UNIT ( * ) SI_UNIT ( $, .STERADIAN. ) SOLID_ANGLE_UNIT ( ) );
#44 = DIRECTION ( 'NONE',  ( -3.061616997868383018E-17, 1.000000000000000000, -0.000000000000000000 ) ) ;
#45 = UNCERTAINTY_MEASURE_WITH_UNIT (LENGTH_MEASURE( 1.000000000000000082E-05 ), #10, 'distance_accuracy_value', 'NONE');
#46 = DIRECTION ( 'NONE',  ( 0.000000000000000000, -0.000000000000000000, 1.000000000000000000 ) ) ;
#47 = SURFACE_STYLE_USAGE ( .BOTH. , #28 ) ;
#48 = VERTEX_POINT ( 'NONE', #167 ) ;
#49 = EDGE_LOOP ( 'NONE', ( #166, #24 ) ) ;
#50 = VERTEX_POINT ( 'NONE', #189 ) ;
#51 = MECHANICAL_DESIGN_GEOMETRIC_PRESENTATION_REPRESENTATION (  '', ( #278 ), #250 ) ;
#52 = UNCERTAINTY_MEASURE_WITH_UNIT (LENGTH_MEASURE( 1.000000000000000082E-05 ), #99, 'distance_accuracy_value', 'NONE');
#53 = EDGE_CURVE ( 'NONE', #50, #6, #88, .T. ) ;
#54 = FACE_OUTER_BOUND ( 'NONE', #268, .T. ) ;
#55 = DIMENSIONAL_EXPONENTS ( 1.000000000000000000, 0.000000000000000000, 0.000000000000000000, 0.000000000000000000, 0.000000000000000000, 0.000000000000000000, 0.000000000000000000 ) ;
#56 = DIRECTION ( 'NONE',  ( 1.000000000000000000, 0.000000000000000000, 0.000000000000000000 ) ) ;
#57 = CARTESIAN_POINT ( 'NONE',  ( -0.1250000000000001110, 2.500000000000000000, 0.000000000000000000 ) ) ;
#58 = APPLICATION_PROTOCOL_DEFINITION ( 'draft international standard', 'automotive_design', 1998, #22 ) ;
#59 =( NAMED_UNIT ( * ) PLANE_ANGLE_UNIT ( ) SI_UNIT ( $, .RADIAN. ) );
#60 = CARTESIAN_POINT ( 'NONE',  ( 0.000000000000000000, 0.000000000000000000, 0.000000000000000000 ) ) ;
#61 =( GEOMETRIC_REPRESENTATION_CONTEXT ( 3 ) GLOBAL_UNCERTAINTY_ASSIGNED_CONTEXT ( ( #227 ) ) GLOBAL_UNIT_ASSIGNED_CONTEXT ( ( #308, #207, #153 ) ) REPRESENTATION_CONTEXT ( 'NONE', 'WORKASPACE' ) );
#62 = FACE_OUTER_BOUND ( 'NONE', #146, .T. ) ;
#63 = FILL_AREA_STYLE ('',( #224 ) ) ;
#64 = LINE ( 'NONE', #276, #155 ) ;
#65 = ORIENTED_EDGE ( 'NONE', *, *, #301, .T. ) ;
#66 = PRESENTATION_STYLE_ASSIGNMENT (( #47 ) ) ;
#67 = ORIENTED_EDGE ( 'NONE', *, *, #287, .T. ) ;
#68 = VECTOR ( 'NONE', #187, 39.37007874015748143 ) ;
#69 = FACE_OUTER_BOUND ( 'NONE', #290, .T. ) ;
#70 = FACE_OUTER_BOUND ( 'NONE', #182, .T. ) ;
#71 = CARTESIAN_POINT ( 'NONE',  ( 5.858436651022881281E-35, 0.5000000000000000000, 0.000000000000000000 ) ) ;
#72 = MECHANICAL_DESIGN_GEOMETRIC_PRESENTATION_REPRESENTATION (  '', ( #13 ), #217 ) ;
#73 = DIRECTION ( 'NONE',  ( -3.061616997868383018E-17, 1.000000000000000000, -0.000000000000000000 ) ) ;
#74 = LENGTH_MEASURE_WITH_UNIT ( LENGTH_MEASURE( 0.02539999999999999897 ), #133 );
#75 = PRESENTATION_STYLE_ASSIGNMENT (( #17 ) ) ;
#76 = CARTESIAN_POINT ( 'NONE',  ( 1.530808498934191201E-17, 0.5000000000000000000, 0.1249999999999999861 ) ) ;
#77 = SURFACE_STYLE_USAGE ( .BOTH. , #307 ) ;
#78 = PRESENTATION_LAYER_ASSIGNMENT (  '', '', ( #243 ) ) ;
#79 = PRODUCT_RELATED_PRODUCT_CATEGORY ( 'part', '', ( #151 ) ) ;
#80 = DIRECTION ( 'NONE',  ( 0.000000000000000000, -1.000000000000000000, -0.000000000000000000 ) ) ;
#81 = EDGE_LOOP ( 'NONE', ( #234, #67, #12, #292 ) ) ;
#82 = DIRECTION ( 'NONE',  ( 0.000000000000000000, 0.000000000000000000, -1.000000000000000000 ) ) ;
#83 = EDGE_LOOP ( 'NONE', ( #65, #180, #185, #269 ) ) ;
#84 = CARTESIAN_POINT ( 'NONE',  ( 0.000000000000000000, 0.000000000000000000, -0.1250000000000000000 ) ) ;
#85 = ORIENTED_EDGE ( 'NONE', *, *, #53, .F. ) ;
#86 =( CONVERSION_BASED_UNIT ( 'INCH', #285 ) LENGTH_UNIT ( ) NAMED_UNIT ( #245 ) );
#87 = ADVANCED_BREP_SHAPE_REPRESENTATION ( '30142', ( #109, #218, #309 ), #161 ) ;
#88 = CIRCLE ( 'NONE', #112, 0.1249999999999999861 ) ;
#89 = FILL_AREA_STYLE_COLOUR ( '', #19 ) ;
#90 = PLANE ( 'NONE',  #104 ) ;
#91 = DIRECTION ( 'NONE',  ( -0.000000000000000000, -1.000000000000000000, -0.000000000000000000 ) ) ;
#92 =( NAMED_UNIT ( * ) PLANE_ANGLE_UNIT ( ) SI_UNIT ( $, .RADIAN. ) );
#93 = COLOUR_RGB ( '',1.000000000000000000, 0.000000000000000000, 0.000000000000000000 ) ;
#94 = CARTESIAN_POINT ( 'NONE',  ( -0.1250000000000000833, 2.500000000000000000, 0.000000000000000000 ) ) ;
#95 = CARTESIAN_POINT ( 'NONE',  ( 0.000000000000000000, 0.000000000000000000, 0.000000000000000000 ) ) ;
#96 =( NAMED_UNIT ( * ) PLANE_ANGLE_UNIT ( ) SI_UNIT ( $, .RADIAN. ) );
#97 = SHAPE_DEFINITION_REPRESENTATION ( #249, #87 ) ;
#98 = AXIS2_PLACEMENT_3D ( 'NONE', #33, #110, #294 ) ;
#99 =( CONVERSION_BASED_UNIT ( 'INCH', #274 ) LENGTH_UNIT ( ) NAMED_UNIT ( #105 ) );
#100 = PLANE ( 'NONE',  #235 ) ;
#101 = PRODUCT_DEFINITION_CONTEXT ( 'detailed design', #289, 'design' ) ;
#102 = ORIENTED_EDGE ( 'NONE', *, *, #287, .F. ) ;
#103 = LENGTH_MEASURE_WITH_UNIT ( LENGTH_MEASURE( 0.02539999999999999897 ), #18 );
#104 = AXIS2_PLACEMENT_3D ( 'NONE', #266, #108, #242 ) ;
#105 = DIMENSIONAL_EXPONENTS ( 1.000000000000000000, 0.000000000000000000, 0.000000000000000000, 0.000000000000000000, 0.000000000000000000, 0.000000000000000000, 0.000000000000000000 ) ;
#106 = SURFACE_SIDE_STYLE ('',( #223 ) ) ;
#107 = AXIS2_PLACEMENT_3D ( 'NONE', #213, #91, #264 ) ;
#108 = DIRECTION ( 'NONE',  ( 3.061616997868383018E-17, -1.000000000000000000, 0.000000000000000000 ) ) ;
#109 = MANIFOLD_SOLID_BREP ( 'Revolve - Cutting Edge', #175 ) ;
#110 = DIRECTION ( 'NONE',  ( -3.061616997868383018E-17, 1.000000000000000000, -0.000000000000000000 ) ) ;
#111 = SURFACE_STYLE_FILL_AREA ( #34 ) ;
#112 = AXIS2_PLACEMENT_3D ( 'NONE', #295, #210, #37 ) ;
#113 = CARTESIAN_POINT ( 'NONE',  ( 0.1249999999999999445, 2.500000000000000000, 1.530808498934191817E-17 ) ) ;
#114 = STYLED_ITEM ( 'NONE', ( #21 ), #216 ) ;
#115 = DIRECTION ( 'NONE',  ( -3.061616997868383018E-17, 1.000000000000000000, 0.000000000000000000 ) ) ;
#116 = CIRCLE ( 'NONE', #273, 0.1250000000000000000 ) ;
#117 = FILL_AREA_STYLE ('',( #89 ) ) ;
#118 = ORIENTED_EDGE ( 'NONE', *, *, #204, .T. ) ;
#119 =( NAMED_UNIT ( * ) SI_UNIT ( $, .STERADIAN. ) SOLID_ANGLE_UNIT ( ) );
#120 = AXIS2_PLACEMENT_3D ( 'NONE', #20, #219, #196 ) ;
#121 = AXIS2_PLACEMENT_3D ( 'NONE', #140, #186, #143 ) ;
#122 = PRODUCT_CONTEXT ( 'NONE', #22, 'mechanical' ) ;
#123 = SURFACE_SIDE_STYLE ('',( #41 ) ) ;
#124 = EDGE_CURVE ( 'NONE', #138, #142, #25, .T. ) ;
#125 = LENGTH_MEASURE_WITH_UNIT ( LENGTH_MEASURE( 0.02539999999999999897 ), #220 );
#126 = MECHANICAL_DESIGN_GEOMETRIC_PRESENTATION_REPRESENTATION (  '', ( #183 ), #304 ) ;
#127 = VERTEX_POINT ( 'NONE', #299 ) ;
#128 = CARTESIAN_POINT ( 'NONE',  ( 0.000000000000000000, 0.5000000000000000000, 0.000000000000000000 ) ) ;
#129 = VERTEX_POINT ( 'NONE', #76 ) ;
#130 = SURFACE_STYLE_FILL_AREA ( #63 ) ;
#131 = DIMENSIONAL_EXPONENTS ( 1.000000000000000000, 0.000000000000000000, 0.000000000000000000, 0.000000000000000000, 0.000000000000000000, 0.000000000000000000, 0.000000000000000000 ) ;
#132 = CARTESIAN_POINT ( 'NONE',  ( 1.530808498934191509E-17, 0.000000000000000000, 0.1250000000000000000 ) ) ;
#133 =( LENGTH_UNIT ( ) NAMED_UNIT ( * ) SI_UNIT ( $, .METRE. ) );
#134 = COLOUR_RGB ( '',0.7921568627450980005, 0.8196078431372548767, 0.9333333333333333481 ) ;
#135 = CIRCLE ( 'NONE', #14, 0.1249999999999999861 ) ;
#136 = ADVANCED_FACE ( 'NONE', ( #222 ), #15, .T. ) ;
#137 =( NAMED_UNIT ( * ) SI_UNIT ( $, .STERADIAN. ) SOLID_ANGLE_UNIT ( ) );
#138 = VERTEX_POINT ( 'NONE', #57 ) ;
#139 = ORIENTED_EDGE ( 'NONE', *, *, #240, .F. ) ;
#140 = CARTESIAN_POINT ( 'NONE',  ( 0.000000000000000000, 0.5000000000000001110, 0.000000000000000000 ) ) ;
#141 = DIRECTION ( 'NONE',  ( -3.061616997868383018E-17, 1.000000000000000000, -0.000000000000000000 ) ) ;
#142 = VERTEX_POINT ( 'NONE', #148 ) ;
#143 = DIRECTION ( 'NONE',  ( -1.000000000000000000, 0.000000000000000000, 0.000000000000000000 ) ) ;
#144 =( GEOMETRIC_REPRESENTATION_CONTEXT ( 3 ) GLOBAL_UNCERTAINTY_ASSIGNED_CONTEXT ( ( #233 ) ) GLOBAL_UNIT_ASSIGNED_CONTEXT ( ( #86, #238, #137 ) ) REPRESENTATION_CONTEXT ( 'NONE', 'WORKASPACE' ) );
#145 = CIRCLE ( 'NONE', #121, 0.1249999999999999861 ) ;
#146 = EDGE_LOOP ( 'NONE', ( #176, #261 ) ) ;
#147 =( NAMED_UNIT ( * ) SI_UNIT ( $, .STERADIAN. ) SOLID_ANGLE_UNIT ( ) );
#148 = CARTESIAN_POINT ( 'NONE',  ( 0.1250000000000000000, 2.500000000000000000, 1.530808498934192125E-17 ) ) ;
#149 = COLOUR_RGB ( '',1.000000000000000000, 0.000000000000000000, 0.000000000000000000 ) ;
#150 = EDGE_CURVE ( 'NONE', #6, #138, #193, .T. ) ;
#151 = PRODUCT ( '30142', '30142', '', ( #122 ) ) ;
#152 =( LENGTH_UNIT ( ) NAMED_UNIT ( * ) SI_UNIT ( $, .METRE. ) );
#153 =( NAMED_UNIT ( * ) SI_UNIT ( $, .STERADIAN. ) SOLID_ANGLE_UNIT ( ) );
#154 = CIRCLE ( 'NONE', #229, 0.1249999999999999861 ) ;
#155 = VECTOR ( 'NONE', #252, 39.37007874015748143 ) ;
#156 = LENGTH_MEASURE_WITH_UNIT ( LENGTH_MEASURE( 0.02539999999999999897 ), #23 );
#157 = ORIENTED_EDGE ( 'NONE', *, *, #262, .F. ) ;
#158 = PRESENTATION_LAYER_ASSIGNMENT (  '', '', ( #183 ) ) ;
#159 = ADVANCED_FACE ( 'NONE', ( #54 ), #302, .T. ) ;
#160 = AXIS2_PLACEMENT_3D ( 'NONE', #205, #1, #82 ) ;
#161 =( GEOMETRIC_REPRESENTATION_CONTEXT ( 3 ) GLOBAL_UNCERTAINTY_ASSIGNED_CONTEXT ( ( #259 ) ) GLOBAL_UNIT_ASSIGNED_CONTEXT ( ( #194, #92, #270 ) ) REPRESENTATION_CONTEXT ( 'NONE', 'WORKASPACE' ) );
#162 = ORIENTED_EDGE ( 'NONE', *, *, #225, .T. ) ;
#163 = CARTESIAN_POINT ( 'NONE',  ( 0.000000000000000000, 0.000000000000000000, 0.000000000000000000 ) ) ;
#164 = VERTEX_POINT ( 'NONE', #132 ) ;
#165 = CYLINDRICAL_SURFACE ( 'NONE', #31, 0.1250000000000000278 ) ;
#166 = ORIENTED_EDGE ( 'NONE', *, *, #300, .T. ) ;
#167 = CARTESIAN_POINT ( 'NONE',  ( 0.000000000000000000, 0.5000000000000000000, -0.1249999999999999861 ) ) ;
#168 = FILL_AREA_STYLE_COLOUR ( '', #291 ) ;
#169 = DIMENSIONAL_EXPONENTS ( 1.000000000000000000, 0.000000000000000000, 0.000000000000000000, 0.000000000000000000, 0.000000000000000000, 0.000000000000000000, 0.000000000000000000 ) ;
#170 = SURFACE_SIDE_STYLE ('',( #173 ) ) ;
#171 = APPLICATION_PROTOCOL_DEFINITION ( 'draft international standard', 'automotive_design', 1998, #289 ) ;
#172 = PRESENTATION_STYLE_ASSIGNMENT (( #271 ) ) ;
#173 = SURFACE_STYLE_FILL_AREA ( #248 ) ;
#174 = PRESENTATION_LAYER_ASSIGNMENT (  '', '', ( #13 ) ) ;
#175 = CLOSED_SHELL ( 'NONE', ( #136, #216, #159, #203 ) ) ;
#176 = ORIENTED_EDGE ( 'NONE', *, *, #226, .F. ) ;
#177 = CARTESIAN_POINT ( 'NONE',  ( -6.123233995736766036E-17, 2.500000000000000000, 0.000000000000000000 ) ) ;
#178 = PRESENTATION_LAYER_ASSIGNMENT (  '', '', ( #278 ) ) ;
#179 = DIRECTION ( 'NONE',  ( -0.000000000000000000, -1.000000000000000000, -0.000000000000000000 ) ) ;
#180 = ORIENTED_EDGE ( 'NONE', *, *, #262, .T. ) ;
#181 = CARTESIAN_POINT ( 'NONE',  ( 0.000000000000000000, 0.5000000000000000000, 0.000000000000000000 ) ) ;
#182 = EDGE_LOOP ( 'NONE', ( #30, #11 ) ) ;
#183 = STYLED_ITEM ( 'NONE', ( #75 ), #159 ) ;
#184 = DIRECTION ( 'NONE',  ( 0.000000000000000000, 1.000000000000000000, 0.000000000000000000 ) ) ;
#185 = ORIENTED_EDGE ( 'NONE', *, *, #124, .F. ) ;
#186 = DIRECTION ( 'NONE',  ( -3.061616997868383018E-17, 1.000000000000000000, -0.000000000000000000 ) ) ;
#187 = DIRECTION ( 'NONE',  ( -0.000000000000000000, -1.000000000000000000, -0.000000000000000000 ) ) ;
#188 = ADVANCED_FACE ( 'NONE', ( #254 ), #231, .T. ) ;
#189 = CARTESIAN_POINT ( 'NONE',  ( 0.1250000000000000000, 0.5000000000000001110, 1.530808498934192125E-17 ) ) ;
#190 = PRESENTATION_STYLE_ASSIGNMENT (( #212 ) ) ;
#191 = CLOSED_SHELL ( 'NONE', ( #188, #7, #253, #2 ) ) ;
#192 = VECTOR ( 'NONE', #73, 39.37007874015748143 ) ;
#193 = LINE ( 'NONE', #94, #192 ) ;
#194 =( CONVERSION_BASED_UNIT ( 'INCH', #74 ) LENGTH_UNIT ( ) NAMED_UNIT ( #16 ) );
#195 = FILL_AREA_STYLE_COLOUR ( '', #149 ) ;
#196 = DIRECTION ( 'NONE',  ( 0.000000000000000000, 0.000000000000000000, -1.000000000000000000 ) ) ;
#197 = MECHANICAL_DESIGN_GEOMETRIC_PRESENTATION_REPRESENTATION (  '', ( #114 ), #144 ) ;
#198 =( CONVERSION_BASED_UNIT ( 'INCH', #125 ) LENGTH_UNIT ( ) NAMED_UNIT ( #131 ) );
#199 =( LENGTH_UNIT ( ) NAMED_UNIT ( * ) SI_UNIT ( $, .METRE. ) );
#200 =( CONVERSION_BASED_UNIT ( 'INCH', #103 ) LENGTH_UNIT ( ) NAMED_UNIT ( #4 ) );
#201 = MECHANICAL_DESIGN_GEOMETRIC_PRESENTATION_REPRESENTATION (  '', ( #29 ), #61 ) ;
#202 = CIRCLE ( 'NONE', #98, 0.1250000000000000555 ) ;
#203 = ADVANCED_FACE ( 'NONE', ( #258 ), #251, .T. ) ;
#204 = EDGE_CURVE ( 'NONE', #129, #48, #154, .T. ) ;
#205 = CARTESIAN_POINT ( 'NONE',  ( 0.000000000000000000, 0.000000000000000000, 0.000000000000000000 ) ) ;
#206 = SURFACE_STYLE_USAGE ( .BOTH. , #106 ) ;
#207 =( NAMED_UNIT ( * ) PLANE_ANGLE_UNIT ( ) SI_UNIT ( $, .RADIAN. ) );
#208 = SURFACE_STYLE_FILL_AREA ( #117 ) ;
#209 = ORIENTED_EDGE ( 'NONE', *, *, #150, .T. ) ;
#210 = DIRECTION ( 'NONE',  ( -3.061616997868383018E-17, 1.000000000000000000, -0.000000000000000000 ) ) ;
#211 = CARTESIAN_POINT ( 'NONE',  ( 0.000000000000000000, 0.5000000000000000000, 0.000000000000000000 ) ) ;
#212 = SURFACE_STYLE_USAGE ( .BOTH. , #215 ) ;
#213 = CARTESIAN_POINT ( 'NONE',  ( 0.000000000000000000, 0.000000000000000000, 0.000000000000000000 ) ) ;
#214 = LENGTH_MEASURE_WITH_UNIT ( LENGTH_MEASURE( 0.02539999999999999897 ), #236 );
#215 = SURFACE_SIDE_STYLE ('',( #111 ) ) ;
#216 = ADVANCED_FACE ( 'NONE', ( #62 ), #100, .T. ) ;
#217 =( GEOMETRIC_REPRESENTATION_CONTEXT ( 3 ) GLOBAL_UNCERTAINTY_ASSIGNED_CONTEXT ( ( #306 ) ) GLOBAL_UNIT_ASSIGNED_CONTEXT ( ( #198, #59, #119 ) ) REPRESENTATION_CONTEXT ( 'NONE', 'WORKASPACE' ) );
#218 = MANIFOLD_SOLID_BREP ( 'Revolve - Tool Body (Straight Shanked)', #191 ) ;
#219 = DIRECTION ( 'NONE',  ( -0.000000000000000000, -1.000000000000000000, -0.000000000000000000 ) ) ;
#220 =( LENGTH_UNIT ( ) NAMED_UNIT ( * ) SI_UNIT ( $, .METRE. ) );
#221 = AXIS2_PLACEMENT_3D ( 'NONE', #239, #38, #305 ) ;
#222 = FACE_OUTER_BOUND ( 'NONE', #81, .T. ) ;
#223 = SURFACE_STYLE_FILL_AREA ( #228 ) ;
#224 = FILL_AREA_STYLE_COLOUR ( '', #93 ) ;
#225 = EDGE_CURVE ( 'NONE', #48, #127, #265, .T. ) ;
#226 = EDGE_CURVE ( 'NONE', #48, #129, #135, .T. ) ;
#227 = UNCERTAINTY_MEASURE_WITH_UNIT (LENGTH_MEASURE( 1.000000000000000082E-05 ), #308, 'distance_accuracy_value', 'NONE');
#228 = FILL_AREA_STYLE ('',( #280 ) ) ;
#229 = AXIS2_PLACEMENT_3D ( 'NONE', #128, #256, #3 ) ;
#230 = PRODUCT_DEFINITION_FORMATION_WITH_SPECIFIED_SOURCE ( 'ANY', '', #151, .NOT_KNOWN. ) ;
#231 = CYLINDRICAL_SURFACE ( 'NONE', #284, 0.1250000000000000278 ) ;
#232 = AXIS2_PLACEMENT_3D ( 'NONE', #71, #115, #286 ) ;
#233 = UNCERTAINTY_MEASURE_WITH_UNIT (LENGTH_MEASURE( 1.000000000000000082E-05 ), #86, 'distance_accuracy_value', 'NONE');
#234 = ORIENTED_EDGE ( 'NONE', *, *, #226, .T. ) ;
#235 = AXIS2_PLACEMENT_3D ( 'NONE', #211, #184, #46 ) ;
#236 =( LENGTH_UNIT ( ) NAMED_UNIT ( * ) SI_UNIT ( $, .METRE. ) );
#237 = ORIENTED_EDGE ( 'NONE', *, *, #301, .F. ) ;
#238 =( NAMED_UNIT ( * ) PLANE_ANGLE_UNIT ( ) SI_UNIT ( $, .RADIAN. ) );
#239 = CARTESIAN_POINT ( 'NONE',  ( -6.123233995736766036E-17, 2.500000000000000000, 0.000000000000000000 ) ) ;
#240 = EDGE_CURVE ( 'NONE', #142, #138, #202, .T. ) ;
#241 = DIRECTION ( 'NONE',  ( -1.000000000000000000, 0.000000000000000000, 0.000000000000000000 ) ) ;
#242 = DIRECTION ( 'NONE',  ( 1.000000000000000000, 3.061616997868383018E-17, 0.000000000000000000 ) ) ;
#243 = STYLED_ITEM ( 'NONE', ( #190 ), #109 ) ;
#244 = PLANE ( 'NONE',  #232 ) ;
#245 = DIMENSIONAL_EXPONENTS ( 1.000000000000000000, 0.000000000000000000, 0.000000000000000000, 0.000000000000000000, 0.000000000000000000, 0.000000000000000000, 0.000000000000000000 ) ;
#246 = VECTOR ( 'NONE', #267, 39.37007874015748143 ) ;
#247 = FILL_AREA_STYLE ('',( #168 ) ) ;
#248 = FILL_AREA_STYLE ('',( #195 ) ) ;
#249 = PRODUCT_DEFINITION_SHAPE ( 'NONE', 'NONE',  #275 ) ;
#250 =( GEOMETRIC_REPRESENTATION_CONTEXT ( 3 ) GLOBAL_UNCERTAINTY_ASSIGNED_CONTEXT ( ( #45 ) ) GLOBAL_UNIT_ASSIGNED_CONTEXT ( ( #10, #260, #5 ) ) REPRESENTATION_CONTEXT ( 'NONE', 'WORKASPACE' ) );
#251 = PLANE ( 'NONE',  #257 ) ;
#252 = DIRECTION ( 'NONE',  ( -0.000000000000000000, -1.000000000000000000, -0.000000000000000000 ) ) ;
#253 = ADVANCED_FACE ( 'NONE', ( #69 ), #165, .T. ) ;
#254 = FACE_OUTER_BOUND ( 'NONE', #83, .T. ) ;
#255 = UNCERTAINTY_MEASURE_WITH_UNIT (LENGTH_MEASURE( 1.000000000000000082E-05 ), #200, 'distance_accuracy_value', 'NONE');
#256 = DIRECTION ( 'NONE',  ( -0.000000000000000000, -1.000000000000000000, -0.000000000000000000 ) ) ;
#257 = AXIS2_PLACEMENT_3D ( 'NONE', #60, #80, #279 ) ;
#258 = FACE_OUTER_BOUND ( 'NONE', #49, .T. ) ;
#259 = UNCERTAINTY_MEASURE_WITH_UNIT (LENGTH_MEASURE( 1.000000000000000082E-05 ), #194, 'distance_accuracy_value', 'NONE');
#260 =( NAMED_UNIT ( * ) PLANE_ANGLE_UNIT ( ) SI_UNIT ( $, .RADIAN. ) );
#261 = ORIENTED_EDGE ( 'NONE', *, *, #204, .F. ) ;
#262 = EDGE_CURVE ( 'NONE', #50, #142, #35, .T. ) ;
#263 = DIRECTION ( 'NONE',  ( 0.000000000000000000, 0.000000000000000000, -1.000000000000000000 ) ) ;
#264 = DIRECTION ( 'NONE',  ( 0.000000000000000000, 0.000000000000000000, -1.000000000000000000 ) ) ;
#265 = LINE ( 'NONE', #84, #68 ) ;
#266 = CARTESIAN_POINT ( 'NONE',  ( 0.1249999999999999861, 2.500000000000000000, 0.000000000000000000 ) ) ;
#267 = DIRECTION ( 'NONE',  ( -3.061616997868383018E-17, 1.000000000000000000, -0.000000000000000000 ) ) ;
#268 = EDGE_LOOP ( 'NONE', ( #102, #118, #162, #281 ) ) ;
#269 = ORIENTED_EDGE ( 'NONE', *, *, #150, .F. ) ;
#270 =( NAMED_UNIT ( * ) SI_UNIT ( $, .STERADIAN. ) SOLID_ANGLE_UNIT ( ) );
#271 = SURFACE_STYLE_USAGE ( .BOTH. , #170 ) ;
#272 = MECHANICAL_DESIGN_GEOMETRIC_PRESENTATION_REPRESENTATION (  '', ( #243 ), #297 ) ;
#273 = AXIS2_PLACEMENT_3D ( 'NONE', #163, #179, #293 ) ;
#274 = LENGTH_MEASURE_WITH_UNIT ( LENGTH_MEASURE( 0.02539999999999999897 ), #152 );
#275 = PRODUCT_DEFINITION ( 'UNKNOWN', '', #230, #101 ) ;
#276 = CARTESIAN_POINT ( 'NONE',  ( 1.530808498934191509E-17, 0.000000000000000000, 0.1250000000000000000 ) ) ;
#277 = ORIENTED_EDGE ( 'NONE', *, *, #53, .T. ) ;
#278 = STYLED_ITEM ( 'NONE', ( #66 ), #218 ) ;
#279 = DIRECTION ( 'NONE',  ( 0.000000000000000000, 0.000000000000000000, -1.000000000000000000 ) ) ;
#280 = FILL_AREA_STYLE_COLOUR ( '', #42 ) ;
#281 = ORIENTED_EDGE ( 'NONE', *, *, #39, .F. ) ;
#282 = DIRECTION ( 'NONE',  ( -1.000000000000000000, 0.000000000000000000, 0.000000000000000000 ) ) ;
#283 = PRESENTATION_STYLE_ASSIGNMENT (( #77 ) ) ;
#284 = AXIS2_PLACEMENT_3D ( 'NONE', #177, #44, #282 ) ;
#285 = LENGTH_MEASURE_WITH_UNIT ( LENGTH_MEASURE( 0.02539999999999999897 ), #199 );
#286 = DIRECTION ( 'NONE',  ( -1.000000000000000000, -3.061616997868383018E-17, 0.000000000000000000 ) ) ;
#287 = EDGE_CURVE ( 'NONE', #129, #164, #64, .T. ) ;
#288 = DIRECTION ( 'NONE',  ( -0.000000000000000000, -1.000000000000000000, -0.000000000000000000 ) ) ;
#289 = APPLICATION_CONTEXT ( 'automotive_design' ) ;
#290 = EDGE_LOOP ( 'NONE', ( #157, #277, #209, #139 ) ) ;
#291 = COLOUR_RGB ( '',1.000000000000000000, 0.000000000000000000, 0.000000000000000000 ) ;
#292 = ORIENTED_EDGE ( 'NONE', *, *, #225, .F. ) ;
#293 = DIRECTION ( 'NONE',  ( 0.000000000000000000, 0.000000000000000000, -1.000000000000000000 ) ) ;
#294 = DIRECTION ( 'NONE',  ( -1.000000000000000000, 0.000000000000000000, 0.000000000000000000 ) ) ;
#295 = CARTESIAN_POINT ( 'NONE',  ( 0.000000000000000000, 0.5000000000000001110, 0.000000000000000000 ) ) ;
#296 = FACE_OUTER_BOUND ( 'NONE', #32, .T. ) ;
#297 =( GEOMETRIC_REPRESENTATION_CONTEXT ( 3 ) GLOBAL_UNCERTAINTY_ASSIGNED_CONTEXT ( ( #52 ) ) GLOBAL_UNIT_ASSIGNED_CONTEXT ( ( #99, #96, #147 ) ) REPRESENTATION_CONTEXT ( 'NONE', 'WORKASPACE' ) );
#298 = DIRECTION ( 'NONE',  ( 0.000000000000000000, 0.000000000000000000, 1.000000000000000000 ) ) ;
#299 = CARTESIAN_POINT ( 'NONE',  ( 0.000000000000000000, 0.000000000000000000, -0.1250000000000000000 ) ) ;
#300 = EDGE_CURVE ( 'NONE', #127, #164, #116, .T. ) ;
#301 = EDGE_CURVE ( 'NONE', #6, #50, #145, .T. ) ;
#302 = CYLINDRICAL_SURFACE ( 'NONE', #160, 0.1250000000000000000 ) ;
#303 = PRESENTATION_LAYER_ASSIGNMENT (  '', '', ( #114 ) ) ;
#304 =( GEOMETRIC_REPRESENTATION_CONTEXT ( 3 ) GLOBAL_UNCERTAINTY_ASSIGNED_CONTEXT ( ( #255 ) ) GLOBAL_UNIT_ASSIGNED_CONTEXT ( ( #200, #26, #43 ) ) REPRESENTATION_CONTEXT ( 'NONE', 'WORKASPACE' ) );
#305 = DIRECTION ( 'NONE',  ( -1.000000000000000000, 0.000000000000000000, 0.000000000000000000 ) ) ;
#306 = UNCERTAINTY_MEASURE_WITH_UNIT (LENGTH_MEASURE( 1.000000000000000082E-05 ), #198, 'distance_accuracy_value', 'NONE');
#307 = SURFACE_SIDE_STYLE ('',( #130 ) ) ;
#308 =( CONVERSION_BASED_UNIT ( 'INCH', #156 ) LENGTH_UNIT ( ) NAMED_UNIT ( #169 ) );
#309 = AXIS2_PLACEMENT_3D ( 'NONE', #95, #298, #56 ) ;
ENDSEC;
END-ISO-10303-21;
