ISO-10303-21;
HEADER;
FILE_DESCRIPTION (( 'STEP AP214' ),
    '1' );
FILE_NAME ('81316.STEP',
    '2023-06-23T00:29:47',
    ( '' ),
    ( '' ),
    'SwSTEP 2.0',
    'SolidWorks 2023',
    '' );
FILE_SCHEMA (( 'AUTOMOTIVE_DESIGN' ));
ENDSEC;

DATA;
#1 = DIRECTION ( 'NONE',  ( -0.000000000000000000, -1.000000000000000000, -0.000000000000000000 ) ) ;
#2 = MECHANICAL_DESIGN_GEOMETRIC_PRESENTATION_REPRESENTATION (  '', ( #207 ), #36 ) ;
#3 = FILL_AREA_STYLE ('',( #213 ) ) ;
#4 = FILL_AREA_STYLE ('',( #291 ) ) ;
#5 = DIRECTION ( 'NONE',  ( 0.000000000000000000, 0.000000000000000000, -1.000000000000000000 ) ) ;
#6 = EDGE_LOOP ( 'NONE', ( #55, #53 ) ) ;
#7 = DIRECTION ( 'NONE',  ( -1.020538999289461047E-16, 1.000000000000000000, -0.000000000000000000 ) ) ;
#8 =( NAMED_UNIT ( * ) PLANE_ANGLE_UNIT ( ) SI_UNIT ( $, .RADIAN. ) );
#9 = PRESENTATION_STYLE_ASSIGNMENT (( #143 ) ) ;
#10 = VERTEX_POINT ( 'NONE', #113 ) ;
#11 = CIRCLE ( 'NONE', #307, 0.3750000000000000555 ) ;
#12 = CARTESIAN_POINT ( 'NONE',  ( 0.000000000000000000, 0.000000000000000000, -0.3750000000000000555 ) ) ;
#13 = MANIFOLD_SOLID_BREP ( 'Revolve - Cutting Edge', #17 ) ;
#14 =( NAMED_UNIT ( * ) SI_UNIT ( $, .STERADIAN. ) SOLID_ANGLE_UNIT ( ) );
#15 = CARTESIAN_POINT ( 'NONE',  ( 4.592425496802575451E-17, 2.000000000000000000, 0.3750000000000000555 ) ) ;
#16 = DIRECTION ( 'NONE',  ( 0.000000000000000000, 0.000000000000000000, -1.000000000000000000 ) ) ;
#17 = CLOSED_SHELL ( 'NONE', ( #215, #198, #251, #309 ) ) ;
#18 = CARTESIAN_POINT ( 'NONE',  ( -3.061616997868383141E-16, 5.000000000000000000, 0.000000000000000000 ) ) ;
#19 = CARTESIAN_POINT ( 'NONE',  ( 4.592425496802575451E-17, 0.000000000000000000, 0.3750000000000000555 ) ) ;
#20 =( GEOMETRIC_REPRESENTATION_CONTEXT ( 3 ) GLOBAL_UNCERTAINTY_ASSIGNED_CONTEXT ( ( #232 ) ) GLOBAL_UNIT_ASSIGNED_CONTEXT ( ( #199, #167, #252 ) ) REPRESENTATION_CONTEXT ( 'NONE', 'WORKASPACE' ) );
#21 = FACE_OUTER_BOUND ( 'NONE', #97, .T. ) ;
#22 = AXIS2_PLACEMENT_3D ( 'NONE', #85, #169, #102 ) ;
#23 =( CONVERSION_BASED_UNIT ( 'INCH', #69 ) LENGTH_UNIT ( ) NAMED_UNIT ( #163 ) );
#24 = COLOUR_RGB ( '',1.000000000000000000, 0.000000000000000000, 0.000000000000000000 ) ;
#25 = VERTEX_POINT ( 'NONE', #59 ) ;
#26 = EDGE_LOOP ( 'NONE', ( #244, #242, #295, #61 ) ) ;
#27 = EDGE_CURVE ( 'NONE', #196, #10, #137, .T. ) ;
#28 = CARTESIAN_POINT ( 'NONE',  ( 0.000000000000000000, 0.000000000000000000, 0.000000000000000000 ) ) ;
#29 =( NAMED_UNIT ( * ) SI_UNIT ( $, .STERADIAN. ) SOLID_ANGLE_UNIT ( ) );
#30 = SURFACE_SIDE_STYLE ('',( #243 ) ) ;
#31 = CIRCLE ( 'NONE', #117, 0.3750000000000000555 ) ;
#32 = CARTESIAN_POINT ( 'NONE',  ( 0.000000000000000000, 0.000000000000000000, 0.000000000000000000 ) ) ;
#33 = EDGE_LOOP ( 'NONE', ( #197, #263 ) ) ;
#34 = EDGE_CURVE ( 'NONE', #142, #25, #308, .T. ) ;
#35 = CARTESIAN_POINT ( 'NONE',  ( 0.000000000000000000, 2.000000000000000000, 0.000000000000000000 ) ) ;
#36 =( GEOMETRIC_REPRESENTATION_CONTEXT ( 3 ) GLOBAL_UNCERTAINTY_ASSIGNED_CONTEXT ( ( #79 ) ) GLOBAL_UNIT_ASSIGNED_CONTEXT ( ( #23, #129, #111 ) ) REPRESENTATION_CONTEXT ( 'NONE', 'WORKASPACE' ) );
#37 =( LENGTH_UNIT ( ) NAMED_UNIT ( * ) SI_UNIT ( $, .METRE. ) );
#38 = LENGTH_MEASURE_WITH_UNIT ( LENGTH_MEASURE( 0.02539999999999999897 ), #140 );
#39 = ADVANCED_FACE ( 'NONE', ( #124 ), #83, .T. ) ;
#40 = CYLINDRICAL_SURFACE ( 'NONE', #288, 0.3750000000000000555 ) ;
#41 = DIRECTION ( 'NONE',  ( 1.000000000000000000, 0.000000000000000000, 0.000000000000000000 ) ) ;
#42 = DIRECTION ( 'NONE',  ( -1.000000000000000000, 0.000000000000000000, 0.000000000000000000 ) ) ;
#43 = SHAPE_DEFINITION_REPRESENTATION ( #261, #152 ) ;
#44 = CARTESIAN_POINT ( 'NONE',  ( 0.000000000000000000, 0.000000000000000000, -0.3750000000000000555 ) ) ;
#45 = UNCERTAINTY_MEASURE_WITH_UNIT (LENGTH_MEASURE( 1.000000000000000082E-05 ), #182, 'distance_accuracy_value', 'NONE');
#46 = PLANE ( 'NONE',  #185 ) ;
#47 = DIRECTION ( 'NONE',  ( -1.000000000000000000, 0.000000000000000000, 0.000000000000000000 ) ) ;
#48 = LENGTH_MEASURE_WITH_UNIT ( LENGTH_MEASURE( 0.02539999999999999897 ), #63 );
#49 = LINE ( 'NONE', #112, #191 ) ;
#50 =( NAMED_UNIT ( * ) SI_UNIT ( $, .STERADIAN. ) SOLID_ANGLE_UNIT ( ) );
#51 = DIMENSIONAL_EXPONENTS ( 1.000000000000000000, 0.000000000000000000, 0.000000000000000000, 0.000000000000000000, 0.000000000000000000, 0.000000000000000000, 0.000000000000000000 ) ;
#52 = COLOUR_RGB ( '',0.7921568627450980005, 0.8196078431372548767, 0.9333333333333333481 ) ;
#53 = ORIENTED_EDGE ( 'NONE', *, *, #168, .T. ) ;
#54 = STYLED_ITEM ( 'NONE', ( #205 ), #215 ) ;
#55 = ORIENTED_EDGE ( 'NONE', *, *, #231, .T. ) ;
#56 = DIRECTION ( 'NONE',  ( 0.000000000000000000, 0.000000000000000000, -1.000000000000000000 ) ) ;
#57 = FILL_AREA_STYLE_COLOUR ( '', #24 ) ;
#58 = PRESENTATION_LAYER_ASSIGNMENT (  '', '', ( #178 ) ) ;
#59 = CARTESIAN_POINT ( 'NONE',  ( 4.592425496802575451E-17, 0.000000000000000000, 0.3750000000000000555 ) ) ;
#60 = DIMENSIONAL_EXPONENTS ( 1.000000000000000000, 0.000000000000000000, 0.000000000000000000, 0.000000000000000000, 0.000000000000000000, 0.000000000000000000, 0.000000000000000000 ) ;
#61 = ORIENTED_EDGE ( 'NONE', *, *, #82, .F. ) ;
#62 = SURFACE_STYLE_USAGE ( .BOTH. , #298 ) ;
#63 =( LENGTH_UNIT ( ) NAMED_UNIT ( * ) SI_UNIT ( $, .METRE. ) );
#64 = AXIS2_PLACEMENT_3D ( 'NONE', #18, #290, #217 ) ;
#65 = CARTESIAN_POINT ( 'NONE',  ( 0.000000000000000000, 0.000000000000000000, 0.000000000000000000 ) ) ;
#66 = CARTESIAN_POINT ( 'NONE',  ( 0.000000000000000000, 0.000000000000000000, 0.000000000000000000 ) ) ;
#67 =( GEOMETRIC_REPRESENTATION_CONTEXT ( 3 ) GLOBAL_UNCERTAINTY_ASSIGNED_CONTEXT ( ( #241 ) ) GLOBAL_UNIT_ASSIGNED_CONTEXT ( ( #235, #299, #14 ) ) REPRESENTATION_CONTEXT ( 'NONE', 'WORKASPACE' ) );
#68 = PRESENTATION_STYLE_ASSIGNMENT (( #274 ) ) ;
#69 = LENGTH_MEASURE_WITH_UNIT ( LENGTH_MEASURE( 0.02539999999999999897 ), #134 );
#70 = APPLICATION_PROTOCOL_DEFINITION ( 'draft international standard', 'automotive_design', 1998, #156 ) ;
#71 = ADVANCED_FACE ( 'NONE', ( #164 ), #100, .F. ) ;
#72 =( LENGTH_UNIT ( ) NAMED_UNIT ( * ) SI_UNIT ( $, .METRE. ) );
#73 =( LENGTH_UNIT ( ) NAMED_UNIT ( * ) SI_UNIT ( $, .METRE. ) );
#74 = ORIENTED_EDGE ( 'NONE', *, *, #303, .T. ) ;
#75 = LENGTH_MEASURE_WITH_UNIT ( LENGTH_MEASURE( 0.02539999999999999897 ), #73 );
#76 = CLOSED_SHELL ( 'NONE', ( #39, #71, #234, #280 ) ) ;
#77 = VERTEX_POINT ( 'NONE', #175 ) ;
#78 = AXIS2_PLACEMENT_3D ( 'NONE', #28, #81, #147 ) ;
#79 = UNCERTAINTY_MEASURE_WITH_UNIT (LENGTH_MEASURE( 1.000000000000000082E-05 ), #23, 'distance_accuracy_value', 'NONE');
#80 = PRESENTATION_STYLE_ASSIGNMENT (( #161 ) ) ;
#81 = DIRECTION ( 'NONE',  ( -0.000000000000000000, -1.000000000000000000, -0.000000000000000000 ) ) ;
#82 = EDGE_CURVE ( 'NONE', #10, #77, #49, .T. ) ;
#83 = CYLINDRICAL_SURFACE ( 'NONE', #289, 0.3750000000000001665 ) ;
#84 = EDGE_LOOP ( 'NONE', ( #99, #74, #115, #283 ) ) ;
#85 = CARTESIAN_POINT ( 'NONE',  ( 1.952812217007627778E-33, 2.000000000000000000, 0.000000000000000000 ) ) ;
#86 = CYLINDRICAL_SURFACE ( 'NONE', #260, 0.3750000000000000555 ) ;
#87 = FACE_OUTER_BOUND ( 'NONE', #286, .T. ) ;
#88 =( GEOMETRIC_REPRESENTATION_CONTEXT ( 3 ) GLOBAL_UNCERTAINTY_ASSIGNED_CONTEXT ( ( #253 ) ) GLOBAL_UNIT_ASSIGNED_CONTEXT ( ( #98, #141, #301 ) ) REPRESENTATION_CONTEXT ( 'NONE', 'WORKASPACE' ) );
#89 = MECHANICAL_DESIGN_GEOMETRIC_PRESENTATION_REPRESENTATION (  '', ( #228 ), #67 ) ;
#90 = SURFACE_SIDE_STYLE ('',( #126 ) ) ;
#91 = CARTESIAN_POINT ( 'NONE',  ( 0.000000000000000000, 2.000000000000000000, 0.000000000000000000 ) ) ;
#92 = PRESENTATION_LAYER_ASSIGNMENT (  '', '', ( #228 ) ) ;
#93 = FILL_AREA_STYLE_COLOUR ( '', #96 ) ;
#94 = SURFACE_STYLE_FILL_AREA ( #4 ) ;
#95 = DIMENSIONAL_EXPONENTS ( 1.000000000000000000, 0.000000000000000000, 0.000000000000000000, 0.000000000000000000, 0.000000000000000000, 0.000000000000000000, 0.000000000000000000 ) ;
#96 = COLOUR_RGB ( '',1.000000000000000000, 0.000000000000000000, 0.000000000000000000 ) ;
#97 = EDGE_LOOP ( 'NONE', ( #216, #166, #138, #220 ) ) ;
#98 =( CONVERSION_BASED_UNIT ( 'INCH', #218 ) LENGTH_UNIT ( ) NAMED_UNIT ( #162 ) );
#99 = ORIENTED_EDGE ( 'NONE', *, *, #293, .F. ) ;
#100 = PLANE ( 'NONE',  #22 ) ;
#101 = AXIS2_PLACEMENT_3D ( 'NONE', #35, #123, #225 ) ;
#102 = DIRECTION ( 'NONE',  ( -1.000000000000000000, -1.020538999289461170E-16, 0.000000000000000000 ) ) ;
#103 = DIMENSIONAL_EXPONENTS ( 1.000000000000000000, 0.000000000000000000, 0.000000000000000000, 0.000000000000000000, 0.000000000000000000, 0.000000000000000000, 0.000000000000000000 ) ;
#104 = DIRECTION ( 'NONE',  ( -0.000000000000000000, -1.000000000000000000, -0.000000000000000000 ) ) ;
#105 = FACE_OUTER_BOUND ( 'NONE', #6, .T. ) ;
#106 = AXIS2_PLACEMENT_3D ( 'NONE', #226, #227, #16 ) ;
#107 = VECTOR ( 'NONE', #127, 39.37007874015748143 ) ;
#108 = DIRECTION ( 'NONE',  ( -1.000000000000000000, 0.000000000000000000, 0.000000000000000000 ) ) ;
#109 = CARTESIAN_POINT ( 'NONE',  ( 6.065921084684207584E-32, 2.000000000000000000, 0.000000000000000000 ) ) ;
#110 = DIRECTION ( 'NONE',  ( -0.000000000000000000, -1.000000000000000000, -0.000000000000000000 ) ) ;
#111 =( NAMED_UNIT ( * ) SI_UNIT ( $, .STERADIAN. ) SOLID_ANGLE_UNIT ( ) );
#112 = CARTESIAN_POINT ( 'NONE',  ( -0.3750000000000004441, 5.000000000000000000, 0.000000000000000000 ) ) ;
#113 = CARTESIAN_POINT ( 'NONE',  ( -0.3750000000000000555, 2.000000000000000000, 0.000000000000000000 ) ) ;
#114 =( NAMED_UNIT ( * ) SI_UNIT ( $, .STERADIAN. ) SOLID_ANGLE_UNIT ( ) );
#115 = ORIENTED_EDGE ( 'NONE', *, *, #210, .T. ) ;
#116 = CYLINDRICAL_SURFACE ( 'NONE', #174, 0.3750000000000001665 ) ;
#117 = AXIS2_PLACEMENT_3D ( 'NONE', #91, #173, #151 ) ;
#118 = ORIENTED_EDGE ( 'NONE', *, *, #186, .T. ) ;
#119 = EDGE_LOOP ( 'NONE', ( #160, #247 ) ) ;
#120 = FACE_OUTER_BOUND ( 'NONE', #119, .T. ) ;
#121 = ORIENTED_EDGE ( 'NONE', *, *, #210, .F. ) ;
#122 = MECHANICAL_DESIGN_GEOMETRIC_PRESENTATION_REPRESENTATION (  '', ( #54 ), #297 ) ;
#123 = DIRECTION ( 'NONE',  ( 0.000000000000000000, 1.000000000000000000, 0.000000000000000000 ) ) ;
#124 = FACE_OUTER_BOUND ( 'NONE', #26, .T. ) ;
#125 = PLANE ( 'NONE',  #106 ) ;
#126 = SURFACE_STYLE_FILL_AREA ( #202 ) ;
#127 = DIRECTION ( 'NONE',  ( -1.020538999289461170E-16, 1.000000000000000000, -0.000000000000000000 ) ) ;
#128 = DIRECTION ( 'NONE',  ( 1.000000000000000000, 1.020538999289461170E-16, 0.000000000000000000 ) ) ;
#129 =( NAMED_UNIT ( * ) PLANE_ANGLE_UNIT ( ) SI_UNIT ( $, .RADIAN. ) );
#130 = FACE_OUTER_BOUND ( 'NONE', #240, .T. ) ;
#131 =( NAMED_UNIT ( * ) PLANE_ANGLE_UNIT ( ) SI_UNIT ( $, .RADIAN. ) );
#132 = MECHANICAL_DESIGN_GEOMETRIC_PRESENTATION_REPRESENTATION (  '', ( #223 ), #88 ) ;
#133 = PRODUCT_DEFINITION ( 'UNKNOWN', '', #179, #190 ) ;
#134 =( LENGTH_UNIT ( ) NAMED_UNIT ( * ) SI_UNIT ( $, .METRE. ) );
#135 = CARTESIAN_POINT ( 'NONE',  ( -3.061616997868383141E-16, 5.000000000000000000, 0.000000000000000000 ) ) ;
#136 = CIRCLE ( 'NONE', #278, 0.3750000000000002776 ) ;
#137 = CIRCLE ( 'NONE', #206, 0.3750000000000000555 ) ;
#138 = ORIENTED_EDGE ( 'NONE', *, *, #82, .T. ) ;
#139 = ORIENTED_EDGE ( 'NONE', *, *, #293, .T. ) ;
#140 =( LENGTH_UNIT ( ) NAMED_UNIT ( * ) SI_UNIT ( $, .METRE. ) );
#141 =( NAMED_UNIT ( * ) PLANE_ANGLE_UNIT ( ) SI_UNIT ( $, .RADIAN. ) );
#142 = VERTEX_POINT ( 'NONE', #44 ) ;
#143 = SURFACE_STYLE_USAGE ( .BOTH. , #30 ) ;
#144 = VERTEX_POINT ( 'NONE', #211 ) ;
#145 = PLANE ( 'NONE',  #101 ) ;
#146 = VECTOR ( 'NONE', #104, 39.37007874015748143 ) ;
#147 = DIRECTION ( 'NONE',  ( 0.000000000000000000, 0.000000000000000000, -1.000000000000000000 ) ) ;
#148 = DIRECTION ( 'NONE',  ( -1.000000000000000000, 0.000000000000000000, 0.000000000000000000 ) ) ;
#149 = CARTESIAN_POINT ( 'NONE',  ( -3.061616997868383141E-16, 5.000000000000000000, 0.000000000000000000 ) ) ;
#150 = DIRECTION ( 'NONE',  ( -0.000000000000000000, -1.000000000000000000, -0.000000000000000000 ) ) ;
#151 = DIRECTION ( 'NONE',  ( 0.000000000000000000, 0.000000000000000000, -1.000000000000000000 ) ) ;
#152 = ADVANCED_BREP_SHAPE_REPRESENTATION ( '81316', ( #13, #219, #208 ), #153 ) ;
#153 =( GEOMETRIC_REPRESENTATION_CONTEXT ( 3 ) GLOBAL_UNCERTAINTY_ASSIGNED_CONTEXT ( ( #245 ) ) GLOBAL_UNIT_ASSIGNED_CONTEXT ( ( #279, #276, #50 ) ) REPRESENTATION_CONTEXT ( 'NONE', 'WORKASPACE' ) );
#154 = FILL_AREA_STYLE_COLOUR ( '', #200 ) ;
#155 = PRODUCT ( '81316', '81316', '', ( #176 ) ) ;
#156 = APPLICATION_CONTEXT ( 'automotive_design' ) ;
#157 = DIRECTION ( 'NONE',  ( -1.020538999289461047E-16, 1.000000000000000000, -0.000000000000000000 ) ) ;
#158 = EDGE_CURVE ( 'NONE', #196, #144, #277, .T. ) ;
#159 = SURFACE_SIDE_STYLE ('',( #221 ) ) ;
#160 = ORIENTED_EDGE ( 'NONE', *, *, #186, .F. ) ;
#161 = SURFACE_STYLE_USAGE ( .BOTH. , #188 ) ;
#162 = DIMENSIONAL_EXPONENTS ( 1.000000000000000000, 0.000000000000000000, 0.000000000000000000, 0.000000000000000000, 0.000000000000000000, 0.000000000000000000, 0.000000000000000000 ) ;
#163 = DIMENSIONAL_EXPONENTS ( 1.000000000000000000, 0.000000000000000000, 0.000000000000000000, 0.000000000000000000, 0.000000000000000000, 0.000000000000000000, 0.000000000000000000 ) ;
#164 = FACE_OUTER_BOUND ( 'NONE', #33, .T. ) ;
#165 = PRESENTATION_LAYER_ASSIGNMENT (  '', '', ( #223 ) ) ;
#166 = ORIENTED_EDGE ( 'NONE', *, *, #27, .T. ) ;
#167 =( NAMED_UNIT ( * ) PLANE_ANGLE_UNIT ( ) SI_UNIT ( $, .RADIAN. ) );
#168 = EDGE_CURVE ( 'NONE', #144, #77, #266, .T. ) ;
#169 = DIRECTION ( 'NONE',  ( -1.020538999289461170E-16, 1.000000000000000000, 0.000000000000000000 ) ) ;
#170 = FILL_AREA_STYLE ('',( #57 ) ) ;
#171 = DIRECTION ( 'NONE',  ( -1.020538999289461047E-16, 1.000000000000000000, -0.000000000000000000 ) ) ;
#172 = LINE ( 'NONE', #12, #146 ) ;
#173 = DIRECTION ( 'NONE',  ( -0.000000000000000000, -1.000000000000000000, -0.000000000000000000 ) ) ;
#174 = AXIS2_PLACEMENT_3D ( 'NONE', #135, #229, #305 ) ;
#175 = CARTESIAN_POINT ( 'NONE',  ( -0.3750000000000005551, 5.000000000000000000, 0.000000000000000000 ) ) ;
#176 = PRODUCT_CONTEXT ( 'NONE', #156, 'mechanical' ) ;
#177 = SURFACE_STYLE_USAGE ( .BOTH. , #90 ) ;
#178 = STYLED_ITEM ( 'NONE', ( #201 ), #198 ) ;
#179 = PRODUCT_DEFINITION_FORMATION_WITH_SPECIFIED_SOURCE ( 'ANY', '', #155, .NOT_KNOWN. ) ;
#180 = MECHANICAL_DESIGN_GEOMETRIC_PRESENTATION_REPRESENTATION (  '', ( #224 ), #265 ) ;
#181 = FILL_AREA_STYLE ('',( #154 ) ) ;
#182 =( CONVERSION_BASED_UNIT ( 'INCH', #38 ) LENGTH_UNIT ( ) NAMED_UNIT ( #60 ) );
#183 = DIRECTION ( 'NONE',  ( -1.020538999289461170E-16, 1.000000000000000000, -0.000000000000000000 ) ) ;
#184 = DIRECTION ( 'NONE',  ( -1.020538999289461047E-16, 1.000000000000000000, -0.000000000000000000 ) ) ;
#185 = AXIS2_PLACEMENT_3D ( 'NONE', #255, #304, #128 ) ;
#186 = EDGE_CURVE ( 'NONE', #222, #187, #237, .T. ) ;
#187 = VERTEX_POINT ( 'NONE', #15 ) ;
#188 = SURFACE_SIDE_STYLE ('',( #94 ) ) ;
#189 = EDGE_CURVE ( 'NONE', #10, #196, #11, .T. ) ;
#190 = PRODUCT_DEFINITION_CONTEXT ( 'detailed design', #203, 'design' ) ;
#191 = VECTOR ( 'NONE', #183, 39.37007874015748143 ) ;
#192 = CARTESIAN_POINT ( 'NONE',  ( 6.065921084684207584E-32, 2.000000000000000000, 0.000000000000000000 ) ) ;
#193 =( LENGTH_UNIT ( ) NAMED_UNIT ( * ) SI_UNIT ( $, .METRE. ) );
#194 = EDGE_CURVE ( 'NONE', #25, #142, #236, .T. ) ;
#195 = CARTESIAN_POINT ( 'NONE',  ( 0.000000000000000000, 0.000000000000000000, 0.000000000000000000 ) ) ;
#196 = VERTEX_POINT ( 'NONE', #281 ) ;
#197 = ORIENTED_EDGE ( 'NONE', *, *, #189, .F. ) ;
#198 = ADVANCED_FACE ( 'NONE', ( #120 ), #145, .T. ) ;
#199 =( CONVERSION_BASED_UNIT ( 'INCH', #268 ) LENGTH_UNIT ( ) NAMED_UNIT ( #95 ) );
#200 = COLOUR_RGB ( '',1.000000000000000000, 0.000000000000000000, 0.000000000000000000 ) ;
#201 = PRESENTATION_STYLE_ASSIGNMENT (( #62 ) ) ;
#202 = FILL_AREA_STYLE ('',( #254 ) ) ;
#203 = APPLICATION_CONTEXT ( 'automotive_design' ) ;
#204 = SURFACE_SIDE_STYLE ('',( #230 ) ) ;
#205 = PRESENTATION_STYLE_ASSIGNMENT (( #262 ) ) ;
#206 = AXIS2_PLACEMENT_3D ( 'NONE', #192, #171, #148 ) ;
#207 = STYLED_ITEM ( 'NONE', ( #259 ), #219 ) ;
#208 = AXIS2_PLACEMENT_3D ( 'NONE', #32, #249, #41 ) ;
#209 = AXIS2_PLACEMENT_3D ( 'NONE', #65, #248, #296 ) ;
#210 = EDGE_CURVE ( 'NONE', #222, #142, #172, .T. ) ;
#211 = CARTESIAN_POINT ( 'NONE',  ( 0.3750000000000000555, 5.000000000000000000, 4.592425496802577300E-17 ) ) ;
#212 = PRESENTATION_LAYER_ASSIGNMENT (  '', '', ( #54 ) ) ;
#213 = FILL_AREA_STYLE_COLOUR ( '', #264 ) ;
#214 = ORIENTED_EDGE ( 'NONE', *, *, #34, .F. ) ;
#215 = ADVANCED_FACE ( 'NONE', ( #87 ), #40, .T. ) ;
#216 = ORIENTED_EDGE ( 'NONE', *, *, #158, .F. ) ;
#217 = DIRECTION ( 'NONE',  ( -1.000000000000000000, 0.000000000000000000, 0.000000000000000000 ) ) ;
#218 = LENGTH_MEASURE_WITH_UNIT ( LENGTH_MEASURE( 0.02539999999999999897 ), #37 );
#219 = MANIFOLD_SOLID_BREP ( 'Revolve - Tool Body (Straight Shanked)', #76 ) ;
#220 = ORIENTED_EDGE ( 'NONE', *, *, #168, .F. ) ;
#221 = SURFACE_STYLE_FILL_AREA ( #239 ) ;
#222 = VERTEX_POINT ( 'NONE', #272 ) ;
#223 = STYLED_ITEM ( 'NONE', ( #9 ), #251 ) ;
#224 = STYLED_ITEM ( 'NONE', ( #80 ), #13 ) ;
#225 = DIRECTION ( 'NONE',  ( 0.000000000000000000, -0.000000000000000000, 1.000000000000000000 ) ) ;
#226 = CARTESIAN_POINT ( 'NONE',  ( 0.000000000000000000, 0.000000000000000000, 0.000000000000000000 ) ) ;
#227 = DIRECTION ( 'NONE',  ( 0.000000000000000000, -1.000000000000000000, -0.000000000000000000 ) ) ;
#228 = STYLED_ITEM ( 'NONE', ( #68 ), #309 ) ;
#229 = DIRECTION ( 'NONE',  ( -1.020538999289461047E-16, 1.000000000000000000, -0.000000000000000000 ) ) ;
#230 = SURFACE_STYLE_FILL_AREA ( #181 ) ;
#231 = EDGE_CURVE ( 'NONE', #77, #144, #136, .T. ) ;
#232 = UNCERTAINTY_MEASURE_WITH_UNIT (LENGTH_MEASURE( 1.000000000000000082E-05 ), #199, 'distance_accuracy_value', 'NONE');
#233 = DIRECTION ( 'NONE',  ( 0.000000000000000000, 0.000000000000000000, -1.000000000000000000 ) ) ;
#234 = ADVANCED_FACE ( 'NONE', ( #21 ), #116, .T. ) ;
#235 =( CONVERSION_BASED_UNIT ( 'INCH', #48 ) LENGTH_UNIT ( ) NAMED_UNIT ( #103 ) );
#236 = CIRCLE ( 'NONE', #78, 0.3750000000000000555 ) ;
#237 = CIRCLE ( 'NONE', #275, 0.3750000000000000555 ) ;
#238 =( CONVERSION_BASED_UNIT ( 'INCH', #302 ) LENGTH_UNIT ( ) NAMED_UNIT ( #51 ) );
#239 = FILL_AREA_STYLE ('',( #93 ) ) ;
#240 = EDGE_LOOP ( 'NONE', ( #267, #246 ) ) ;
#241 = UNCERTAINTY_MEASURE_WITH_UNIT (LENGTH_MEASURE( 1.000000000000000082E-05 ), #235, 'distance_accuracy_value', 'NONE');
#242 = ORIENTED_EDGE ( 'NONE', *, *, #158, .T. ) ;
#243 = SURFACE_STYLE_FILL_AREA ( #170 ) ;
#244 = ORIENTED_EDGE ( 'NONE', *, *, #189, .T. ) ;
#245 = UNCERTAINTY_MEASURE_WITH_UNIT (LENGTH_MEASURE( 1.000000000000000082E-05 ), #279, 'distance_accuracy_value', 'NONE');
#246 = ORIENTED_EDGE ( 'NONE', *, *, #194, .T. ) ;
#247 = ORIENTED_EDGE ( 'NONE', *, *, #303, .F. ) ;
#248 = DIRECTION ( 'NONE',  ( -0.000000000000000000, -1.000000000000000000, -0.000000000000000000 ) ) ;
#249 = DIRECTION ( 'NONE',  ( 0.000000000000000000, 0.000000000000000000, 1.000000000000000000 ) ) ;
#250 = VECTOR ( 'NONE', #150, 39.37007874015748143 ) ;
#251 = ADVANCED_FACE ( 'NONE', ( #294 ), #86, .T. ) ;
#252 =( NAMED_UNIT ( * ) SI_UNIT ( $, .STERADIAN. ) SOLID_ANGLE_UNIT ( ) );
#253 = UNCERTAINTY_MEASURE_WITH_UNIT (LENGTH_MEASURE( 1.000000000000000082E-05 ), #98, 'distance_accuracy_value', 'NONE');
#254 = FILL_AREA_STYLE_COLOUR ( '', #300 ) ;
#255 = CARTESIAN_POINT ( 'NONE',  ( 0.3750000000000000555, 5.000000000000000000, 0.000000000000000000 ) ) ;
#256 = CARTESIAN_POINT ( 'NONE',  ( -3.061616997868383141E-16, 5.000000000000000000, 0.000000000000000000 ) ) ;
#257 = APPLICATION_PROTOCOL_DEFINITION ( 'draft international standard', 'automotive_design', 1998, #203 ) ;
#258 = PRESENTATION_LAYER_ASSIGNMENT (  '', '', ( #224 ) ) ;
#259 = PRESENTATION_STYLE_ASSIGNMENT (( #177 ) ) ;
#260 = AXIS2_PLACEMENT_3D ( 'NONE', #66, #110, #233 ) ;
#261 = PRODUCT_DEFINITION_SHAPE ( 'NONE', 'NONE',  #133 ) ;
#262 = SURFACE_STYLE_USAGE ( .BOTH. , #159 ) ;
#263 = ORIENTED_EDGE ( 'NONE', *, *, #27, .F. ) ;
#264 = COLOUR_RGB ( '',1.000000000000000000, 0.000000000000000000, 0.000000000000000000 ) ;
#265 =( GEOMETRIC_REPRESENTATION_CONTEXT ( 3 ) GLOBAL_UNCERTAINTY_ASSIGNED_CONTEXT ( ( #45 ) ) GLOBAL_UNIT_ASSIGNED_CONTEXT ( ( #182, #131, #114 ) ) REPRESENTATION_CONTEXT ( 'NONE', 'WORKASPACE' ) );
#266 = CIRCLE ( 'NONE', #64, 0.3750000000000002776 ) ;
#267 = ORIENTED_EDGE ( 'NONE', *, *, #34, .T. ) ;
#268 = LENGTH_MEASURE_WITH_UNIT ( LENGTH_MEASURE( 0.02539999999999999897 ), #72 );
#269 = DIMENSIONAL_EXPONENTS ( 1.000000000000000000, 0.000000000000000000, 0.000000000000000000, 0.000000000000000000, 0.000000000000000000, 0.000000000000000000, 0.000000000000000000 ) ;
#270 = SURFACE_STYLE_FILL_AREA ( #3 ) ;
#271 = MECHANICAL_DESIGN_GEOMETRIC_PRESENTATION_REPRESENTATION (  '', ( #178 ), #20 ) ;
#272 = CARTESIAN_POINT ( 'NONE',  ( 0.000000000000000000, 2.000000000000000000, -0.3750000000000000555 ) ) ;
#273 = CARTESIAN_POINT ( 'NONE',  ( 0.3749999999999998890, 5.000000000000000000, 4.592425496802576684E-17 ) ) ;
#274 = SURFACE_STYLE_USAGE ( .BOTH. , #204 ) ;
#275 = AXIS2_PLACEMENT_3D ( 'NONE', #282, #1, #5 ) ;
#276 =( NAMED_UNIT ( * ) PLANE_ANGLE_UNIT ( ) SI_UNIT ( $, .RADIAN. ) );
#277 = LINE ( 'NONE', #273, #107 ) ;
#278 = AXIS2_PLACEMENT_3D ( 'NONE', #256, #184, #108 ) ;
#279 =( CONVERSION_BASED_UNIT ( 'INCH', #75 ) LENGTH_UNIT ( ) NAMED_UNIT ( #269 ) );
#280 = ADVANCED_FACE ( 'NONE', ( #105 ), #46, .F. ) ;
#281 = CARTESIAN_POINT ( 'NONE',  ( 0.3750000000000000555, 2.000000000000000000, 4.592425496802577300E-17 ) ) ;
#282 = CARTESIAN_POINT ( 'NONE',  ( 0.000000000000000000, 2.000000000000000000, 0.000000000000000000 ) ) ;
#283 = ORIENTED_EDGE ( 'NONE', *, *, #194, .F. ) ;
#284 = PRODUCT_RELATED_PRODUCT_CATEGORY ( 'part', '', ( #155 ) ) ;
#285 = UNCERTAINTY_MEASURE_WITH_UNIT (LENGTH_MEASURE( 1.000000000000000082E-05 ), #238, 'distance_accuracy_value', 'NONE');
#286 = EDGE_LOOP ( 'NONE', ( #118, #139, #214, #121 ) ) ;
#287 = PRESENTATION_LAYER_ASSIGNMENT (  '', '', ( #207 ) ) ;
#288 = AXIS2_PLACEMENT_3D ( 'NONE', #195, #292, #56 ) ;
#289 = AXIS2_PLACEMENT_3D ( 'NONE', #149, #7, #42 ) ;
#290 = DIRECTION ( 'NONE',  ( -1.020538999289461047E-16, 1.000000000000000000, -0.000000000000000000 ) ) ;
#291 = FILL_AREA_STYLE_COLOUR ( '', #52 ) ;
#292 = DIRECTION ( 'NONE',  ( -0.000000000000000000, -1.000000000000000000, -0.000000000000000000 ) ) ;
#293 = EDGE_CURVE ( 'NONE', #187, #25, #306, .T. ) ;
#294 = FACE_OUTER_BOUND ( 'NONE', #84, .T. ) ;
#295 = ORIENTED_EDGE ( 'NONE', *, *, #231, .F. ) ;
#296 = DIRECTION ( 'NONE',  ( 0.000000000000000000, 0.000000000000000000, -1.000000000000000000 ) ) ;
#297 =( GEOMETRIC_REPRESENTATION_CONTEXT ( 3 ) GLOBAL_UNCERTAINTY_ASSIGNED_CONTEXT ( ( #285 ) ) GLOBAL_UNIT_ASSIGNED_CONTEXT ( ( #238, #8, #29 ) ) REPRESENTATION_CONTEXT ( 'NONE', 'WORKASPACE' ) );
#298 = SURFACE_SIDE_STYLE ('',( #270 ) ) ;
#299 =( NAMED_UNIT ( * ) PLANE_ANGLE_UNIT ( ) SI_UNIT ( $, .RADIAN. ) );
#300 = COLOUR_RGB ( '',0.7921568627450980005, 0.8196078431372548767, 0.9333333333333333481 ) ;
#301 =( NAMED_UNIT ( * ) SI_UNIT ( $, .STERADIAN. ) SOLID_ANGLE_UNIT ( ) );
#302 = LENGTH_MEASURE_WITH_UNIT ( LENGTH_MEASURE( 0.02539999999999999897 ), #193 );
#303 = EDGE_CURVE ( 'NONE', #187, #222, #31, .T. ) ;
#304 = DIRECTION ( 'NONE',  ( 1.020538999289461170E-16, -1.000000000000000000, 0.000000000000000000 ) ) ;
#305 = DIRECTION ( 'NONE',  ( -1.000000000000000000, 0.000000000000000000, 0.000000000000000000 ) ) ;
#306 = LINE ( 'NONE', #19, #250 ) ;
#307 = AXIS2_PLACEMENT_3D ( 'NONE', #109, #157, #47 ) ;
#308 = CIRCLE ( 'NONE', #209, 0.3750000000000000555 ) ;
#309 = ADVANCED_FACE ( 'NONE', ( #130 ), #125, .T. ) ;
ENDSEC;
END-ISO-10303-21;
