ISO-10303-21;
HEADER;
FILE_DESCRIPTION (( 'STEP AP214' ),
    '1' );
FILE_NAME ('Micro_CREM-080-300.STEP',
    '2021-09-02T15:23:17',
    ( '' ),
    ( '' ),
    'SwSTEP 2.0',
    'SolidWorks 2020',
    '' );
FILE_SCHEMA (( 'AUTOMOTIVE_DESIGN' ));
ENDSEC;

DATA;
#1 = DIRECTION ( 'NONE',  ( -1.224646799147353207E-16, 1.000000000000000000, 1.482000704702181898E-32 ) ) ;
#2 = EDGE_CURVE ( 'NONE', #116, #236, #153, .T. ) ;
#3 = FACE_OUTER_BOUND ( 'NONE', #43, .T. ) ;
#4 = EDGE_LOOP ( 'NONE', ( #53, #21, #150, #240 ) ) ;
#5 = AXIS2_PLACEMENT_3D ( 'NONE', #283, #289, #285 ) ;
#6 = EDGE_CURVE ( 'NONE', #298, #222, #27, .T. ) ;
#7 = CARTESIAN_POINT ( 'NONE',  ( -0.1574804999999999955, 0.0000000000000000000, 2.465314999999999923 ) ) ;
#8 = APPLICATION_PROTOCOL_DEFINITION ( 'draft international standard', 'automotive_design', 1998, #185 ) ;
#9 = DIRECTION ( 'NONE',  ( 0.0000000000000000000, -1.000000000000000000, 0.0000000000000000000 ) ) ;
#10 = EDGE_LOOP ( 'NONE', ( #111, #143, #16, #297 ) ) ;
#11 = ORIENTED_EDGE ( 'NONE', *, *, #81, .T. ) ;
#12 = DIRECTION ( 'NONE',  ( -1.000000000000000000, 0.0000000000000000000, 1.210145411504777164E-16 ) ) ;
#13 = LINE ( 'NONE', #169, #119 ) ;
#14 = ORIENTED_EDGE ( 'NONE', *, *, #46, .T. ) ;
#15 = PRESENTATION_STYLE_ASSIGNMENT (( #173 ) ) ;
#16 = ORIENTED_EDGE ( 'NONE', *, *, #18, .T. ) ;
#17 = CARTESIAN_POINT ( 'NONE',  ( 0.1574804999999999955, 1.928579902531247412E-17, 2.465314999999999923 ) ) ;
#18 = EDGE_CURVE ( 'NONE', #66, #242, #237, .T. ) ;
#19 = AXIS2_PLACEMENT_3D ( 'NONE', #122, #47, #219 ) ;
#20 = CIRCLE ( 'NONE', #189, 0.1181099999999999928 ) ;
#21 = ORIENTED_EDGE ( 'NONE', *, *, #329, .F. ) ;
#22 = PRODUCT_CONTEXT ( 'NONE', #185, 'mechanical' ) ;
#23 = DIMENSIONAL_EXPONENTS ( 1.000000000000000000, 0.0000000000000000000, 0.0000000000000000000, 0.0000000000000000000, 0.0000000000000000000, 0.0000000000000000000, 0.0000000000000000000 ) ;
#24 = EDGE_LOOP ( 'NONE', ( #323, #330 ) ) ;
#25 = AXIS2_PLACEMENT_3D ( 'NONE', #106, #9, #209 ) ;
#26 = DIRECTION ( 'NONE',  ( -0.0000000000000000000, -0.0000000000000000000, -1.000000000000000000 ) ) ;
#27 = LINE ( 'NONE', #54, #57 ) ;
#28 = AXIS2_PLACEMENT_3D ( 'NONE', #120, #247, #129 ) ;
#29 = AXIS2_PLACEMENT_3D ( 'NONE', #136, #109, #265 ) ;
#30 = FACE_OUTER_BOUND ( 'NONE', #131, .T. ) ;
#31 = CARTESIAN_POINT ( 'NONE',  ( 0.0000000000000000000, 0.0000000000000000000, 0.005117998791752701934 ) ) ;
#32 = CARTESIAN_POINT ( 'NONE',  ( 0.0000000000000000000, 0.0000000000000000000, 2.465314999999999923 ) ) ;
#33 = ORIENTED_EDGE ( 'NONE', *, *, #218, .T. ) ;
#34 = EDGE_CURVE ( 'NONE', #195, #236, #127, .T. ) ;
#35 = DIRECTION ( 'NONE',  ( 1.000000000000000000, 0.0000000000000000000, -0.0000000000000000000 ) ) ;
#36 = ORIENTED_EDGE ( 'NONE', *, *, #325, .F. ) ;
#37 = FACE_OUTER_BOUND ( 'NONE', #321, .T. ) ;
#38 = DIRECTION ( 'NONE',  ( 1.000000000000000000, 0.0000000000000000000, 0.0000000000000000000 ) ) ;
#39 = EDGE_LOOP ( 'NONE', ( #70, #11, #230, #45 ) ) ;
#40 = DIRECTION ( 'NONE',  ( -1.000000000000000000, 0.0000000000000000000, 1.156512178698388168E-16 ) ) ;
#41 = CIRCLE ( 'NONE', #68, 0.1574804999999999955 ) ;
#42 =( LENGTH_UNIT ( ) NAMED_UNIT ( * ) SI_UNIT ( $, .METRE. ) );
#43 = EDGE_LOOP ( 'NONE', ( #163, #257, #125, #288 ) ) ;
#44 = AXIS2_PLACEMENT_3D ( 'NONE', #31, #108, #135 ) ;
#45 = ORIENTED_EDGE ( 'NONE', *, *, #6, .F. ) ;
#46 = EDGE_CURVE ( 'NONE', #133, #298, #174, .T. ) ;
#47 = DIRECTION ( 'NONE',  ( 0.0000000000000000000, 0.0000000000000000000, 1.000000000000000000 ) ) ;
#48 = DIMENSIONAL_EXPONENTS ( 1.000000000000000000, 0.0000000000000000000, 0.0000000000000000000, 0.0000000000000000000, 0.0000000000000000000, 0.0000000000000000000, 0.0000000000000000000 ) ;
#49 = DIRECTION ( 'NONE',  ( -0.0000000000000000000, -0.0000000000000000000, -1.000000000000000000 ) ) ;
#50 = DIRECTION ( 'NONE',  ( 1.000000000000000000, 0.0000000000000000000, 0.0000000000000000000 ) ) ;
#51 = CIRCLE ( 'NONE', #144, 0.1476339832375812844 ) ;
#52 = CARTESIAN_POINT ( 'NONE',  ( -0.02952398323758126386, 0.0000000000000000000, 0.0000000000000000000 ) ) ;
#53 = ORIENTED_EDGE ( 'NONE', *, *, #69, .F. ) ;
#54 = CARTESIAN_POINT ( 'NONE',  ( -0.1424804999999990940, 0.0000000000000000000, 2.480315000000000047 ) ) ;
#55 = ADVANCED_FACE ( 'NONE', ( #179 ), #280, .T. ) ;
#56 = CARTESIAN_POINT ( 'NONE',  ( -0.1476339832375812566, 0.0000000000000000000, 0.1232279987917527242 ) ) ;
#57 = VECTOR ( 'NONE', #154, 39.37007874015748854 ) ;
#58 = VECTOR ( 'NONE', #114, 39.37007874015748143 ) ;
#59 = DIRECTION ( 'NONE',  ( 1.000000000000000000, 0.0000000000000000000, 0.0000000000000000000 ) ) ;
#60 = CARTESIAN_POINT ( 'NONE',  ( 2.344940471087639544E-17, 0.0000000000000000000, 0.1232279987917526964 ) ) ;
#61 = FILL_AREA_STYLE_COLOUR ( '', #225 ) ;
#62 = CARTESIAN_POINT ( 'NONE',  ( 9.156377255593474480E-18, 0.0000000000000000000, 0.005117998791752697597 ) ) ;
#63 = CARTESIAN_POINT ( 'NONE',  ( 9.156377255593474480E-18, 0.0000000000000000000, 0.005117998791752697597 ) ) ;
#64 = ORIENTED_EDGE ( 'NONE', *, *, #34, .F. ) ;
#65 = DIRECTION ( 'NONE',  ( 0.0000000000000000000, 0.0000000000000000000, -1.000000000000000000 ) ) ;
#66 = VERTEX_POINT ( 'NONE', #252 ) ;
#67 = PRESENTATION_LAYER_ASSIGNMENT (  '', '', ( #267 ) ) ;
#68 = AXIS2_PLACEMENT_3D ( 'NONE', #32, #65, #312 ) ;
#69 = EDGE_CURVE ( 'NONE', #269, #167, #20, .T. ) ;
#70 = ORIENTED_EDGE ( 'NONE', *, *, #46, .F. ) ;
#71 = DIRECTION ( 'NONE',  ( -1.210145411504777164E-16, 0.0000000000000000000, -1.000000000000000000 ) ) ;
#72 = VECTOR ( 'NONE', #264, 39.37007874015748854 ) ;
#73 = AXIS2_PLACEMENT_3D ( 'NONE', #235, #188, #12 ) ;
#74 = APPLICATION_PROTOCOL_DEFINITION ( 'draft international standard', 'automotive_design', 1998, #200 ) ;
#75 = DIRECTION ( 'NONE',  ( 0.0000000000000000000, 0.0000000000000000000, 1.000000000000000000 ) ) ;
#76 = EDGE_CURVE ( 'NONE', #242, #66, #227, .T. ) ;
#77 = FACE_OUTER_BOUND ( 'NONE', #4, .T. ) ;
#78 = CIRCLE ( 'NONE', #25, 0.1181099999999999928 ) ;
#79 = DIRECTION ( 'NONE',  ( 0.0000000000000000000, 0.0000000000000000000, 1.000000000000000000 ) ) ;
#80 = FACE_OUTER_BOUND ( 'NONE', #10, .T. ) ;
#81 = EDGE_CURVE ( 'NONE', #133, #116, #198, .T. ) ;
#82 = DIRECTION ( 'NONE',  ( -0.0000000000000000000, -0.0000000000000000000, -1.000000000000000000 ) ) ;
#83 = AXIS2_PLACEMENT_3D ( 'NONE', #206, #306, #183 ) ;
#84 = AXIS2_PLACEMENT_3D ( 'NONE', #291, #49, #328 ) ;
#85 = ORIENTED_EDGE ( 'NONE', *, *, #6, .T. ) ;
#86 = CARTESIAN_POINT ( 'NONE',  ( 0.0000000000000000000, 0.0000000000000000000, 2.480315000000000047 ) ) ;
#87 = ORIENTED_EDGE ( 'NONE', *, *, #34, .T. ) ;
#88 = SURFACE_STYLE_USAGE ( .BOTH. , #118 ) ;
#89 = CARTESIAN_POINT ( 'NONE',  ( 0.0000000000000000000, 0.0000000000000000000, 2.480315000000000047 ) ) ;
#90 = ORIENTED_EDGE ( 'NONE', *, *, #302, .T. ) ;
#91 = ORIENTED_EDGE ( 'NONE', *, *, #203, .T. ) ;
#92 =( GEOMETRIC_REPRESENTATION_CONTEXT ( 3 ) GLOBAL_UNCERTAINTY_ASSIGNED_CONTEXT ( ( #149 ) ) GLOBAL_UNIT_ASSIGNED_CONTEXT ( ( #276, #301, #299 ) ) REPRESENTATION_CONTEXT ( 'NONE', 'WORKASPACE' ) );
#93 = CARTESIAN_POINT ( 'NONE',  ( 0.1424804999999990940, 1.744882882659133128E-17, 2.480315000000000047 ) ) ;
#94 = CIRCLE ( 'NONE', #190, 0.1574804999999999955 ) ;
#95 = ORIENTED_EDGE ( 'NONE', *, *, #218, .F. ) ;
#96 = ORIENTED_EDGE ( 'NONE', *, *, #164, .T. ) ;
#97 = CARTESIAN_POINT ( 'NONE',  ( -0.02952398323758126386, 0.0000000000000000000, -1.938079311732799550E-18 ) ) ;
#98 = CARTESIAN_POINT ( 'NONE',  ( 8.537024980200822558E-18, 0.0000000000000000000, 0.0000000000000000000 ) ) ;
#99 = ORIENTED_EDGE ( 'NONE', *, *, #81, .F. ) ;
#100 = MECHANICAL_DESIGN_GEOMETRIC_PRESENTATION_REPRESENTATION (  '', ( #170 ), #286 ) ;
#101 = EDGE_CURVE ( 'NONE', #191, #167, #253, .T. ) ;
#102 = DIMENSIONAL_EXPONENTS ( 1.000000000000000000, 0.0000000000000000000, 0.0000000000000000000, 0.0000000000000000000, 0.0000000000000000000, 0.0000000000000000000, 0.0000000000000000000 ) ;
#103 = ADVANCED_FACE ( 'NONE', ( #37 ), #320, .T. ) ;
#104 = DIRECTION ( 'NONE',  ( -1.000000000000000000, -1.224646799147353207E-16, 0.0000000000000000000 ) ) ;
#105 = CARTESIAN_POINT ( 'NONE',  ( -0.1424804999999990940, 0.0000000000000000000, 2.480315000000000047 ) ) ;
#106 = CARTESIAN_POINT ( 'NONE',  ( -0.1476339832375812566, 0.0000000000000000000, 0.005117998791752720149 ) ) ;
#107 = EDGE_LOOP ( 'NONE', ( #147, #290 ) ) ;
#108 = DIRECTION ( 'NONE',  ( -1.210145411504777164E-16, -0.0000000000000000000, -1.000000000000000000 ) ) ;
#109 = DIRECTION ( 'NONE',  ( 0.0000000000000000000, 0.0000000000000000000, -1.000000000000000000 ) ) ;
#110 = ORIENTED_EDGE ( 'NONE', *, *, #2, .T. ) ;
#111 = ORIENTED_EDGE ( 'NONE', *, *, #329, .T. ) ;
#112 = CARTESIAN_POINT ( 'NONE',  ( 0.02952398323758128815, 3.615645156998402320E-18, 0.005117998791752694128 ) ) ;
#113 = ORIENTED_EDGE ( 'NONE', *, *, #302, .F. ) ;
#114 = DIRECTION ( 'NONE',  ( -1.210145411504777164E-16, -0.0000000000000000000, -1.000000000000000000 ) ) ;
#115 = DIRECTION ( 'NONE',  ( -1.210145411504777164E-16, -0.0000000000000000000, -1.000000000000000000 ) ) ;
#116 = VERTEX_POINT ( 'NONE', #17 ) ;
#117 = SHAPE_DEFINITION_REPRESENTATION ( #308, #261 ) ;
#118 = SURFACE_SIDE_STYLE ('',( #318 ) ) ;
#119 = VECTOR ( 'NONE', #115, 39.37007874015748143 ) ;
#120 = CARTESIAN_POINT ( 'NONE',  ( 8.537024980200822558E-18, 0.0000000000000000000, 0.0000000000000000000 ) ) ;
#121 = PRODUCT_DEFINITION_CONTEXT ( 'detailed design', #200, 'design' ) ;
#122 = CARTESIAN_POINT ( 'NONE',  ( 0.0000000000000000000, 0.0000000000000000000, 0.0000000000000000000 ) ) ;
#123 = MANIFOLD_SOLID_BREP ( 'Cut-Revolve1', #303 ) ;
#124 =( LENGTH_UNIT ( ) NAMED_UNIT ( * ) SI_UNIT ( $, .METRE. ) );
#125 = ORIENTED_EDGE ( 'NONE', *, *, #251, .T. ) ;
#126 = LENGTH_MEASURE_WITH_UNIT ( LENGTH_MEASURE( 0.02539999999999999897 ), #293 );
#127 = CIRCLE ( 'NONE', #83, 0.1574804999999999955 ) ;
#128 = TOROIDAL_SURFACE ( 'NONE', #44, 0.1476339832375812566, 0.1181099999999999928 ) ;
#129 = DIRECTION ( 'NONE',  ( 1.000000000000000000, 0.0000000000000000000, 0.0000000000000000000 ) ) ;
#130 = ADVANCED_FACE ( 'NONE', ( #184, #30 ), #281, .T. ) ;
#131 = EDGE_LOOP ( 'NONE', ( #87, #96 ) ) ;
#132 = AXIS2_PLACEMENT_3D ( 'NONE', #156, #152, #223 ) ;
#133 = VERTEX_POINT ( 'NONE', #250 ) ;
#134 = CARTESIAN_POINT ( 'NONE',  ( -0.1574804999999999955, 0.0000000000000000000, 0.1232279987917528769 ) ) ;
#135 = DIRECTION ( 'NONE',  ( -1.000000000000000000, 0.0000000000000000000, 1.210145411504777164E-16 ) ) ;
#136 = CARTESIAN_POINT ( 'NONE',  ( 0.0000000000000000000, 0.0000000000000000000, 2.480315000000000047 ) ) ;
#137 = PRODUCT_DEFINITION_FORMATION_WITH_SPECIFIED_SOURCE ( 'ANY', '', #186, .NOT_KNOWN. ) ;
#138 = DIRECTION ( 'NONE',  ( -1.000000000000000000, 0.0000000000000000000, 1.084333486377354492E-16 ) ) ;
#139 = ADVANCED_FACE ( 'NONE', ( #77 ), #128, .F. ) ;
#140 = LINE ( 'NONE', #142, #278 ) ;
#141 = ORIENTED_EDGE ( 'NONE', *, *, #177, .T. ) ;
#142 = CARTESIAN_POINT ( 'NONE',  ( -0.1574804999999999955, 0.0000000000000000000, 2.480315000000000047 ) ) ;
#143 = ORIENTED_EDGE ( 'NONE', *, *, #325, .T. ) ;
#144 = AXIS2_PLACEMENT_3D ( 'NONE', #60, #262, #287 ) ;
#145 = FILL_AREA_STYLE ('',( #270 ) ) ;
#146 =( NAMED_UNIT ( * ) SI_UNIT ( $, .STERADIAN. ) SOLID_ANGLE_UNIT ( ) );
#147 = ORIENTED_EDGE ( 'NONE', *, *, #76, .F. ) ;
#148 = CARTESIAN_POINT ( 'NONE',  ( 2.344940471087639544E-17, 0.0000000000000000000, 0.1232279987917526964 ) ) ;
#149 = UNCERTAINTY_MEASURE_WITH_UNIT (LENGTH_MEASURE( 1.000000000000000082E-05 ), #276, 'distance_accuracy_value', 'NONE');
#150 = ORIENTED_EDGE ( 'NONE', *, *, #155, .T. ) ;
#151 = AXIS2_PLACEMENT_3D ( 'NONE', #56, #71, #224 ) ;
#152 = DIRECTION ( 'NONE',  ( -0.0000000000000000000, -0.0000000000000000000, -1.000000000000000000 ) ) ;
#153 = LINE ( 'NONE', #279, #160 ) ;
#154 = DIRECTION ( 'NONE',  ( -0.7071067811865627828, 0.0000000000000000000, -0.7071067811865321406 ) ) ;
#155 = EDGE_CURVE ( 'NONE', #187, #191, #78, .T. ) ;
#156 = CARTESIAN_POINT ( 'NONE',  ( 0.0000000000000000000, 0.0000000000000000000, 2.480315000000000047 ) ) ;
#157 = COLOUR_RGB ( '',0.7921568627450980005, 0.8196078431372548767, 0.9333333333333333481 ) ;
#158 = CARTESIAN_POINT ( 'NONE',  ( 0.0000000000000000000, 0.0000000000000000000, 0.1232279987917528630 ) ) ;
#159 = DIRECTION ( 'NONE',  ( 1.000000000000000000, 0.0000000000000000000, -0.0000000000000000000 ) ) ;
#160 = VECTOR ( 'NONE', #26, 39.37007874015748143 ) ;
#161 = FILL_AREA_STYLE ('',( #61 ) ) ;
#162 = AXIS2_PLACEMENT_3D ( 'NONE', #202, #75, #182 ) ;
#163 = ORIENTED_EDGE ( 'NONE', *, *, #177, .F. ) ;
#164 = EDGE_CURVE ( 'NONE', #236, #195, #180, .T. ) ;
#165 = DIRECTION ( 'NONE',  ( 0.0000000000000000000, 0.0000000000000000000, -1.000000000000000000 ) ) ;
#166 = CARTESIAN_POINT ( 'NONE',  ( 0.0000000000000000000, 0.0000000000000000000, 0.0000000000000000000 ) ) ;
#167 = VERTEX_POINT ( 'NONE', #311 ) ;
#168 = ADVANCED_FACE ( 'NONE', ( #80 ), #210, .T. ) ;
#169 = CARTESIAN_POINT ( 'NONE',  ( 0.02952398323758128121, 3.615645156998401549E-18, -9.083741880593384954E-18 ) ) ;
#170 = STYLED_ITEM ( 'NONE', ( #193 ), #123 ) ;
#171 = ORIENTED_EDGE ( 'NONE', *, *, #322, .T. ) ;
#172 = PLANE ( 'NONE',  #274 ) ;
#173 = SURFACE_STYLE_USAGE ( .BOTH. , #176 ) ;
#174 = CIRCLE ( 'NONE', #162, 0.1424804999999990940 ) ;
#175 = AXIS2_PLACEMENT_3D ( 'NONE', #89, #192, #38 ) ;
#176 = SURFACE_SIDE_STYLE ('',( #212 ) ) ;
#177 = EDGE_CURVE ( 'NONE', #269, #187, #295, .T. ) ;
#178 = CARTESIAN_POINT ( 'NONE',  ( 0.1574804999999999955, 1.928579902531247412E-17, 0.1232279987917528491 ) ) ;
#179 = FACE_OUTER_BOUND ( 'NONE', #275, .T. ) ;
#180 = CIRCLE ( 'NONE', #239, 0.1574804999999999955 ) ;
#181 = PRODUCT_DEFINITION ( 'UNKNOWN', '', #137, #121 ) ;
#182 = DIRECTION ( 'NONE',  ( 1.000000000000000000, 0.0000000000000000000, 0.0000000000000000000 ) ) ;
#183 = DIRECTION ( 'NONE',  ( -1.000000000000000000, 0.0000000000000000000, 1.084200898549448639E-16 ) ) ;
#184 = FACE_BOUND ( 'NONE', #24, .T. ) ;
#185 = APPLICATION_CONTEXT ( 'automotive_design' ) ;
#186 = PRODUCT ( 'Micro_CREM-080-300', 'Micro_CREM-080-300', '', ( #22 ) ) ;
#187 = VERTEX_POINT ( 'NONE', #204 ) ;
#188 = DIRECTION ( 'NONE',  ( -1.210145411504777164E-16, -0.0000000000000000000, -1.000000000000000000 ) ) ;
#189 = AXIS2_PLACEMENT_3D ( 'NONE', #228, #1, #104 ) ;
#190 = AXIS2_PLACEMENT_3D ( 'NONE', #233, #165, #59 ) ;
#191 = VERTEX_POINT ( 'NONE', #305 ) ;
#192 = DIRECTION ( 'NONE',  ( 0.0000000000000000000, 0.0000000000000000000, 1.000000000000000000 ) ) ;
#193 = PRESENTATION_STYLE_ASSIGNMENT (( #88 ) ) ;
#194 = LENGTH_MEASURE_WITH_UNIT ( LENGTH_MEASURE( 0.02539999999999999897 ), #42 );
#195 = VERTEX_POINT ( 'NONE', #134 ) ;
#196 =( CONVERSION_BASED_UNIT ( 'INCH', #126 ) LENGTH_UNIT ( ) NAMED_UNIT ( #102 ) );
#197 = AXIS2_PLACEMENT_3D ( 'NONE', #63, #234, #292 ) ;
#198 = LINE ( 'NONE', #93, #72 ) ;
#199 = ORIENTED_EDGE ( 'NONE', *, *, #315, .T. ) ;
#200 = APPLICATION_CONTEXT ( 'automotive_design' ) ;
#201 = PRESENTATION_LAYER_ASSIGNMENT (  '', '', ( #170 ) ) ;
#202 = CARTESIAN_POINT ( 'NONE',  ( 0.0000000000000000000, 0.0000000000000000000, 2.480315000000000047 ) ) ;
#203 = EDGE_CURVE ( 'NONE', #187, #242, #229, .T. ) ;
#204 = CARTESIAN_POINT ( 'NONE',  ( -0.02952398323758127080, 0.0000000000000000000, 0.005117998791752700199 ) ) ;
#205 = AXIS2_PLACEMENT_3D ( 'NONE', #98, #226, #50 ) ;
#206 = CARTESIAN_POINT ( 'NONE',  ( 0.0000000000000000000, 0.0000000000000000000, 0.1232279987917528630 ) ) ;
#207 = TOROIDAL_SURFACE ( 'NONE', #73, 0.1476339832375812566, 0.1181099999999999928 ) ;
#208 = CIRCLE ( 'NONE', #175, 0.1424804999999990940 ) ;
#209 = DIRECTION ( 'NONE',  ( 0.0000000000000000000, 0.0000000000000000000, -1.000000000000000000 ) ) ;
#210 = CYLINDRICAL_SURFACE ( 'NONE', #5, 0.02952398323758127080 ) ;
#211 = FACE_OUTER_BOUND ( 'NONE', #263, .T. ) ;
#212 = SURFACE_STYLE_FILL_AREA ( #161 ) ;
#213 = ORIENTED_EDGE ( 'NONE', *, *, #2, .F. ) ;
#214 = DIRECTION ( 'NONE',  ( 0.0000000000000000000, 0.0000000000000000000, 1.000000000000000000 ) ) ;
#215 = CIRCLE ( 'NONE', #197, 0.02952398323758128121 ) ;
#216 = CARTESIAN_POINT ( 'NONE',  ( 8.537024980200822558E-18, 0.0000000000000000000, -5.510910596163092637E-18 ) ) ;
#217 = FACE_OUTER_BOUND ( 'NONE', #107, .T. ) ;
#218 = EDGE_CURVE ( 'NONE', #116, #222, #94, .T. ) ;
#219 = DIRECTION ( 'NONE',  ( 1.000000000000000000, 0.0000000000000000000, 0.0000000000000000000 ) ) ;
#220 = EDGE_LOOP ( 'NONE', ( #99, #113, #85, #95 ) ) ;
#221 = AXIS2_PLACEMENT_3D ( 'NONE', #86, #314, #238 ) ;
#222 = VERTEX_POINT ( 'NONE', #7 ) ;
#223 = DIRECTION ( 'NONE',  ( -1.000000000000000000, 0.0000000000000000000, 0.0000000000000000000 ) ) ;
#224 = DIRECTION ( 'NONE',  ( -1.000000000000000000, 0.0000000000000000000, 1.210145411504777164E-16 ) ) ;
#225 = COLOUR_RGB ( '',0.7921568627450980005, 0.8196078431372548767, 0.9333333333333333481 ) ;
#226 = DIRECTION ( 'NONE',  ( 0.0000000000000000000, 0.0000000000000000000, 1.000000000000000000 ) ) ;
#227 = CIRCLE ( 'NONE', #28, 0.02952398323758127080 ) ;
#228 = CARTESIAN_POINT ( 'NONE',  ( 0.1476339832375812566, 1.807994850172778777E-17, 0.005117998791752683720 ) ) ;
#229 = LINE ( 'NONE', #97, #58 ) ;
#230 = ORIENTED_EDGE ( 'NONE', *, *, #315, .F. ) ;
#231 = DIRECTION ( 'NONE',  ( -1.000000000000000000, 0.0000000000000000000, 1.084200898549448639E-16 ) ) ;
#232 = ADVANCED_FACE ( 'NONE', ( #211 ), #313, .T. ) ;
#233 = CARTESIAN_POINT ( 'NONE',  ( 0.0000000000000000000, 0.0000000000000000000, 2.465314999999999923 ) ) ;
#234 = DIRECTION ( 'NONE',  ( -1.210145411504777164E-16, -0.0000000000000000000, -1.000000000000000000 ) ) ;
#235 = CARTESIAN_POINT ( 'NONE',  ( 0.0000000000000000000, 0.0000000000000000000, 0.005117998791752701934 ) ) ;
#236 = VERTEX_POINT ( 'NONE', #178 ) ;
#237 = CIRCLE ( 'NONE', #205, 0.02952398323758127080 ) ;
#238 = DIRECTION ( 'NONE',  ( -1.000000000000000000, 0.0000000000000000000, 0.0000000000000000000 ) ) ;
#239 = AXIS2_PLACEMENT_3D ( 'NONE', #158, #256, #231 ) ;
#240 = ORIENTED_EDGE ( 'NONE', *, *, #101, .T. ) ;
#241 = LENGTH_MEASURE_WITH_UNIT ( LENGTH_MEASURE( 0.02539999999999999897 ), #124 );
#242 = VERTEX_POINT ( 'NONE', #52 ) ;
#243 = ORIENTED_EDGE ( 'NONE', *, *, #322, .F. ) ;
#244 = DIRECTION ( 'NONE',  ( -1.000000000000000000, 0.0000000000000000000, 1.210145411504777164E-16 ) ) ;
#245 = ORIENTED_EDGE ( 'NONE', *, *, #76, .T. ) ;
#246 = UNCERTAINTY_MEASURE_WITH_UNIT (LENGTH_MEASURE( 1.000000000000000082E-05 ), #196, 'distance_accuracy_value', 'NONE');
#247 = DIRECTION ( 'NONE',  ( 0.0000000000000000000, 0.0000000000000000000, 1.000000000000000000 ) ) ;
#248 = MECHANICAL_DESIGN_GEOMETRIC_PRESENTATION_REPRESENTATION (  '', ( #267 ), #92 ) ;
#249 = ADVANCED_FACE ( 'NONE', ( #255 ), #172, .T. ) ;
#250 = CARTESIAN_POINT ( 'NONE',  ( 0.1424804999999990940, 1.836731392595189962E-17, 2.480315000000000047 ) ) ;
#251 = EDGE_CURVE ( 'NONE', #167, #191, #51, .T. ) ;
#252 = CARTESIAN_POINT ( 'NONE',  ( 0.02952398323758128121, 3.615645156998401549E-18, 0.0000000000000000000 ) ) ;
#253 = CIRCLE ( 'NONE', #309, 0.1476339832375812844 ) ;
#254 =( NAMED_UNIT ( * ) PLANE_ANGLE_UNIT ( ) SI_UNIT ( $, .RADIAN. ) );
#255 = FACE_OUTER_BOUND ( 'NONE', #268, .T. ) ;
#256 = DIRECTION ( 'NONE',  ( -1.210145411504777164E-16, -0.0000000000000000000, -1.000000000000000000 ) ) ;
#257 = ORIENTED_EDGE ( 'NONE', *, *, #69, .T. ) ;
#258 = AXIS2_PLACEMENT_3D ( 'NONE', #166, #79, #159 ) ;
#259 = FACE_OUTER_BOUND ( 'NONE', #39, .T. ) ;
#260 = DIRECTION ( 'NONE',  ( -1.210145411504777164E-16, -0.0000000000000000000, -1.000000000000000000 ) ) ;
#261 = ADVANCED_BREP_SHAPE_REPRESENTATION ( 'Micro_CREM-080-300', ( #123, #19 ), #300 ) ;
#262 = DIRECTION ( 'NONE',  ( -1.210145411504777164E-16, -0.0000000000000000000, -1.000000000000000000 ) ) ;
#263 = EDGE_LOOP ( 'NONE', ( #213, #33, #171, #296 ) ) ;
#264 = DIRECTION ( 'NONE',  ( 0.7071067811865627828, 8.659560562355118980E-17, -0.7071067811865321406 ) ) ;
#265 = DIRECTION ( 'NONE',  ( -1.000000000000000000, 0.0000000000000000000, 0.0000000000000000000 ) ) ;
#266 = PLANE ( 'NONE',  #258 ) ;
#267 = STYLED_ITEM ( 'NONE', ( #15 ), #261 ) ;
#268 = EDGE_LOOP ( 'NONE', ( #90, #14 ) ) ;
#269 = VERTEX_POINT ( 'NONE', #112 ) ;
#270 = FILL_AREA_STYLE_COLOUR ( '', #157 ) ;
#271 = ADVANCED_FACE ( 'NONE', ( #317 ), #316, .T. ) ;
#272 = DIRECTION ( 'NONE',  ( -1.210145411504777164E-16, -0.0000000000000000000, -1.000000000000000000 ) ) ;
#273 = UNCERTAINTY_MEASURE_WITH_UNIT (LENGTH_MEASURE( 1.000000000000000082E-05 ), #319, 'distance_accuracy_value', 'NONE');
#274 = AXIS2_PLACEMENT_3D ( 'NONE', #307, #214, #35 ) ;
#275 = EDGE_LOOP ( 'NONE', ( #199, #110, #64, #243 ) ) ;
#276 =( CONVERSION_BASED_UNIT ( 'INCH', #241 ) LENGTH_UNIT ( ) NAMED_UNIT ( #48 ) );
#277 = ADVANCED_FACE ( 'NONE', ( #217 ), #266, .F. ) ;
#278 = VECTOR ( 'NONE', #82, 39.37007874015748143 ) ;
#279 = CARTESIAN_POINT ( 'NONE',  ( 0.1574804999999999955, 1.928579902531247412E-17, 2.480315000000000047 ) ) ;
#280 = CYLINDRICAL_SURFACE ( 'NONE', #132, 0.1574804999999999955 ) ;
#281 = PLANE ( 'NONE',  #151 ) ;
#282 = AXIS2_PLACEMENT_3D ( 'NONE', #62, #260, #138 ) ;
#283 = CARTESIAN_POINT ( 'NONE',  ( 8.537024980200822558E-18, 0.0000000000000000000, -5.510910596163092637E-18 ) ) ;
#284 =( NAMED_UNIT ( * ) SI_UNIT ( $, .STERADIAN. ) SOLID_ANGLE_UNIT ( ) );
#285 = DIRECTION ( 'NONE',  ( -1.000000000000000000, 0.0000000000000000000, 1.210145411504777164E-16 ) ) ;
#286 =( GEOMETRIC_REPRESENTATION_CONTEXT ( 3 ) GLOBAL_UNCERTAINTY_ASSIGNED_CONTEXT ( ( #246 ) ) GLOBAL_UNIT_ASSIGNED_CONTEXT ( ( #196, #254, #284 ) ) REPRESENTATION_CONTEXT ( 'NONE', 'WORKASPACE' ) );
#287 = DIRECTION ( 'NONE',  ( -1.000000000000000000, 0.0000000000000000000, 1.156512178698388168E-16 ) ) ;
#288 = ORIENTED_EDGE ( 'NONE', *, *, #155, .F. ) ;
#289 = DIRECTION ( 'NONE',  ( -1.210145411504777164E-16, -0.0000000000000000000, -1.000000000000000000 ) ) ;
#290 = ORIENTED_EDGE ( 'NONE', *, *, #18, .F. ) ;
#291 = CARTESIAN_POINT ( 'NONE',  ( 0.0000000000000000000, 0.0000000000000000000, 2.480315000000000047 ) ) ;
#292 = DIRECTION ( 'NONE',  ( -1.000000000000000000, 0.0000000000000000000, 1.084333486377354492E-16 ) ) ;
#293 =( LENGTH_UNIT ( ) NAMED_UNIT ( * ) SI_UNIT ( $, .METRE. ) );
#294 =( NAMED_UNIT ( * ) PLANE_ANGLE_UNIT ( ) SI_UNIT ( $, .RADIAN. ) );
#295 = CIRCLE ( 'NONE', #282, 0.02952398323758128121 ) ;
#296 = ORIENTED_EDGE ( 'NONE', *, *, #164, .F. ) ;
#297 = ORIENTED_EDGE ( 'NONE', *, *, #203, .F. ) ;
#298 = VERTEX_POINT ( 'NONE', #105 ) ;
#299 =( NAMED_UNIT ( * ) SI_UNIT ( $, .STERADIAN. ) SOLID_ANGLE_UNIT ( ) );
#300 =( GEOMETRIC_REPRESENTATION_CONTEXT ( 3 ) GLOBAL_UNCERTAINTY_ASSIGNED_CONTEXT ( ( #273 ) ) GLOBAL_UNIT_ASSIGNED_CONTEXT ( ( #319, #294, #146 ) ) REPRESENTATION_CONTEXT ( 'NONE', 'WORKASPACE' ) );
#301 =( NAMED_UNIT ( * ) PLANE_ANGLE_UNIT ( ) SI_UNIT ( $, .RADIAN. ) );
#302 = EDGE_CURVE ( 'NONE', #298, #133, #208, .T. ) ;
#303 = CLOSED_SHELL ( 'NONE', ( #331, #168, #310, #55, #232, #249, #271, #130, #103, #139, #277 ) ) ;
#304 = AXIS2_PLACEMENT_3D ( 'NONE', #216, #324, #244 ) ;
#305 = CARTESIAN_POINT ( 'NONE',  ( -0.1476339832375812566, 0.0000000000000000000, 0.1232279987917527103 ) ) ;
#306 = DIRECTION ( 'NONE',  ( -1.210145411504777164E-16, -0.0000000000000000000, -1.000000000000000000 ) ) ;
#307 = CARTESIAN_POINT ( 'NONE',  ( 0.0000000000000000000, 0.0000000000000000000, 2.480315000000000047 ) ) ;
#308 = PRODUCT_DEFINITION_SHAPE ( 'NONE', 'NONE',  #181 ) ;
#309 = AXIS2_PLACEMENT_3D ( 'NONE', #148, #272, #40 ) ;
#310 = ADVANCED_FACE ( 'NONE', ( #259 ), #326, .T. ) ;
#311 = CARTESIAN_POINT ( 'NONE',  ( 0.1476339832375813121, 1.807994850172779085E-17, 0.1232279987917526687 ) ) ;
#312 = DIRECTION ( 'NONE',  ( 1.000000000000000000, 0.0000000000000000000, 0.0000000000000000000 ) ) ;
#313 = CYLINDRICAL_SURFACE ( 'NONE', #84, 0.1574804999999999955 ) ;
#314 = DIRECTION ( 'NONE',  ( 0.0000000000000000000, 0.0000000000000000000, -1.000000000000000000 ) ) ;
#315 = EDGE_CURVE ( 'NONE', #222, #116, #41, .T. ) ;
#316 = CONICAL_SURFACE ( 'NONE', #221, 0.1424804999999990940, 0.7853981633974699283 ) ;
#317 = FACE_OUTER_BOUND ( 'NONE', #220, .T. ) ;
#318 = SURFACE_STYLE_FILL_AREA ( #145 ) ;
#319 =( CONVERSION_BASED_UNIT ( 'INCH', #194 ) LENGTH_UNIT ( ) NAMED_UNIT ( #23 ) );
#320 = CYLINDRICAL_SURFACE ( 'NONE', #304, 0.02952398323758127080 ) ;
#321 = EDGE_LOOP ( 'NONE', ( #36, #141, #91, #245 ) ) ;
#322 = EDGE_CURVE ( 'NONE', #222, #195, #140, .T. ) ;
#323 = ORIENTED_EDGE ( 'NONE', *, *, #101, .F. ) ;
#324 = DIRECTION ( 'NONE',  ( -1.210145411504777164E-16, -0.0000000000000000000, -1.000000000000000000 ) ) ;
#325 = EDGE_CURVE ( 'NONE', #269, #66, #13, .T. ) ;
#326 = CONICAL_SURFACE ( 'NONE', #29, 0.1424804999999990940, 0.7853981633974699283 ) ;
#327 = PRODUCT_RELATED_PRODUCT_CATEGORY ( 'part', '', ( #186 ) ) ;
#328 = DIRECTION ( 'NONE',  ( -1.000000000000000000, 0.0000000000000000000, 0.0000000000000000000 ) ) ;
#329 = EDGE_CURVE ( 'NONE', #187, #269, #215, .T. ) ;
#330 = ORIENTED_EDGE ( 'NONE', *, *, #251, .F. ) ;
#331 = ADVANCED_FACE ( 'NONE', ( #3 ), #207, .F. ) ;
ENDSEC;
END-ISO-10303-21;
