ISO-10303-21;
HEADER;
FILE_DESCRIPTION (( 'STEP AP214' ),
    '1' );
FILE_NAME ('05367.STEP',
    '2023-06-22T16:04:51',
    ( '' ),
    ( '' ),
    'SwSTEP 2.0',
    'SolidWorks 2023',
    '' );
FILE_SCHEMA (( 'AUTOMOTIVE_DESIGN' ));
ENDSEC;

DATA;
#1 = ORIENTED_EDGE ( 'NONE', *, *, #31, .F. ) ;
#2 = CARTESIAN_POINT ( 'NONE',  ( 0.000000000000000000, 2.500000000000000000, 0.000000000000000000 ) ) ;
#3 =( LENGTH_UNIT ( ) NAMED_UNIT ( * ) SI_UNIT ( $, .METRE. ) );
#4 = AXIS2_PLACEMENT_3D ( 'NONE', #242, #195, #221 ) ;
#5 = PRESENTATION_LAYER_ASSIGNMENT (  '', '', ( #286 ) ) ;
#6 = FACE_OUTER_BOUND ( 'NONE', #182, .T. ) ;
#7 = ADVANCED_FACE ( 'NONE', ( #36 ), #270, .T. ) ;
#8 = LENGTH_MEASURE_WITH_UNIT ( LENGTH_MEASURE( 0.02539999999999999897 ), #118 );
#9 = DIRECTION ( 'NONE',  ( -4.898587196589413075E-17, 1.000000000000000000, -0.000000000000000000 ) ) ;
#10 = FILL_AREA_STYLE_COLOUR ( '', #11 ) ;
#11 = COLOUR_RGB ( '',1.000000000000000000, 0.000000000000000000, 0.000000000000000000 ) ;
#12 = SURFACE_STYLE_FILL_AREA ( #230 ) ;
#13 = DIRECTION ( 'NONE',  ( -0.000000000000000000, -1.000000000000000000, -0.000000000000000000 ) ) ;
#14 = CARTESIAN_POINT ( 'NONE',  ( -0.1875000000000000278, 2.500000000000000000, 0.000000000000000000 ) ) ;
#15 = DIRECTION ( 'NONE',  ( -1.000000000000000000, 0.000000000000000000, 0.000000000000000000 ) ) ;
#16 = ADVANCED_FACE ( 'NONE', ( #6 ), #94, .F. ) ;
#17 = EDGE_CURVE ( 'NONE', #132, #238, #301, .T. ) ;
#18 = STYLED_ITEM ( 'NONE', ( #105 ), #243 ) ;
#19 = DIRECTION ( 'NONE',  ( -0.000000000000000000, -1.000000000000000000, -0.000000000000000000 ) ) ;
#20 = AXIS2_PLACEMENT_3D ( 'NONE', #86, #190, #161 ) ;
#21 = EDGE_LOOP ( 'NONE', ( #82, #165, #283, #1 ) ) ;
#22 = CARTESIAN_POINT ( 'NONE',  ( -1.224646799147353207E-16, 5.000000000000000000, 0.000000000000000000 ) ) ;
#23 = ORIENTED_EDGE ( 'NONE', *, *, #122, .T. ) ;
#24 = STYLED_ITEM ( 'NONE', ( #232 ), #267 ) ;
#25 = VERTEX_POINT ( 'NONE', #14 ) ;
#26 = DIRECTION ( 'NONE',  ( -4.898587196589413075E-17, 1.000000000000000000, -0.000000000000000000 ) ) ;
#27 = COLOUR_RGB ( '',1.000000000000000000, 0.000000000000000000, 0.000000000000000000 ) ;
#28 = ORIENTED_EDGE ( 'NONE', *, *, #145, .T. ) ;
#29 = ORIENTED_EDGE ( 'NONE', *, *, #124, .T. ) ;
#30 = DIRECTION ( 'NONE',  ( -0.000000000000000000, -1.000000000000000000, -0.000000000000000000 ) ) ;
#31 = EDGE_CURVE ( 'NONE', #140, #51, #253, .T. ) ;
#32 = SURFACE_STYLE_FILL_AREA ( #168 ) ;
#33 = VECTOR ( 'NONE', #245, 39.37007874015748143 ) ;
#34 =( CONVERSION_BASED_UNIT ( 'INCH', #271 ) LENGTH_UNIT ( ) NAMED_UNIT ( #186 ) );
#35 = AXIS2_PLACEMENT_3D ( 'NONE', #22, #95, #15 ) ;
#36 = FACE_OUTER_BOUND ( 'NONE', #294, .T. ) ;
#37 =( NAMED_UNIT ( * ) PLANE_ANGLE_UNIT ( ) SI_UNIT ( $, .RADIAN. ) );
#38 = PRODUCT_DEFINITION_CONTEXT ( 'detailed design', #43, 'design' ) ;
#39 =( NAMED_UNIT ( * ) PLANE_ANGLE_UNIT ( ) SI_UNIT ( $, .RADIAN. ) );
#40 = FACE_OUTER_BOUND ( 'NONE', #304, .T. ) ;
#41 = DIRECTION ( 'NONE',  ( 0.000000000000000000, 0.000000000000000000, -1.000000000000000000 ) ) ;
#42 =( GEOMETRIC_REPRESENTATION_CONTEXT ( 3 ) GLOBAL_UNCERTAINTY_ASSIGNED_CONTEXT ( ( #148 ) ) GLOBAL_UNIT_ASSIGNED_CONTEXT ( ( #54, #224, #139 ) ) REPRESENTATION_CONTEXT ( 'NONE', 'WORKASPACE' ) );
#43 = APPLICATION_CONTEXT ( 'automotive_design' ) ;
#44 = EDGE_LOOP ( 'NONE', ( #115, #197, #28, #160 ) ) ;
#45 = CIRCLE ( 'NONE', #266, 0.1875000000000000278 ) ;
#46 = FILL_AREA_STYLE_COLOUR ( '', #184 ) ;
#47 = DIRECTION ( 'NONE',  ( -0.000000000000000000, -1.000000000000000000, -0.000000000000000000 ) ) ;
#48 = ORIENTED_EDGE ( 'NONE', *, *, #31, .T. ) ;
#49 = CARTESIAN_POINT ( 'NONE',  ( -1.224646799147353207E-16, 5.000000000000000000, 0.000000000000000000 ) ) ;
#50 =( GEOMETRIC_REPRESENTATION_CONTEXT ( 3 ) GLOBAL_UNCERTAINTY_ASSIGNED_CONTEXT ( ( #226 ) ) GLOBAL_UNIT_ASSIGNED_CONTEXT ( ( #60, #39, #229 ) ) REPRESENTATION_CONTEXT ( 'NONE', 'WORKASPACE' ) );
#51 = VERTEX_POINT ( 'NONE', #255 ) ;
#52 = ORIENTED_EDGE ( 'NONE', *, *, #17, .T. ) ;
#53 = CARTESIAN_POINT ( 'NONE',  ( 0.000000000000000000, 0.000000000000000000, 0.000000000000000000 ) ) ;
#54 =( CONVERSION_BASED_UNIT ( 'INCH', #8 ) LENGTH_UNIT ( ) NAMED_UNIT ( #177 ) );
#55 = AXIS2_PLACEMENT_3D ( 'NONE', #113, #196, #302 ) ;
#56 = SURFACE_STYLE_FILL_AREA ( #299 ) ;
#57 = DIRECTION ( 'NONE',  ( 1.000000000000000000, 4.898587196589412459E-17, 0.000000000000000000 ) ) ;
#58 = FILL_AREA_STYLE ('',( #10 ) ) ;
#59 = MECHANICAL_DESIGN_GEOMETRIC_PRESENTATION_REPRESENTATION (  '', ( #18 ), #117 ) ;
#60 =( CONVERSION_BASED_UNIT ( 'INCH', #78 ) LENGTH_UNIT ( ) NAMED_UNIT ( #282 ) );
#61 = CARTESIAN_POINT ( 'NONE',  ( 0.000000000000000000, 2.500000000000000000, -0.1875000000000000278 ) ) ;
#62 = VERTEX_POINT ( 'NONE', #61 ) ;
#63 = ADVANCED_FACE ( 'NONE', ( #252 ), #276, .F. ) ;
#64 = PRESENTATION_LAYER_ASSIGNMENT (  '', '', ( #235 ) ) ;
#65 =( GEOMETRIC_REPRESENTATION_CONTEXT ( 3 ) GLOBAL_UNCERTAINTY_ASSIGNED_CONTEXT ( ( #297 ) ) GLOBAL_UNIT_ASSIGNED_CONTEXT ( ( #34, #37, #141 ) ) REPRESENTATION_CONTEXT ( 'NONE', 'WORKASPACE' ) );
#66 =( CONVERSION_BASED_UNIT ( 'INCH', #236 ) LENGTH_UNIT ( ) NAMED_UNIT ( #234 ) );
#67 = PRODUCT_DEFINITION ( 'UNKNOWN', '', #292, #38 ) ;
#68 = PRODUCT_DEFINITION_SHAPE ( 'NONE', 'NONE',  #67 ) ;
#69 = CARTESIAN_POINT ( 'NONE',  ( 0.000000000000000000, 0.000000000000000000, 0.000000000000000000 ) ) ;
#70 =( NAMED_UNIT ( * ) PLANE_ANGLE_UNIT ( ) SI_UNIT ( $, .RADIAN. ) );
#71 = LINE ( 'NONE', #134, #166 ) ;
#72 =( NAMED_UNIT ( * ) PLANE_ANGLE_UNIT ( ) SI_UNIT ( $, .RADIAN. ) );
#73 = SURFACE_STYLE_USAGE ( .BOTH. , #285 ) ;
#74 = AXIS2_PLACEMENT_3D ( 'NONE', #104, #191, #84 ) ;
#75 = ADVANCED_FACE ( 'NONE', ( #40 ), #156, .T. ) ;
#76 = SURFACE_SIDE_STYLE ('',( #32 ) ) ;
#77 = APPLICATION_PROTOCOL_DEFINITION ( 'draft international standard', 'automotive_design', 1998, #125 ) ;
#78 = LENGTH_MEASURE_WITH_UNIT ( LENGTH_MEASURE( 0.02539999999999999897 ), #178 );
#79 = SURFACE_STYLE_FILL_AREA ( #103 ) ;
#80 = AXIS2_PLACEMENT_3D ( 'NONE', #185, #251, #279 ) ;
#81 = SURFACE_STYLE_USAGE ( .BOTH. , #172 ) ;
#82 = ORIENTED_EDGE ( 'NONE', *, *, #124, .F. ) ;
#83 = DIRECTION ( 'NONE',  ( 0.000000000000000000, 1.000000000000000000, 0.000000000000000000 ) ) ;
#84 = DIRECTION ( 'NONE',  ( 1.000000000000000000, 0.000000000000000000, 0.000000000000000000 ) ) ;
#85 = AXIS2_PLACEMENT_3D ( 'NONE', #179, #13, #239 ) ;
#86 = CARTESIAN_POINT ( 'NONE',  ( 1.516480271171051896E-32, 2.500000000000000000, 0.000000000000000000 ) ) ;
#87 = ORIENTED_EDGE ( 'NONE', *, *, #277, .F. ) ;
#88 = ORIENTED_EDGE ( 'NONE', *, *, #174, .F. ) ;
#89 = CARTESIAN_POINT ( 'NONE',  ( 2.296212748401287726E-17, 0.000000000000000000, 0.1875000000000000278 ) ) ;
#90 = EDGE_LOOP ( 'NONE', ( #52, #23 ) ) ;
#91 = PLANE ( 'NONE',  #55 ) ;
#92 = DIRECTION ( 'NONE',  ( -0.000000000000000000, -1.000000000000000000, -0.000000000000000000 ) ) ;
#93 = EDGE_LOOP ( 'NONE', ( #261, #29, #88, #222 ) ) ;
#94 = PLANE ( 'NONE',  #219 ) ;
#95 = DIRECTION ( 'NONE',  ( -4.898587196589413075E-17, 1.000000000000000000, -0.000000000000000000 ) ) ;
#96 = ADVANCED_BREP_SHAPE_REPRESENTATION ( '05367', ( #267, #264, #74 ), #50 ) ;
#97 = DIMENSIONAL_EXPONENTS ( 1.000000000000000000, 0.000000000000000000, 0.000000000000000000, 0.000000000000000000, 0.000000000000000000, 0.000000000000000000, 0.000000000000000000 ) ;
#98 = PRESENTATION_LAYER_ASSIGNMENT (  '', '', ( #210 ) ) ;
#99 = CARTESIAN_POINT ( 'NONE',  ( 0.000000000000000000, 0.000000000000000000, 0.000000000000000000 ) ) ;
#100 = FILL_AREA_STYLE_COLOUR ( '', #27 ) ;
#101 = COLOUR_RGB ( '',0.7921568627450980005, 0.8196078431372548767, 0.9333333333333333481 ) ;
#102 = DIMENSIONAL_EXPONENTS ( 1.000000000000000000, 0.000000000000000000, 0.000000000000000000, 0.000000000000000000, 0.000000000000000000, 0.000000000000000000, 0.000000000000000000 ) ;
#103 = FILL_AREA_STYLE ('',( #100 ) ) ;
#104 = CARTESIAN_POINT ( 'NONE',  ( 0.000000000000000000, 0.000000000000000000, 0.000000000000000000 ) ) ;
#105 = PRESENTATION_STYLE_ASSIGNMENT (( #123 ) ) ;
#106 = CARTESIAN_POINT ( 'NONE',  ( -1.224646799147353207E-16, 5.000000000000000000, 0.000000000000000000 ) ) ;
#107 = CARTESIAN_POINT ( 'NONE',  ( 0.000000000000000000, 2.500000000000000000, 0.000000000000000000 ) ) ;
#108 = PRODUCT_CONTEXT ( 'NONE', #125, 'mechanical' ) ;
#109 = AXIS2_PLACEMENT_3D ( 'NONE', #2, #92, #198 ) ;
#110 = CARTESIAN_POINT ( 'NONE',  ( 0.000000000000000000, 0.000000000000000000, -0.1875000000000000278 ) ) ;
#111 = LINE ( 'NONE', #305, #121 ) ;
#112 = EDGE_CURVE ( 'NONE', #308, #62, #163, .T. ) ;
#113 = CARTESIAN_POINT ( 'NONE',  ( 0.000000000000000000, 0.000000000000000000, 0.000000000000000000 ) ) ;
#114 = FACE_OUTER_BOUND ( 'NONE', #21, .T. ) ;
#115 = ORIENTED_EDGE ( 'NONE', *, *, #211, .F. ) ;
#116 = PRESENTATION_STYLE_ASSIGNMENT (( #167 ) ) ;
#117 =( GEOMETRIC_REPRESENTATION_CONTEXT ( 3 ) GLOBAL_UNCERTAINTY_ASSIGNED_CONTEXT ( ( #142 ) ) GLOBAL_UNIT_ASSIGNED_CONTEXT ( ( #260, #72, #194 ) ) REPRESENTATION_CONTEXT ( 'NONE', 'WORKASPACE' ) );
#118 =( LENGTH_UNIT ( ) NAMED_UNIT ( * ) SI_UNIT ( $, .METRE. ) );
#119 = CARTESIAN_POINT ( 'NONE',  ( 0.1875000000000000278, 2.500000000000000000, 2.296212748401288650E-17 ) ) ;
#120 = ORIENTED_EDGE ( 'NONE', *, *, #112, .F. ) ;
#121 = VECTOR ( 'NONE', #47, 39.37007874015748143 ) ;
#122 = EDGE_CURVE ( 'NONE', #238, #132, #45, .T. ) ;
#123 = SURFACE_STYLE_USAGE ( .BOTH. , #154 ) ;
#124 = EDGE_CURVE ( 'NONE', #162, #140, #269, .T. ) ;
#125 = APPLICATION_CONTEXT ( 'automotive_design' ) ;
#126 = SURFACE_STYLE_FILL_AREA ( #58 ) ;
#127 = FILL_AREA_STYLE_COLOUR ( '', #147 ) ;
#128 = FILL_AREA_STYLE ('',( #157 ) ) ;
#129 = APPLICATION_PROTOCOL_DEFINITION ( 'draft international standard', 'automotive_design', 1998, #43 ) ;
#130 = CLOSED_SHELL ( 'NONE', ( #7, #75, #303, #243 ) ) ;
#131 = CIRCLE ( 'NONE', #109, 0.1875000000000000278 ) ;
#132 = VERTEX_POINT ( 'NONE', #110 ) ;
#133 = AXIS2_PLACEMENT_3D ( 'NONE', #53, #30, #225 ) ;
#134 = CARTESIAN_POINT ( 'NONE',  ( 2.296212748401287726E-17, 0.000000000000000000, 0.1875000000000000278 ) ) ;
#135 = ORIENTED_EDGE ( 'NONE', *, *, #278, .T. ) ;
#136 = MECHANICAL_DESIGN_GEOMETRIC_PRESENTATION_REPRESENTATION (  '', ( #235 ), #42 ) ;
#137 = LENGTH_MEASURE_WITH_UNIT ( LENGTH_MEASURE( 0.02539999999999999897 ), #3 );
#138 = ORIENTED_EDGE ( 'NONE', *, *, #254, .F. ) ;
#139 =( NAMED_UNIT ( * ) SI_UNIT ( $, .STERADIAN. ) SOLID_ANGLE_UNIT ( ) );
#140 = VERTEX_POINT ( 'NONE', #284 ) ;
#141 =( NAMED_UNIT ( * ) SI_UNIT ( $, .STERADIAN. ) SOLID_ANGLE_UNIT ( ) );
#142 = UNCERTAINTY_MEASURE_WITH_UNIT (LENGTH_MEASURE( 1.000000000000000082E-05 ), #260, 'distance_accuracy_value', 'NONE');
#143 = CARTESIAN_POINT ( 'NONE',  ( 0.1874999999999999445, 5.000000000000000000, 2.296212748401288342E-17 ) ) ;
#144 = PRESENTATION_STYLE_ASSIGNMENT (( #204 ) ) ;
#145 = EDGE_CURVE ( 'NONE', #62, #132, #111, .T. ) ;
#146 = AXIS2_PLACEMENT_3D ( 'NONE', #106, #9, #149 ) ;
#147 = COLOUR_RGB ( '',1.000000000000000000, 0.000000000000000000, 0.000000000000000000 ) ;
#148 = UNCERTAINTY_MEASURE_WITH_UNIT (LENGTH_MEASURE( 1.000000000000000082E-05 ), #54, 'distance_accuracy_value', 'NONE');
#149 = DIRECTION ( 'NONE',  ( -1.000000000000000000, 0.000000000000000000, 0.000000000000000000 ) ) ;
#150 = CARTESIAN_POINT ( 'NONE',  ( 0.000000000000000000, 0.000000000000000000, 0.000000000000000000 ) ) ;
#151 = PRESENTATION_LAYER_ASSIGNMENT (  '', '', ( #240 ) ) ;
#152 = ADVANCED_FACE ( 'NONE', ( #114 ), #218, .T. ) ;
#153 = COLOUR_RGB ( '',1.000000000000000000, 0.000000000000000000, 0.000000000000000000 ) ;
#154 = SURFACE_SIDE_STYLE ('',( #12 ) ) ;
#155 =( CONVERSION_BASED_UNIT ( 'INCH', #205 ) LENGTH_UNIT ( ) NAMED_UNIT ( #256 ) );
#156 = PLANE ( 'NONE',  #203 ) ;
#157 = FILL_AREA_STYLE_COLOUR ( '', #101 ) ;
#158 = AXIS2_PLACEMENT_3D ( 'NONE', #275, #202, #57 ) ;
#159 = PRODUCT ( '05367', '05367', '', ( #108 ) ) ;
#160 = ORIENTED_EDGE ( 'NONE', *, *, #122, .F. ) ;
#161 = DIRECTION ( 'NONE',  ( -1.000000000000000000, 0.000000000000000000, 0.000000000000000000 ) ) ;
#162 = VERTEX_POINT ( 'NONE', #119 ) ;
#163 = CIRCLE ( 'NONE', #85, 0.1875000000000000278 ) ;
#164 = DIRECTION ( 'NONE',  ( -0.000000000000000000, -1.000000000000000000, -0.000000000000000000 ) ) ;
#165 = ORIENTED_EDGE ( 'NONE', *, *, #277, .T. ) ;
#166 = VECTOR ( 'NONE', #164, 39.37007874015748143 ) ;
#167 = SURFACE_STYLE_USAGE ( .BOTH. , #76 ) ;
#168 = FILL_AREA_STYLE ('',( #46 ) ) ;
#169 = AXIS2_PLACEMENT_3D ( 'NONE', #150, #274, #41 ) ;
#170 = LENGTH_MEASURE_WITH_UNIT ( LENGTH_MEASURE( 0.02539999999999999897 ), #265 );
#171 = UNCERTAINTY_MEASURE_WITH_UNIT (LENGTH_MEASURE( 1.000000000000000082E-05 ), #244, 'distance_accuracy_value', 'NONE');
#172 = SURFACE_SIDE_STYLE ('',( #56 ) ) ;
#173 = FACE_OUTER_BOUND ( 'NONE', #90, .T. ) ;
#174 = EDGE_CURVE ( 'NONE', #51, #140, #237, .T. ) ;
#175 = PRESENTATION_STYLE_ASSIGNMENT (( #81 ) ) ;
#176 = DIRECTION ( 'NONE',  ( 0.000000000000000000, -0.000000000000000000, 1.000000000000000000 ) ) ;
#177 = DIMENSIONAL_EXPONENTS ( 1.000000000000000000, 0.000000000000000000, 0.000000000000000000, 0.000000000000000000, 0.000000000000000000, 0.000000000000000000, 0.000000000000000000 ) ;
#178 =( LENGTH_UNIT ( ) NAMED_UNIT ( * ) SI_UNIT ( $, .METRE. ) );
#179 = CARTESIAN_POINT ( 'NONE',  ( 0.000000000000000000, 2.500000000000000000, 0.000000000000000000 ) ) ;
#180 = MECHANICAL_DESIGN_GEOMETRIC_PRESENTATION_REPRESENTATION (  '', ( #286 ), #65 ) ;
#181 =( NAMED_UNIT ( * ) PLANE_ANGLE_UNIT ( ) SI_UNIT ( $, .RADIAN. ) );
#182 = EDGE_LOOP ( 'NONE', ( #138, #87 ) ) ;
#183 = SURFACE_STYLE_USAGE ( .BOTH. , #213 ) ;
#184 = COLOUR_RGB ( '',0.7921568627450980005, 0.8196078431372548767, 0.9333333333333333481 ) ;
#185 = CARTESIAN_POINT ( 'NONE',  ( -1.224646799147353207E-16, 5.000000000000000000, 0.000000000000000000 ) ) ;
#186 = DIMENSIONAL_EXPONENTS ( 1.000000000000000000, 0.000000000000000000, 0.000000000000000000, 0.000000000000000000, 0.000000000000000000, 0.000000000000000000, 0.000000000000000000 ) ;
#187 = SHAPE_DEFINITION_REPRESENTATION ( #68, #96 ) ;
#188 = AXIS2_PLACEMENT_3D ( 'NONE', #99, #19, #192 ) ;
#189 = EDGE_CURVE ( 'NONE', #25, #51, #212, .T. ) ;
#190 = DIRECTION ( 'NONE',  ( -4.898587196589413075E-17, 1.000000000000000000, -0.000000000000000000 ) ) ;
#191 = DIRECTION ( 'NONE',  ( 0.000000000000000000, 0.000000000000000000, 1.000000000000000000 ) ) ;
#192 = DIRECTION ( 'NONE',  ( 0.000000000000000000, 0.000000000000000000, -1.000000000000000000 ) ) ;
#193 = ORIENTED_EDGE ( 'NONE', *, *, #211, .T. ) ;
#194 =( NAMED_UNIT ( * ) SI_UNIT ( $, .STERADIAN. ) SOLID_ANGLE_UNIT ( ) );
#195 = DIRECTION ( 'NONE',  ( -4.898587196589413075E-17, 1.000000000000000000, -0.000000000000000000 ) ) ;
#196 = DIRECTION ( 'NONE',  ( 0.000000000000000000, -1.000000000000000000, -0.000000000000000000 ) ) ;
#197 = ORIENTED_EDGE ( 'NONE', *, *, #112, .T. ) ;
#198 = DIRECTION ( 'NONE',  ( 0.000000000000000000, 0.000000000000000000, -1.000000000000000000 ) ) ;
#199 = PRESENTATION_LAYER_ASSIGNMENT (  '', '', ( #18 ) ) ;
#200 = DIRECTION ( 'NONE',  ( -4.898587196589412459E-17, 1.000000000000000000, 0.000000000000000000 ) ) ;
#201 =( NAMED_UNIT ( * ) SI_UNIT ( $, .STERADIAN. ) SOLID_ANGLE_UNIT ( ) );
#202 = DIRECTION ( 'NONE',  ( 4.898587196589412459E-17, -1.000000000000000000, 0.000000000000000000 ) ) ;
#203 = AXIS2_PLACEMENT_3D ( 'NONE', #107, #83, #176 ) ;
#204 = SURFACE_STYLE_USAGE ( .BOTH. , #209 ) ;
#205 = LENGTH_MEASURE_WITH_UNIT ( LENGTH_MEASURE( 0.02539999999999999897 ), #207 );
#206 = PRESENTATION_LAYER_ASSIGNMENT (  '', '', ( #24 ) ) ;
#207 =( LENGTH_UNIT ( ) NAMED_UNIT ( * ) SI_UNIT ( $, .METRE. ) );
#208 = SURFACE_STYLE_FILL_AREA ( #128 ) ;
#209 = SURFACE_SIDE_STYLE ('',( #79 ) ) ;
#210 = STYLED_ITEM ( 'NONE', ( #300 ), #7 ) ;
#211 = EDGE_CURVE ( 'NONE', #308, #238, #71, .T. ) ;
#212 = LINE ( 'NONE', #248, #272 ) ;
#213 = SURFACE_SIDE_STYLE ('',( #208 ) ) ;
#214 =( GEOMETRIC_REPRESENTATION_CONTEXT ( 3 ) GLOBAL_UNCERTAINTY_ASSIGNED_CONTEXT ( ( #268 ) ) GLOBAL_UNIT_ASSIGNED_CONTEXT ( ( #66, #70, #290 ) ) REPRESENTATION_CONTEXT ( 'NONE', 'WORKASPACE' ) );
#215 = ORIENTED_EDGE ( 'NONE', *, *, #17, .F. ) ;
#216 = CYLINDRICAL_SURFACE ( 'NONE', #35, 0.1875000000000000833 ) ;
#217 = DIRECTION ( 'NONE',  ( -0.000000000000000000, -1.000000000000000000, -0.000000000000000000 ) ) ;
#218 = CYLINDRICAL_SURFACE ( 'NONE', #233, 0.1875000000000000833 ) ;
#219 = AXIS2_PLACEMENT_3D ( 'NONE', #295, #200, #228 ) ;
#220 = ORIENTED_EDGE ( 'NONE', *, *, #278, .F. ) ;
#221 = DIRECTION ( 'NONE',  ( -1.000000000000000000, 0.000000000000000000, 0.000000000000000000 ) ) ;
#222 = ORIENTED_EDGE ( 'NONE', *, *, #189, .F. ) ;
#223 = CIRCLE ( 'NONE', #4, 0.1875000000000000278 ) ;
#224 =( NAMED_UNIT ( * ) PLANE_ANGLE_UNIT ( ) SI_UNIT ( $, .RADIAN. ) );
#225 = DIRECTION ( 'NONE',  ( 0.000000000000000000, 0.000000000000000000, -1.000000000000000000 ) ) ;
#226 = UNCERTAINTY_MEASURE_WITH_UNIT (LENGTH_MEASURE( 1.000000000000000082E-05 ), #60, 'distance_accuracy_value', 'NONE');
#227 =( NAMED_UNIT ( * ) SI_UNIT ( $, .STERADIAN. ) SOLID_ANGLE_UNIT ( ) );
#228 = DIRECTION ( 'NONE',  ( -1.000000000000000000, -4.898587196589412459E-17, 0.000000000000000000 ) ) ;
#229 =( NAMED_UNIT ( * ) SI_UNIT ( $, .STERADIAN. ) SOLID_ANGLE_UNIT ( ) );
#230 = FILL_AREA_STYLE ('',( #296 ) ) ;
#231 = CYLINDRICAL_SURFACE ( 'NONE', #169, 0.1875000000000000278 ) ;
#232 = PRESENTATION_STYLE_ASSIGNMENT (( #183 ) ) ;
#233 = AXIS2_PLACEMENT_3D ( 'NONE', #49, #26, #287 ) ;
#234 = DIMENSIONAL_EXPONENTS ( 1.000000000000000000, 0.000000000000000000, 0.000000000000000000, 0.000000000000000000, 0.000000000000000000, 0.000000000000000000, 0.000000000000000000 ) ;
#235 = STYLED_ITEM ( 'NONE', ( #116 ), #264 ) ;
#236 = LENGTH_MEASURE_WITH_UNIT ( LENGTH_MEASURE( 0.02539999999999999897 ), #263 );
#237 = CIRCLE ( 'NONE', #146, 0.1875000000000001388 ) ;
#238 = VERTEX_POINT ( 'NONE', #89 ) ;
#239 = DIRECTION ( 'NONE',  ( 0.000000000000000000, 0.000000000000000000, -1.000000000000000000 ) ) ;
#240 = STYLED_ITEM ( 'NONE', ( #175 ), #303 ) ;
#241 = ORIENTED_EDGE ( 'NONE', *, *, #145, .F. ) ;
#242 = CARTESIAN_POINT ( 'NONE',  ( 1.516480271171051896E-32, 2.500000000000000000, 0.000000000000000000 ) ) ;
#243 = ADVANCED_FACE ( 'NONE', ( #173 ), #91, .T. ) ;
#244 =( CONVERSION_BASED_UNIT ( 'INCH', #170 ) LENGTH_UNIT ( ) NAMED_UNIT ( #102 ) );
#245 = DIRECTION ( 'NONE',  ( -4.898587196589412459E-17, 1.000000000000000000, -0.000000000000000000 ) ) ;
#246 = UNCERTAINTY_MEASURE_WITH_UNIT (LENGTH_MEASURE( 1.000000000000000082E-05 ), #155, 'distance_accuracy_value', 'NONE');
#247 =( NAMED_UNIT ( * ) PLANE_ANGLE_UNIT ( ) SI_UNIT ( $, .RADIAN. ) );
#248 = CARTESIAN_POINT ( 'NONE',  ( -0.1875000000000002220, 5.000000000000000000, 0.000000000000000000 ) ) ;
#249 =( LENGTH_UNIT ( ) NAMED_UNIT ( * ) SI_UNIT ( $, .METRE. ) );
#250 = MECHANICAL_DESIGN_GEOMETRIC_PRESENTATION_REPRESENTATION (  '', ( #24 ), #259 ) ;
#251 = DIRECTION ( 'NONE',  ( -4.898587196589413075E-17, 1.000000000000000000, -0.000000000000000000 ) ) ;
#252 = FACE_OUTER_BOUND ( 'NONE', #288, .T. ) ;
#253 = CIRCLE ( 'NONE', #80, 0.1875000000000001388 ) ;
#254 = EDGE_CURVE ( 'NONE', #25, #162, #257, .T. ) ;
#255 = CARTESIAN_POINT ( 'NONE',  ( -0.1875000000000002776, 5.000000000000000000, 0.000000000000000000 ) ) ;
#256 = DIMENSIONAL_EXPONENTS ( 1.000000000000000000, 0.000000000000000000, 0.000000000000000000, 0.000000000000000000, 0.000000000000000000, 0.000000000000000000, 0.000000000000000000 ) ;
#257 = CIRCLE ( 'NONE', #20, 0.1875000000000000278 ) ;
#258 = DIRECTION ( 'NONE',  ( 0.000000000000000000, 0.000000000000000000, -1.000000000000000000 ) ) ;
#259 =( GEOMETRIC_REPRESENTATION_CONTEXT ( 3 ) GLOBAL_UNCERTAINTY_ASSIGNED_CONTEXT ( ( #171 ) ) GLOBAL_UNIT_ASSIGNED_CONTEXT ( ( #244, #247, #227 ) ) REPRESENTATION_CONTEXT ( 'NONE', 'WORKASPACE' ) );
#260 =( CONVERSION_BASED_UNIT ( 'INCH', #137 ) LENGTH_UNIT ( ) NAMED_UNIT ( #97 ) );
#261 = ORIENTED_EDGE ( 'NONE', *, *, #254, .T. ) ;
#262 = ADVANCED_FACE ( 'NONE', ( #307 ), #216, .T. ) ;
#263 =( LENGTH_UNIT ( ) NAMED_UNIT ( * ) SI_UNIT ( $, .METRE. ) );
#264 = MANIFOLD_SOLID_BREP ( 'Revolve - Tool Body (Straight Shanked)', #280 ) ;
#265 =( LENGTH_UNIT ( ) NAMED_UNIT ( * ) SI_UNIT ( $, .METRE. ) );
#266 = AXIS2_PLACEMENT_3D ( 'NONE', #69, #217, #258 ) ;
#267 = MANIFOLD_SOLID_BREP ( 'Revolve - Cutting Edge', #130 ) ;
#268 = UNCERTAINTY_MEASURE_WITH_UNIT (LENGTH_MEASURE( 1.000000000000000082E-05 ), #66, 'distance_accuracy_value', 'NONE');
#269 = LINE ( 'NONE', #143, #33 ) ;
#270 = CYLINDRICAL_SURFACE ( 'NONE', #133, 0.1875000000000000278 ) ;
#271 = LENGTH_MEASURE_WITH_UNIT ( LENGTH_MEASURE( 0.02539999999999999897 ), #249 );
#272 = VECTOR ( 'NONE', #273, 39.37007874015748143 ) ;
#273 = DIRECTION ( 'NONE',  ( -4.898587196589412459E-17, 1.000000000000000000, -0.000000000000000000 ) ) ;
#274 = DIRECTION ( 'NONE',  ( -0.000000000000000000, -1.000000000000000000, -0.000000000000000000 ) ) ;
#275 = CARTESIAN_POINT ( 'NONE',  ( 0.1875000000000000278, 5.000000000000000000, 0.000000000000000000 ) ) ;
#276 = PLANE ( 'NONE',  #158 ) ;
#277 = EDGE_CURVE ( 'NONE', #162, #25, #223, .T. ) ;
#278 = EDGE_CURVE ( 'NONE', #62, #308, #131, .T. ) ;
#279 = DIRECTION ( 'NONE',  ( -1.000000000000000000, 0.000000000000000000, 0.000000000000000000 ) ) ;
#280 = CLOSED_SHELL ( 'NONE', ( #262, #16, #152, #63 ) ) ;
#281 = CARTESIAN_POINT ( 'NONE',  ( 2.296212748401287726E-17, 2.500000000000000000, 0.1875000000000000278 ) ) ;
#282 = DIMENSIONAL_EXPONENTS ( 1.000000000000000000, 0.000000000000000000, 0.000000000000000000, 0.000000000000000000, 0.000000000000000000, 0.000000000000000000, 0.000000000000000000 ) ;
#283 = ORIENTED_EDGE ( 'NONE', *, *, #189, .T. ) ;
#284 = CARTESIAN_POINT ( 'NONE',  ( 0.1875000000000000278, 5.000000000000000000, 2.296212748401288650E-17 ) ) ;
#285 = SURFACE_SIDE_STYLE ('',( #126 ) ) ;
#286 = STYLED_ITEM ( 'NONE', ( #144 ), #75 ) ;
#287 = DIRECTION ( 'NONE',  ( -1.000000000000000000, 0.000000000000000000, 0.000000000000000000 ) ) ;
#288 = EDGE_LOOP ( 'NONE', ( #309, #48 ) ) ;
#289 = PRODUCT_RELATED_PRODUCT_CATEGORY ( 'part', '', ( #159 ) ) ;
#290 =( NAMED_UNIT ( * ) SI_UNIT ( $, .STERADIAN. ) SOLID_ANGLE_UNIT ( ) );
#291 = FACE_OUTER_BOUND ( 'NONE', #44, .T. ) ;
#292 = PRODUCT_DEFINITION_FORMATION_WITH_SPECIFIED_SOURCE ( 'ANY', '', #159, .NOT_KNOWN. ) ;
#293 = MECHANICAL_DESIGN_GEOMETRIC_PRESENTATION_REPRESENTATION (  '', ( #210 ), #214 ) ;
#294 = EDGE_LOOP ( 'NONE', ( #135, #193, #215, #241 ) ) ;
#295 = CARTESIAN_POINT ( 'NONE',  ( 2.249639673992786583E-34, 2.500000000000000000, 0.000000000000000000 ) ) ;
#296 = FILL_AREA_STYLE_COLOUR ( '', #153 ) ;
#297 = UNCERTAINTY_MEASURE_WITH_UNIT (LENGTH_MEASURE( 1.000000000000000082E-05 ), #34, 'distance_accuracy_value', 'NONE');
#298 =( GEOMETRIC_REPRESENTATION_CONTEXT ( 3 ) GLOBAL_UNCERTAINTY_ASSIGNED_CONTEXT ( ( #246 ) ) GLOBAL_UNIT_ASSIGNED_CONTEXT ( ( #155, #181, #201 ) ) REPRESENTATION_CONTEXT ( 'NONE', 'WORKASPACE' ) );
#299 = FILL_AREA_STYLE ('',( #127 ) ) ;
#300 = PRESENTATION_STYLE_ASSIGNMENT (( #73 ) ) ;
#301 = CIRCLE ( 'NONE', #188, 0.1875000000000000278 ) ;
#302 = DIRECTION ( 'NONE',  ( 0.000000000000000000, 0.000000000000000000, -1.000000000000000000 ) ) ;
#303 = ADVANCED_FACE ( 'NONE', ( #291 ), #231, .T. ) ;
#304 = EDGE_LOOP ( 'NONE', ( #220, #120 ) ) ;
#305 = CARTESIAN_POINT ( 'NONE',  ( 0.000000000000000000, 0.000000000000000000, -0.1875000000000000278 ) ) ;
#306 = MECHANICAL_DESIGN_GEOMETRIC_PRESENTATION_REPRESENTATION (  '', ( #240 ), #298 ) ;
#307 = FACE_OUTER_BOUND ( 'NONE', #93, .T. ) ;
#308 = VERTEX_POINT ( 'NONE', #281 ) ;
#309 = ORIENTED_EDGE ( 'NONE', *, *, #174, .T. ) ;
ENDSEC;
END-ISO-10303-21;
