ISO-10303-21;
HEADER;
FILE_DESCRIPTION (( 'STEP AP214' ),
    '1' );
FILE_NAME ('82269W.STEP',
    '2023-06-23T05:04:02',
    ( '' ),
    ( '' ),
    'SwSTEP 2.0',
    'SolidWorks 2023',
    '' );
FILE_SCHEMA (( 'AUTOMOTIVE_DESIGN' ));
ENDSEC;

DATA;
#1 =( NAMED_UNIT ( * ) SI_UNIT ( $, .STERADIAN. ) SOLID_ANGLE_UNIT ( ) );
#2 = DIRECTION ( 'NONE',  ( -0.000000000000000000, -1.000000000000000000, -0.000000000000000000 ) ) ;
#3 = FILL_AREA_STYLE_COLOUR ( '', #134 ) ;
#4 = APPLICATION_CONTEXT ( 'automotive_design' ) ;
#5 = ORIENTED_EDGE ( 'NONE', *, *, #21, .F. ) ;
#6 = STYLED_ITEM ( 'NONE', ( #109 ), #227 ) ;
#7 = DIRECTION ( 'NONE',  ( -0.000000000000000000, -1.000000000000000000, -0.000000000000000000 ) ) ;
#8 =( GEOMETRIC_REPRESENTATION_CONTEXT ( 3 ) GLOBAL_UNCERTAINTY_ASSIGNED_CONTEXT ( ( #198 ) ) GLOBAL_UNIT_ASSIGNED_CONTEXT ( ( #265, #29, #30 ) ) REPRESENTATION_CONTEXT ( 'NONE', 'WORKASPACE' ) );
#9 = DIRECTION ( 'NONE',  ( 0.000000000000000000, 0.000000000000000000, -1.000000000000000000 ) ) ;
#10 = ADVANCED_FACE ( 'NONE', ( #154 ), #199, .T. ) ;
#11 = VERTEX_POINT ( 'NONE', #170 ) ;
#12 = CARTESIAN_POINT ( 'NONE',  ( 0.1875000000000000278, 3.000000000000000444, 0.000000000000000000 ) ) ;
#13 = STYLED_ITEM ( 'NONE', ( #140 ), #52 ) ;
#14 = UNCERTAINTY_MEASURE_WITH_UNIT (LENGTH_MEASURE( 1.000000000000000082E-05 ), #184, 'distance_accuracy_value', 'NONE');
#15 = LENGTH_MEASURE_WITH_UNIT ( LENGTH_MEASURE( 0.02539999999999999897 ), #20 );
#16 = ORIENTED_EDGE ( 'NONE', *, *, #233, .F. ) ;
#17 = DIRECTION ( 'NONE',  ( -6.997981709413449187E-17, 1.000000000000000000, -0.000000000000000000 ) ) ;
#18 = CIRCLE ( 'NONE', #156, 0.1875000000000000278 ) ;
#19 = SURFACE_SIDE_STYLE ('',( #229 ) ) ;
#20 =( LENGTH_UNIT ( ) NAMED_UNIT ( * ) SI_UNIT ( $, .METRE. ) );
#21 = EDGE_CURVE ( 'NONE', #11, #185, #193, .T. ) ;
#22 = ORIENTED_EDGE ( 'NONE', *, *, #175, .F. ) ;
#23 = APPLICATION_PROTOCOL_DEFINITION ( 'draft international standard', 'automotive_design', 1998, #276 ) ;
#24 = FACE_OUTER_BOUND ( 'NONE', #100, .T. ) ;
#25 = EDGE_CURVE ( 'NONE', #284, #82, #49, .T. ) ;
#26 = DIRECTION ( 'NONE',  ( -1.000000000000000000, 0.000000000000000000, 0.000000000000000000 ) ) ;
#27 = STYLED_ITEM ( 'NONE', ( #206 ), #261 ) ;
#28 = AXIS2_PLACEMENT_3D ( 'NONE', #298, #155, #301 ) ;
#29 =( NAMED_UNIT ( * ) PLANE_ANGLE_UNIT ( ) SI_UNIT ( $, .RADIAN. ) );
#30 =( NAMED_UNIT ( * ) SI_UNIT ( $, .STERADIAN. ) SOLID_ANGLE_UNIT ( ) );
#31 = MECHANICAL_DESIGN_GEOMETRIC_PRESENTATION_REPRESENTATION (  '', ( #299 ), #285 ) ;
#32 = EDGE_CURVE ( 'NONE', #185, #58, #119, .T. ) ;
#33 = PRESENTATION_LAYER_ASSIGNMENT (  '', '', ( #13 ) ) ;
#34 = ORIENTED_EDGE ( 'NONE', *, *, #233, .T. ) ;
#35 =( GEOMETRIC_REPRESENTATION_CONTEXT ( 3 ) GLOBAL_UNCERTAINTY_ASSIGNED_CONTEXT ( ( #304 ) ) GLOBAL_UNIT_ASSIGNED_CONTEXT ( ( #240, #48, #222 ) ) REPRESENTATION_CONTEXT ( 'NONE', 'WORKASPACE' ) );
#36 = DIRECTION ( 'NONE',  ( 0.000000000000000000, -0.000000000000000000, 1.000000000000000000 ) ) ;
#37 = ORIENTED_EDGE ( 'NONE', *, *, #200, .F. ) ;
#38 = PLANE ( 'NONE',  #53 ) ;
#39 = LENGTH_MEASURE_WITH_UNIT ( LENGTH_MEASURE( 0.02539999999999999897 ), #157 );
#40 = CARTESIAN_POINT ( 'NONE',  ( 0.000000000000000000, 0.000000000000000000, 0.000000000000000000 ) ) ;
#41 = MECHANICAL_DESIGN_GEOMETRIC_PRESENTATION_REPRESENTATION (  '', ( #6 ), #64 ) ;
#42 = SURFACE_STYLE_FILL_AREA ( #56 ) ;
#43 = ORIENTED_EDGE ( 'NONE', *, *, #25, .T. ) ;
#44 = DIRECTION ( 'NONE',  ( -6.997981709413449187E-17, 1.000000000000000000, -0.000000000000000000 ) ) ;
#45 = FILL_AREA_STYLE ('',( #258 ) ) ;
#46 = CLOSED_SHELL ( 'NONE', ( #286, #111, #280, #75 ) ) ;
#47 = CARTESIAN_POINT ( 'NONE',  ( 0.000000000000000000, 0.000000000000000000, -0.1875000000000000278 ) ) ;
#48 =( NAMED_UNIT ( * ) PLANE_ANGLE_UNIT ( ) SI_UNIT ( $, .RADIAN. ) );
#49 = LINE ( 'NONE', #138, #218 ) ;
#50 = PRODUCT_DEFINITION ( 'UNKNOWN', '', #112, #130 ) ;
#51 = SURFACE_SIDE_STYLE ('',( #264 ) ) ;
#52 = MANIFOLD_SOLID_BREP ( 'Revolve - Cutting Edge', #79 ) ;
#53 = AXIS2_PLACEMENT_3D ( 'NONE', #12, #68, #232 ) ;
#54 = CIRCLE ( 'NONE', #191, 0.1875000000000000278 ) ;
#55 = EDGE_LOOP ( 'NONE', ( #148, #160, #125, #219 ) ) ;
#56 = FILL_AREA_STYLE ('',( #203 ) ) ;
#57 = FACE_OUTER_BOUND ( 'NONE', #162, .T. ) ;
#58 = VERTEX_POINT ( 'NONE', #66 ) ;
#59 = ADVANCED_FACE ( 'NONE', ( #129 ), #303, .T. ) ;
#60 = CYLINDRICAL_SURFACE ( 'NONE', #197, 0.1875000000000000278 ) ;
#61 = EDGE_LOOP ( 'NONE', ( #179, #34, #272, #254 ) ) ;
#62 = CARTESIAN_POINT ( 'NONE',  ( 0.000000000000000000, 0.000000000000000000, 0.000000000000000000 ) ) ;
#63 = CARTESIAN_POINT ( 'NONE',  ( 2.296212748401287726E-17, 0.000000000000000000, 0.1875000000000000278 ) ) ;
#64 =( GEOMETRIC_REPRESENTATION_CONTEXT ( 3 ) GLOBAL_UNCERTAINTY_ASSIGNED_CONTEXT ( ( #183 ) ) GLOBAL_UNIT_ASSIGNED_CONTEXT ( ( #235, #214, #1 ) ) REPRESENTATION_CONTEXT ( 'NONE', 'WORKASPACE' ) );
#65 = EDGE_LOOP ( 'NONE', ( #93, #297 ) ) ;
#66 = CARTESIAN_POINT ( 'NONE',  ( 0.1875000000000000278, 3.000000000000000444, 2.296212748401288650E-17 ) ) ;
#67 = DIRECTION ( 'NONE',  ( 0.000000000000000000, 0.000000000000000000, -1.000000000000000000 ) ) ;
#68 = DIRECTION ( 'NONE',  ( 6.997981709413449187E-17, -1.000000000000000000, 0.000000000000000000 ) ) ;
#69 = CIRCLE ( 'NONE', #98, 0.1875000000000000278 ) ;
#70 = FILL_AREA_STYLE ('',( #211 ) ) ;
#71 = DIMENSIONAL_EXPONENTS ( 1.000000000000000000, 0.000000000000000000, 0.000000000000000000, 0.000000000000000000, 0.000000000000000000, 0.000000000000000000, 0.000000000000000000 ) ;
#72 = LENGTH_MEASURE_WITH_UNIT ( LENGTH_MEASURE( 0.02539999999999999897 ), #118 );
#73 = MECHANICAL_DESIGN_GEOMETRIC_PRESENTATION_REPRESENTATION (  '', ( #13 ), #94 ) ;
#74 =( NAMED_UNIT ( * ) SI_UNIT ( $, .STERADIAN. ) SOLID_ANGLE_UNIT ( ) );
#75 = ADVANCED_FACE ( 'NONE', ( #57 ), #38, .F. ) ;
#76 = AXIS2_PLACEMENT_3D ( 'NONE', #40, #99, #67 ) ;
#77 = DIRECTION ( 'NONE',  ( 0.000000000000000000, 1.000000000000000000, 0.000000000000000000 ) ) ;
#78 = ORIENTED_EDGE ( 'NONE', *, *, #32, .T. ) ;
#79 = CLOSED_SHELL ( 'NONE', ( #227, #83, #59, #10 ) ) ;
#80 = DIRECTION ( 'NONE',  ( -0.000000000000000000, -1.000000000000000000, -0.000000000000000000 ) ) ;
#81 = AXIS2_PLACEMENT_3D ( 'NONE', #133, #180, #278 ) ;
#82 = VERTEX_POINT ( 'NONE', #47 ) ;
#83 = ADVANCED_FACE ( 'NONE', ( #24 ), #150, .T. ) ;
#84 = DIRECTION ( 'NONE',  ( 0.000000000000000000, 0.000000000000000000, -1.000000000000000000 ) ) ;
#85 = CIRCLE ( 'NONE', #135, 0.1875000000000000278 ) ;
#86 = PRESENTATION_STYLE_ASSIGNMENT (( #181 ) ) ;
#87 = FILL_AREA_STYLE_COLOUR ( '', #178 ) ;
#88 = ORIENTED_EDGE ( 'NONE', *, *, #175, .T. ) ;
#89 = PRODUCT_RELATED_PRODUCT_CATEGORY ( 'part', '', ( #142 ) ) ;
#90 = DIRECTION ( 'NONE',  ( -6.997981709413449187E-17, 1.000000000000000000, -0.000000000000000000 ) ) ;
#91 = DIRECTION ( 'NONE',  ( 0.000000000000000000, 0.000000000000000000, -1.000000000000000000 ) ) ;
#92 = FACE_OUTER_BOUND ( 'NONE', #61, .T. ) ;
#93 = ORIENTED_EDGE ( 'NONE', *, *, #101, .T. ) ;
#94 =( GEOMETRIC_REPRESENTATION_CONTEXT ( 3 ) GLOBAL_UNCERTAINTY_ASSIGNED_CONTEXT ( ( #106 ) ) GLOBAL_UNIT_ASSIGNED_CONTEXT ( ( #248, #274, #277 ) ) REPRESENTATION_CONTEXT ( 'NONE', 'WORKASPACE' ) );
#95 = CARTESIAN_POINT ( 'NONE',  ( -0.1875000000000002776, 3.000000000000000444, 0.000000000000000000 ) ) ;
#96 = AXIS2_PLACEMENT_3D ( 'NONE', #269, #90, #212 ) ;
#97 = EDGE_CURVE ( 'NONE', #284, #173, #18, .T. ) ;
#98 = AXIS2_PLACEMENT_3D ( 'NONE', #246, #17, #283 ) ;
#99 = DIRECTION ( 'NONE',  ( -0.000000000000000000, -1.000000000000000000, -0.000000000000000000 ) ) ;
#100 = EDGE_LOOP ( 'NONE', ( #123, #37 ) ) ;
#101 = EDGE_CURVE ( 'NONE', #82, #136, #54, .T. ) ;
#102 = CARTESIAN_POINT ( 'NONE',  ( 0.000000000000000000, 1.250000000000000000, -0.1875000000000000278 ) ) ;
#103 = APPLICATION_PROTOCOL_DEFINITION ( 'draft international standard', 'automotive_design', 1998, #4 ) ;
#104 = SURFACE_STYLE_USAGE ( .BOTH. , #19 ) ;
#105 = CIRCLE ( 'NONE', #237, 0.1875000000000001388 ) ;
#106 = UNCERTAINTY_MEASURE_WITH_UNIT (LENGTH_MEASURE( 1.000000000000000082E-05 ), #248, 'distance_accuracy_value', 'NONE');
#107 = PLANE ( 'NONE',  #81 ) ;
#108 = PRESENTATION_LAYER_ASSIGNMENT (  '', '', ( #122 ) ) ;
#109 = PRESENTATION_STYLE_ASSIGNMENT (( #151 ) ) ;
#110 = CARTESIAN_POINT ( 'NONE',  ( -1.224646799147353700E-16, 3.000000000000000444, 0.000000000000000000 ) ) ;
#111 = ADVANCED_FACE ( 'NONE', ( #137 ), #107, .F. ) ;
#112 = PRODUCT_DEFINITION_FORMATION_WITH_SPECIFIED_SOURCE ( 'ANY', '', #142, .NOT_KNOWN. ) ;
#113 = DIMENSIONAL_EXPONENTS ( 1.000000000000000000, 0.000000000000000000, 0.000000000000000000, 0.000000000000000000, 0.000000000000000000, 0.000000000000000000, 0.000000000000000000 ) ;
#114 = FACE_OUTER_BOUND ( 'NONE', #55, .T. ) ;
#115 = SURFACE_STYLE_FILL_AREA ( #207 ) ;
#116 = DIRECTION ( 'NONE',  ( -1.000000000000000000, 0.000000000000000000, 0.000000000000000000 ) ) ;
#117 = DIMENSIONAL_EXPONENTS ( 1.000000000000000000, 0.000000000000000000, 0.000000000000000000, 0.000000000000000000, 0.000000000000000000, 0.000000000000000000, 0.000000000000000000 ) ;
#118 =( LENGTH_UNIT ( ) NAMED_UNIT ( * ) SI_UNIT ( $, .METRE. ) );
#119 = CIRCLE ( 'NONE', #174, 0.1875000000000001388 ) ;
#120 = ORIENTED_EDGE ( 'NONE', *, *, #127, .F. ) ;
#121 = DIRECTION ( 'NONE',  ( -1.000000000000000000, 0.000000000000000000, 0.000000000000000000 ) ) ;
#122 = STYLED_ITEM ( 'NONE', ( #247 ), #59 ) ;
#123 = ORIENTED_EDGE ( 'NONE', *, *, #97, .F. ) ;
#124 = CARTESIAN_POINT ( 'NONE',  ( 0.000000000000000000, 1.250000000000000000, 0.000000000000000000 ) ) ;
#125 = ORIENTED_EDGE ( 'NONE', *, *, #101, .F. ) ;
#126 =( CONVERSION_BASED_UNIT ( 'INCH', #158 ) LENGTH_UNIT ( ) NAMED_UNIT ( #71 ) );
#127 = EDGE_CURVE ( 'NONE', #173, #136, #152, .T. ) ;
#128 = CARTESIAN_POINT ( 'NONE',  ( 2.296212748401287726E-17, 0.000000000000000000, 0.1875000000000000278 ) ) ;
#129 = FACE_OUTER_BOUND ( 'NONE', #177, .T. ) ;
#130 = PRODUCT_DEFINITION_CONTEXT ( 'detailed design', #4, 'design' ) ;
#131 = SURFACE_STYLE_FILL_AREA ( #45 ) ;
#132 = FILL_AREA_STYLE ('',( #161 ) ) ;
#133 = CARTESIAN_POINT ( 'NONE',  ( 4.591101375495486296E-34, 1.250000000000000000, 0.000000000000000000 ) ) ;
#134 = COLOUR_RGB ( '',1.000000000000000000, 0.000000000000000000, 0.000000000000000000 ) ;
#135 = AXIS2_PLACEMENT_3D ( 'NONE', #144, #2, #91 ) ;
#136 = VERTEX_POINT ( 'NONE', #128 ) ;
#137 = FACE_OUTER_BOUND ( 'NONE', #215, .T. ) ;
#138 = CARTESIAN_POINT ( 'NONE',  ( 0.000000000000000000, 0.000000000000000000, -0.1875000000000000278 ) ) ;
#139 = DIMENSIONAL_EXPONENTS ( 1.000000000000000000, 0.000000000000000000, 0.000000000000000000, 0.000000000000000000, 0.000000000000000000, 0.000000000000000000, 0.000000000000000000 ) ;
#140 = PRESENTATION_STYLE_ASSIGNMENT (( #190 ) ) ;
#141 = MECHANICAL_DESIGN_GEOMETRIC_PRESENTATION_REPRESENTATION (  '', ( #27 ), #35 ) ;
#142 = PRODUCT ( '82269W', '82269W', '', ( #189 ) ) ;
#143 = SHAPE_DEFINITION_REPRESENTATION ( #307, #262 ) ;
#144 = CARTESIAN_POINT ( 'NONE',  ( 0.000000000000000000, 1.250000000000000000, 0.000000000000000000 ) ) ;
#145 = VERTEX_POINT ( 'NONE', #216 ) ;
#146 = CARTESIAN_POINT ( 'NONE',  ( 0.000000000000000000, 0.000000000000000000, 0.000000000000000000 ) ) ;
#147 = DIRECTION ( 'NONE',  ( 0.000000000000000000, 0.000000000000000000, 1.000000000000000000 ) ) ;
#148 = ORIENTED_EDGE ( 'NONE', *, *, #97, .T. ) ;
#149 = PRESENTATION_LAYER_ASSIGNMENT (  '', '', ( #288 ) ) ;
#150 = PLANE ( 'NONE',  #223 ) ;
#151 = SURFACE_STYLE_USAGE ( .BOTH. , #271 ) ;
#152 = LINE ( 'NONE', #63, #273 ) ;
#153 = SURFACE_SIDE_STYLE ('',( #42 ) ) ;
#154 = FACE_OUTER_BOUND ( 'NONE', #65, .T. ) ;
#155 = DIRECTION ( 'NONE',  ( -6.997981709413449187E-17, 1.000000000000000000, -0.000000000000000000 ) ) ;
#156 = AXIS2_PLACEMENT_3D ( 'NONE', #124, #7, #192 ) ;
#157 =( LENGTH_UNIT ( ) NAMED_UNIT ( * ) SI_UNIT ( $, .METRE. ) );
#158 = LENGTH_MEASURE_WITH_UNIT ( LENGTH_MEASURE( 0.02539999999999999897 ), #302 );
#159 =( NAMED_UNIT ( * ) PLANE_ANGLE_UNIT ( ) SI_UNIT ( $, .RADIAN. ) );
#160 = ORIENTED_EDGE ( 'NONE', *, *, #127, .T. ) ;
#161 = FILL_AREA_STYLE_COLOUR ( '', #293 ) ;
#162 = EDGE_LOOP ( 'NONE', ( #78, #259 ) ) ;
#163 = CARTESIAN_POINT ( 'NONE',  ( -1.224646799147353700E-16, 3.000000000000000444, 0.000000000000000000 ) ) ;
#164 = PRESENTATION_LAYER_ASSIGNMENT (  '', '', ( #299 ) ) ;
#165 = DIMENSIONAL_EXPONENTS ( 1.000000000000000000, 0.000000000000000000, 0.000000000000000000, 0.000000000000000000, 0.000000000000000000, 0.000000000000000000, 0.000000000000000000 ) ;
#166 = PRESENTATION_LAYER_ASSIGNMENT (  '', '', ( #6 ) ) ;
#167 = CARTESIAN_POINT ( 'NONE',  ( -0.1875000000000002220, 3.000000000000000444, 0.000000000000000000 ) ) ;
#168 = LENGTH_MEASURE_WITH_UNIT ( LENGTH_MEASURE( 0.02539999999999999897 ), #266 );
#169 = COLOUR_RGB ( '',0.7921568627450980005, 0.8196078431372548767, 0.9333333333333333481 ) ;
#170 = CARTESIAN_POINT ( 'NONE',  ( -0.1875000000000000278, 1.250000000000000000, 0.000000000000000000 ) ) ;
#171 = LENGTH_MEASURE_WITH_UNIT ( LENGTH_MEASURE( 0.02539999999999999897 ), #221 );
#172 = SURFACE_STYLE_FILL_AREA ( #289 ) ;
#173 = VERTEX_POINT ( 'NONE', #292 ) ;
#174 = AXIS2_PLACEMENT_3D ( 'NONE', #110, #213, #26 ) ;
#175 = EDGE_CURVE ( 'NONE', #11, #145, #230, .T. ) ;
#176 = CYLINDRICAL_SURFACE ( 'NONE', #253, 0.1875000000000000833 ) ;
#177 = EDGE_LOOP ( 'NONE', ( #120, #275, #43, #244 ) ) ;
#178 = COLOUR_RGB ( '',1.000000000000000000, 0.000000000000000000, 0.000000000000000000 ) ;
#179 = ORIENTED_EDGE ( 'NONE', *, *, #256, .F. ) ;
#180 = DIRECTION ( 'NONE',  ( -6.997981709413449187E-17, 1.000000000000000000, 0.000000000000000000 ) ) ;
#181 = SURFACE_STYLE_USAGE ( .BOTH. , #225 ) ;
#182 = LENGTH_MEASURE_WITH_UNIT ( LENGTH_MEASURE( 0.02539999999999999897 ), #287 );
#183 = UNCERTAINTY_MEASURE_WITH_UNIT (LENGTH_MEASURE( 1.000000000000000082E-05 ), #235, 'distance_accuracy_value', 'NONE');
#184 =( CONVERSION_BASED_UNIT ( 'INCH', #15 ) LENGTH_UNIT ( ) NAMED_UNIT ( #208 ) );
#185 = VERTEX_POINT ( 'NONE', #95 ) ;
#186 = DIRECTION ( 'NONE',  ( -6.997981709413449187E-17, 1.000000000000000000, -0.000000000000000000 ) ) ;
#187 = DIMENSIONAL_EXPONENTS ( 1.000000000000000000, 0.000000000000000000, 0.000000000000000000, 0.000000000000000000, 0.000000000000000000, 0.000000000000000000, 0.000000000000000000 ) ;
#188 = AXIS2_PLACEMENT_3D ( 'NONE', #146, #217, #9 ) ;
#189 = PRODUCT_CONTEXT ( 'NONE', #276, 'mechanical' ) ;
#190 = SURFACE_STYLE_USAGE ( .BOTH. , #51 ) ;
#191 = AXIS2_PLACEMENT_3D ( 'NONE', #62, #251, #209 ) ;
#192 = DIRECTION ( 'NONE',  ( 0.000000000000000000, 0.000000000000000000, -1.000000000000000000 ) ) ;
#193 = LINE ( 'NONE', #167, #204 ) ;
#194 =( NAMED_UNIT ( * ) PLANE_ANGLE_UNIT ( ) SI_UNIT ( $, .RADIAN. ) );
#195 = MECHANICAL_DESIGN_GEOMETRIC_PRESENTATION_REPRESENTATION (  '', ( #122 ), #236 ) ;
#196 = CARTESIAN_POINT ( 'NONE',  ( 0.000000000000000000, 0.000000000000000000, 0.000000000000000000 ) ) ;
#197 = AXIS2_PLACEMENT_3D ( 'NONE', #238, #250, #202 ) ;
#198 = UNCERTAINTY_MEASURE_WITH_UNIT (LENGTH_MEASURE( 1.000000000000000082E-05 ), #265, 'distance_accuracy_value', 'NONE');
#199 = PLANE ( 'NONE',  #188 ) ;
#200 = EDGE_CURVE ( 'NONE', #173, #284, #85, .T. ) ;
#201 = FACE_OUTER_BOUND ( 'NONE', #241, .T. ) ;
#202 = DIRECTION ( 'NONE',  ( 0.000000000000000000, 0.000000000000000000, -1.000000000000000000 ) ) ;
#203 = FILL_AREA_STYLE_COLOUR ( '', #226 ) ;
#204 = VECTOR ( 'NONE', #263, 39.37007874015748143 ) ;
#205 = SURFACE_STYLE_USAGE ( .BOTH. , #228 ) ;
#206 = PRESENTATION_STYLE_ASSIGNMENT (( #104 ) ) ;
#207 = FILL_AREA_STYLE ('',( #87 ) ) ;
#208 = DIMENSIONAL_EXPONENTS ( 1.000000000000000000, 0.000000000000000000, 0.000000000000000000, 0.000000000000000000, 0.000000000000000000, 0.000000000000000000, 0.000000000000000000 ) ;
#209 = DIRECTION ( 'NONE',  ( 0.000000000000000000, 0.000000000000000000, -1.000000000000000000 ) ) ;
#210 = CIRCLE ( 'NONE', #76, 0.1875000000000000278 ) ;
#211 = FILL_AREA_STYLE_COLOUR ( '', #169 ) ;
#212 = DIRECTION ( 'NONE',  ( -1.000000000000000000, 0.000000000000000000, 0.000000000000000000 ) ) ;
#213 = DIRECTION ( 'NONE',  ( -6.997981709413449187E-17, 1.000000000000000000, -0.000000000000000000 ) ) ;
#214 =( NAMED_UNIT ( * ) PLANE_ANGLE_UNIT ( ) SI_UNIT ( $, .RADIAN. ) );
#215 = EDGE_LOOP ( 'NONE', ( #22, #16 ) ) ;
#216 = CARTESIAN_POINT ( 'NONE',  ( 0.1875000000000000278, 1.250000000000000000, 2.296212748401288650E-17 ) ) ;
#217 = DIRECTION ( 'NONE',  ( 0.000000000000000000, -1.000000000000000000, -0.000000000000000000 ) ) ;
#218 = VECTOR ( 'NONE', #234, 39.37007874015748143 ) ;
#219 = ORIENTED_EDGE ( 'NONE', *, *, #25, .F. ) ;
#220 = DIRECTION ( 'NONE',  ( -6.997981709413449187E-17, 1.000000000000000000, -0.000000000000000000 ) ) ;
#221 =( LENGTH_UNIT ( ) NAMED_UNIT ( * ) SI_UNIT ( $, .METRE. ) );
#222 =( NAMED_UNIT ( * ) SI_UNIT ( $, .STERADIAN. ) SOLID_ANGLE_UNIT ( ) );
#223 = AXIS2_PLACEMENT_3D ( 'NONE', #243, #77, #36 ) ;
#224 = ORIENTED_EDGE ( 'NONE', *, *, #256, .T. ) ;
#225 = SURFACE_SIDE_STYLE ('',( #115 ) ) ;
#226 = COLOUR_RGB ( '',1.000000000000000000, 0.000000000000000000, 0.000000000000000000 ) ;
#227 = ADVANCED_FACE ( 'NONE', ( #114 ), #60, .T. ) ;
#228 = SURFACE_SIDE_STYLE ('',( #131 ) ) ;
#229 = SURFACE_STYLE_FILL_AREA ( #132 ) ;
#230 = CIRCLE ( 'NONE', #96, 0.1875000000000000278 ) ;
#231 = ORIENTED_EDGE ( 'NONE', *, *, #32, .F. ) ;
#232 = DIRECTION ( 'NONE',  ( 1.000000000000000000, 6.997981709413449187E-17, 0.000000000000000000 ) ) ;
#233 = EDGE_CURVE ( 'NONE', #145, #11, #69, .T. ) ;
#234 = DIRECTION ( 'NONE',  ( -0.000000000000000000, -1.000000000000000000, -0.000000000000000000 ) ) ;
#235 =( CONVERSION_BASED_UNIT ( 'INCH', #72 ) LENGTH_UNIT ( ) NAMED_UNIT ( #165 ) );
#236 =( GEOMETRIC_REPRESENTATION_CONTEXT ( 3 ) GLOBAL_UNCERTAINTY_ASSIGNED_CONTEXT ( ( #308 ) ) GLOBAL_UNIT_ASSIGNED_CONTEXT ( ( #126, #296, #242 ) ) REPRESENTATION_CONTEXT ( 'NONE', 'WORKASPACE' ) );
#237 = AXIS2_PLACEMENT_3D ( 'NONE', #295, #220, #116 ) ;
#238 = CARTESIAN_POINT ( 'NONE',  ( 0.000000000000000000, 0.000000000000000000, 0.000000000000000000 ) ) ;
#239 = CARTESIAN_POINT ( 'NONE',  ( 0.000000000000000000, 0.000000000000000000, 0.000000000000000000 ) ) ;
#240 =( CONVERSION_BASED_UNIT ( 'INCH', #39 ) LENGTH_UNIT ( ) NAMED_UNIT ( #139 ) );
#241 = EDGE_LOOP ( 'NONE', ( #88, #224, #231, #5 ) ) ;
#242 =( NAMED_UNIT ( * ) SI_UNIT ( $, .STERADIAN. ) SOLID_ANGLE_UNIT ( ) );
#243 = CARTESIAN_POINT ( 'NONE',  ( 0.000000000000000000, 1.250000000000000000, 0.000000000000000000 ) ) ;
#244 = ORIENTED_EDGE ( 'NONE', *, *, #245, .F. ) ;
#245 = EDGE_CURVE ( 'NONE', #136, #82, #210, .T. ) ;
#246 = CARTESIAN_POINT ( 'NONE',  ( 0.000000000000000000, 1.250000000000000000, 0.000000000000000000 ) ) ;
#247 = PRESENTATION_STYLE_ASSIGNMENT (( #281 ) ) ;
#248 =( CONVERSION_BASED_UNIT ( 'INCH', #182 ) LENGTH_UNIT ( ) NAMED_UNIT ( #187 ) );
#249 = VECTOR ( 'NONE', #44, 39.37007874015748143 ) ;
#250 = DIRECTION ( 'NONE',  ( -0.000000000000000000, -1.000000000000000000, -0.000000000000000000 ) ) ;
#251 = DIRECTION ( 'NONE',  ( -0.000000000000000000, -1.000000000000000000, -0.000000000000000000 ) ) ;
#252 = DIRECTION ( 'NONE',  ( -0.000000000000000000, -1.000000000000000000, -0.000000000000000000 ) ) ;
#253 = AXIS2_PLACEMENT_3D ( 'NONE', #163, #186, #121 ) ;
#254 = ORIENTED_EDGE ( 'NONE', *, *, #291, .F. ) ;
#255 = LINE ( 'NONE', #306, #249 ) ;
#256 = EDGE_CURVE ( 'NONE', #145, #58, #255, .T. ) ;
#257 = UNCERTAINTY_MEASURE_WITH_UNIT (LENGTH_MEASURE( 1.000000000000000082E-05 ), #267, 'distance_accuracy_value', 'NONE');
#258 = FILL_AREA_STYLE_COLOUR ( '', #260 ) ;
#259 = ORIENTED_EDGE ( 'NONE', *, *, #291, .T. ) ;
#260 = COLOUR_RGB ( '',1.000000000000000000, 0.000000000000000000, 0.000000000000000000 ) ;
#261 = MANIFOLD_SOLID_BREP ( 'Revolve - Tool Body (Straight Shanked)', #46 ) ;
#262 = ADVANCED_BREP_SHAPE_REPRESENTATION ( '82269W', ( #52, #261, #270 ), #290 ) ;
#263 = DIRECTION ( 'NONE',  ( -6.997981709413449187E-17, 1.000000000000000000, -0.000000000000000000 ) ) ;
#264 = SURFACE_STYLE_FILL_AREA ( #70 ) ;
#265 =( CONVERSION_BASED_UNIT ( 'INCH', #168 ) LENGTH_UNIT ( ) NAMED_UNIT ( #113 ) );
#266 =( LENGTH_UNIT ( ) NAMED_UNIT ( * ) SI_UNIT ( $, .METRE. ) );
#267 =( CONVERSION_BASED_UNIT ( 'INCH', #171 ) LENGTH_UNIT ( ) NAMED_UNIT ( #117 ) );
#268 = MECHANICAL_DESIGN_GEOMETRIC_PRESENTATION_REPRESENTATION (  '', ( #288 ), #8 ) ;
#269 = CARTESIAN_POINT ( 'NONE',  ( 0.000000000000000000, 1.250000000000000000, 0.000000000000000000 ) ) ;
#270 = AXIS2_PLACEMENT_3D ( 'NONE', #239, #147, #294 ) ;
#271 = SURFACE_SIDE_STYLE ('',( #172 ) ) ;
#272 = ORIENTED_EDGE ( 'NONE', *, *, #21, .T. ) ;
#273 = VECTOR ( 'NONE', #252, 39.37007874015748143 ) ;
#274 =( NAMED_UNIT ( * ) PLANE_ANGLE_UNIT ( ) SI_UNIT ( $, .RADIAN. ) );
#275 = ORIENTED_EDGE ( 'NONE', *, *, #200, .T. ) ;
#276 = APPLICATION_CONTEXT ( 'automotive_design' ) ;
#277 =( NAMED_UNIT ( * ) SI_UNIT ( $, .STERADIAN. ) SOLID_ANGLE_UNIT ( ) );
#278 = DIRECTION ( 'NONE',  ( -1.000000000000000000, -6.997981709413449187E-17, 0.000000000000000000 ) ) ;
#279 = PRESENTATION_LAYER_ASSIGNMENT (  '', '', ( #27 ) ) ;
#280 = ADVANCED_FACE ( 'NONE', ( #92 ), #300, .T. ) ;
#281 = SURFACE_STYLE_USAGE ( .BOTH. , #153 ) ;
#282 = PRESENTATION_STYLE_ASSIGNMENT (( #205 ) ) ;
#283 = DIRECTION ( 'NONE',  ( -1.000000000000000000, 0.000000000000000000, 0.000000000000000000 ) ) ;
#284 = VERTEX_POINT ( 'NONE', #102 ) ;
#285 =( GEOMETRIC_REPRESENTATION_CONTEXT ( 3 ) GLOBAL_UNCERTAINTY_ASSIGNED_CONTEXT ( ( #14 ) ) GLOBAL_UNIT_ASSIGNED_CONTEXT ( ( #184, #159, #309 ) ) REPRESENTATION_CONTEXT ( 'NONE', 'WORKASPACE' ) );
#286 = ADVANCED_FACE ( 'NONE', ( #201 ), #176, .T. ) ;
#287 =( LENGTH_UNIT ( ) NAMED_UNIT ( * ) SI_UNIT ( $, .METRE. ) );
#288 = STYLED_ITEM ( 'NONE', ( #86 ), #83 ) ;
#289 = FILL_AREA_STYLE ('',( #3 ) ) ;
#290 =( GEOMETRIC_REPRESENTATION_CONTEXT ( 3 ) GLOBAL_UNCERTAINTY_ASSIGNED_CONTEXT ( ( #257 ) ) GLOBAL_UNIT_ASSIGNED_CONTEXT ( ( #267, #194, #74 ) ) REPRESENTATION_CONTEXT ( 'NONE', 'WORKASPACE' ) );
#291 = EDGE_CURVE ( 'NONE', #58, #185, #105, .T. ) ;
#292 = CARTESIAN_POINT ( 'NONE',  ( 2.296212748401287726E-17, 1.250000000000000000, 0.1875000000000000278 ) ) ;
#293 = COLOUR_RGB ( '',0.7921568627450980005, 0.8196078431372548767, 0.9333333333333333481 ) ;
#294 = DIRECTION ( 'NONE',  ( 1.000000000000000000, 0.000000000000000000, 0.000000000000000000 ) ) ;
#295 = CARTESIAN_POINT ( 'NONE',  ( -1.224646799147353700E-16, 3.000000000000000444, 0.000000000000000000 ) ) ;
#296 =( NAMED_UNIT ( * ) PLANE_ANGLE_UNIT ( ) SI_UNIT ( $, .RADIAN. ) );
#297 = ORIENTED_EDGE ( 'NONE', *, *, #245, .T. ) ;
#298 = CARTESIAN_POINT ( 'NONE',  ( -1.224646799147353700E-16, 3.000000000000000444, 0.000000000000000000 ) ) ;
#299 = STYLED_ITEM ( 'NONE', ( #282 ), #10 ) ;
#300 = CYLINDRICAL_SURFACE ( 'NONE', #28, 0.1875000000000000833 ) ;
#301 = DIRECTION ( 'NONE',  ( -1.000000000000000000, 0.000000000000000000, 0.000000000000000000 ) ) ;
#302 =( LENGTH_UNIT ( ) NAMED_UNIT ( * ) SI_UNIT ( $, .METRE. ) );
#303 = CYLINDRICAL_SURFACE ( 'NONE', #305, 0.1875000000000000278 ) ;
#304 = UNCERTAINTY_MEASURE_WITH_UNIT (LENGTH_MEASURE( 1.000000000000000082E-05 ), #240, 'distance_accuracy_value', 'NONE');
#305 = AXIS2_PLACEMENT_3D ( 'NONE', #196, #80, #84 ) ;
#306 = CARTESIAN_POINT ( 'NONE',  ( 0.1874999999999999445, 3.000000000000000444, 2.296212748401288342E-17 ) ) ;
#307 = PRODUCT_DEFINITION_SHAPE ( 'NONE', 'NONE',  #50 ) ;
#308 = UNCERTAINTY_MEASURE_WITH_UNIT (LENGTH_MEASURE( 1.000000000000000082E-05 ), #126, 'distance_accuracy_value', 'NONE');
#309 =( NAMED_UNIT ( * ) SI_UNIT ( $, .STERADIAN. ) SOLID_ANGLE_UNIT ( ) );
ENDSEC;
END-ISO-10303-21;
