ISO-10303-21;
HEADER;
FILE_DESCRIPTION (( 'STEP AP214' ),
    '1' );
FILE_NAME ('Micro_GEC-187-4-010X.STEP',
    '2021-09-03T17:12:02',
    ( '' ),
    ( '' ),
    'SwSTEP 2.0',
    'SolidWorks 2020',
    '' );
FILE_SCHEMA (( 'AUTOMOTIVE_DESIGN' ));
ENDSEC;

DATA;
#1 = DIRECTION ( 'NONE',  ( -1.000000000000000000, 0.0000000000000000000, 0.0000000000000000000 ) ) ;
#2 = CARTESIAN_POINT ( 'NONE',  ( 0.08365625000000000144, 0.0000000000000000000, 0.01000000000000000021 ) ) ;
#3 = CARTESIAN_POINT ( 'NONE',  ( 7.660553729477949085E-17, 0.0000000000000000000, 0.6255316826705892286 ) ) ;
#4 = FILL_AREA_STYLE ('',( #61 ) ) ;
#5 = APPLICATION_PROTOCOL_DEFINITION ( 'draft international standard', 'automotive_design', 1998, #70 ) ;
#6 = ORIENTED_EDGE ( 'NONE', *, *, #9, .F. ) ;
#7 = AXIS2_PLACEMENT_3D ( 'NONE', #33, #105, #161 ) ;
#8 = DIRECTION ( 'NONE',  ( 1.224646799147353207E-16, 0.0000000000000000000, 1.000000000000000000 ) ) ;
#9 = EDGE_CURVE ( 'NONE', #309, #282, #260, .T. ) ;
#10 = DIRECTION ( 'NONE',  ( 0.7071067811865463515, 8.659560562354916834E-17, -0.7071067811865486830 ) ) ;
#11 = ORIENTED_EDGE ( 'NONE', *, *, #288, .F. ) ;
#12 = EDGE_CURVE ( 'NONE', #330, #238, #345, .T. ) ;
#13 = VERTEX_POINT ( 'NONE', #143 ) ;
#14 = EDGE_LOOP ( 'NONE', ( #92, #303, #138, #45 ) ) ;
#15 = AXIS2_PLACEMENT_3D ( 'NONE', #78, #29, #1 ) ;
#16 = CARTESIAN_POINT ( 'NONE',  ( 0.0000000000000000000, 0.0000000000000000000, 2.000000000000000000 ) ) ;
#17 = EDGE_LOOP ( 'NONE', ( #274, #170, #329, #18 ) ) ;
#18 = ORIENTED_EDGE ( 'NONE', *, *, #310, .F. ) ;
#19 = CIRCLE ( 'NONE', #154, 0.09375000000000001388 ) ;
#20 = ADVANCED_BREP_SHAPE_REPRESENTATION ( 'Micro_GEC-187-4-010X', ( #158, #7 ), #296 ) ;
#21 = FACE_OUTER_BOUND ( 'NONE', #236, .T. ) ;
#22 = DIRECTION ( 'NONE',  ( 0.1736481776669313304, 0.0000000000000000000, 0.9848077530122077983 ) ) ;
#23 = SURFACE_SIDE_STYLE ('',( #286 ) ) ;
#24 = CIRCLE ( 'NONE', #321, 0.09365624999999999645 ) ;
#25 = AXIS2_PLACEMENT_3D ( 'NONE', #253, #151, #287 ) ;
#26 =( NAMED_UNIT ( * ) SI_UNIT ( $, .STERADIAN. ) SOLID_ANGLE_UNIT ( ) );
#27 = CARTESIAN_POINT ( 'NONE',  ( -0.09374999999999994449, 0.0000000000000000000, 0.6255316826705892286 ) ) ;
#28 = LINE ( 'NONE', #211, #114 ) ;
#29 = DIRECTION ( 'NONE',  ( 0.0000000000000000000, 0.0000000000000000000, -1.000000000000000000 ) ) ;
#30 = EDGE_CURVE ( 'NONE', #192, #216, #72, .T. ) ;
#31 = CARTESIAN_POINT ( 'NONE',  ( -0.09375000000000001388, 0.0000000000000000000, 1.984999999999999654 ) ) ;
#32 = AXIS2_PLACEMENT_3D ( 'NONE', #16, #100, #79 ) ;
#33 = CARTESIAN_POINT ( 'NONE',  ( 0.0000000000000000000, 0.0000000000000000000, 0.0000000000000000000 ) ) ;
#34 = EDGE_LOOP ( 'NONE', ( #333, #64 ) ) ;
#35 = EDGE_CURVE ( 'NONE', #282, #309, #201, .T. ) ;
#36 = FACE_OUTER_BOUND ( 'NONE', #142, .T. ) ;
#37 = CARTESIAN_POINT ( 'NONE',  ( 0.09365624999999999645, 1.146958267826442798E-17, 0.01000000000000000194 ) ) ;
#38 = ORIENTED_EDGE ( 'NONE', *, *, #288, .T. ) ;
#39 = STYLED_ITEM ( 'NONE', ( #132 ), #20 ) ;
#40 = VERTEX_POINT ( 'NONE', #169 ) ;
#41 = TOROIDAL_SURFACE ( 'NONE', #171, 0.08365625000000000144, 0.01000000000000000021 ) ;
#42 = AXIS2_PLACEMENT_3D ( 'NONE', #2, #324, #224 ) ;
#43 = MECHANICAL_DESIGN_GEOMETRIC_PRESENTATION_REPRESENTATION (  '', ( #221 ), #130 ) ;
#44 = AXIS2_PLACEMENT_3D ( 'NONE', #241, #200, #149 ) ;
#45 = ORIENTED_EDGE ( 'NONE', *, *, #12, .F. ) ;
#46 = FILL_AREA_STYLE_COLOUR ( '', #275 ) ;
#47 = ADVANCED_FACE ( 'NONE', ( #164 ), #304, .T. ) ;
#48 = DIRECTION ( 'NONE',  ( -1.000000000000000000, 0.0000000000000000000, 1.224646799147352961E-16 ) ) ;
#49 = AXIS2_PLACEMENT_3D ( 'NONE', #332, #58, #326 ) ;
#50 = PLANE ( 'NONE',  #172 ) ;
#51 = FACE_OUTER_BOUND ( 'NONE', #197, .T. ) ;
#52 = FACE_OUTER_BOUND ( 'NONE', #173, .T. ) ;
#53 = CARTESIAN_POINT ( 'NONE',  ( -0.09365624999999992706, 1.147532321013543253E-17, 0.6250000000000000000 ) ) ;
#54 = AXIS2_PLACEMENT_3D ( 'NONE', #122, #207, #159 ) ;
#55 = EDGE_CURVE ( 'NONE', #40, #57, #243, .T. ) ;
#56 = CARTESIAN_POINT ( 'NONE',  ( 0.0000000000000000000, 0.0000000000000000000, 2.000000000000000000 ) ) ;
#57 = VERTEX_POINT ( 'NONE', #37 ) ;
#58 = DIRECTION ( 'NONE',  ( 0.0000000000000000000, 0.0000000000000000000, -1.000000000000000000 ) ) ;
#59 = SHAPE_DEFINITION_REPRESENTATION ( #331, #20 ) ;
#60 = CARTESIAN_POINT ( 'NONE',  ( 7.654042494670957853E-17, 0.0000000000000000000, 0.6250000000000000000 ) ) ;
#61 = FILL_AREA_STYLE_COLOUR ( '', #90 ) ;
#62 = FACE_OUTER_BOUND ( 'NONE', #339, .T. ) ;
#63 = EDGE_LOOP ( 'NONE', ( #67, #166, #148, #163 ) ) ;
#64 = ORIENTED_EDGE ( 'NONE', *, *, #212, .T. ) ;
#65 = EDGE_CURVE ( 'NONE', #330, #40, #280, .T. ) ;
#66 = DIRECTION ( 'NONE',  ( -0.0000000000000000000, -0.0000000000000000000, -1.000000000000000000 ) ) ;
#67 = ORIENTED_EDGE ( 'NONE', *, *, #212, .F. ) ;
#68 = ORIENTED_EDGE ( 'NONE', *, *, #318, .T. ) ;
#69 = CONICAL_SURFACE ( 'NONE', #209, 0.07874999999999980627, 0.7853981633974466137 ) ;
#70 = APPLICATION_CONTEXT ( 'automotive_design' ) ;
#71 = EDGE_CURVE ( 'NONE', #279, #336, #196, .T. ) ;
#72 = CIRCLE ( 'NONE', #145, 0.09375000000000001388 ) ;
#73 = DIRECTION ( 'NONE',  ( -1.000000000000000000, 1.224646799147354933E-16, 0.0000000000000000000 ) ) ;
#74 = AXIS2_PLACEMENT_3D ( 'NONE', #83, #264, #262 ) ;
#75 = LENGTH_MEASURE_WITH_UNIT ( LENGTH_MEASURE( 0.02539999999999999897 ), #316 );
#76 = LENGTH_MEASURE_WITH_UNIT ( LENGTH_MEASURE( 0.02539999999999999897 ), #155 );
#77 =( NAMED_UNIT ( * ) PLANE_ANGLE_UNIT ( ) SI_UNIT ( $, .RADIAN. ) );
#78 = CARTESIAN_POINT ( 'NONE',  ( 0.0000000000000000000, 0.0000000000000000000, 2.000000000000000000 ) ) ;
#79 = DIRECTION ( 'NONE',  ( 1.000000000000000000, 0.0000000000000000000, 0.0000000000000000000 ) ) ;
#80 = FACE_OUTER_BOUND ( 'NONE', #14, .T. ) ;
#81 = CARTESIAN_POINT ( 'NONE',  ( 0.0000000000000000000, 0.0000000000000000000, 2.000000000000000000 ) ) ;
#82 = ADVANCED_FACE ( 'NONE', ( #297 ), #135, .T. ) ;
#83 = CARTESIAN_POINT ( 'NONE',  ( 7.654042494670957853E-17, 0.0000000000000000000, 0.6250000000000000000 ) ) ;
#84 = TOROIDAL_SURFACE ( 'NONE', #338, 0.08365625000000000144, 0.01000000000000000021 ) ;
#85 = CIRCLE ( 'NONE', #44, 0.09365624999999999645 ) ;
#86 = ORIENTED_EDGE ( 'NONE', *, *, #30, .T. ) ;
#87 = DIRECTION ( 'NONE',  ( -1.224646799147353207E-16, -0.0000000000000000000, -1.000000000000000000 ) ) ;
#88 = ORIENTED_EDGE ( 'NONE', *, *, #144, .F. ) ;
#89 = ORIENTED_EDGE ( 'NONE', *, *, #310, .T. ) ;
#90 = COLOUR_RGB ( '',0.7921568627450980005, 0.8196078431372548767, 0.9333333333333333481 ) ;
#91 = DIRECTION ( 'NONE',  ( -1.224646799147353207E-16, -0.0000000000000000000, -1.000000000000000000 ) ) ;
#92 = ORIENTED_EDGE ( 'NONE', *, *, #65, .T. ) ;
#93 = ADVANCED_FACE ( 'NONE', ( #62 ), #41, .T. ) ;
#94 = FACE_OUTER_BOUND ( 'NONE', #63, .T. ) ;
#95 = DIRECTION ( 'NONE',  ( -1.000000000000000000, 0.0000000000000000000, 0.0000000000000000000 ) ) ;
#96 = AXIS2_PLACEMENT_3D ( 'NONE', #341, #226, #48 ) ;
#97 = CARTESIAN_POINT ( 'NONE',  ( -0.08365625000000000144, 1.085725927869075119E-17, 0.0000000000000000000 ) ) ;
#98 = CARTESIAN_POINT ( 'NONE',  ( 1.224646799147353384E-18, 0.0000000000000000000, 0.01000000000000000021 ) ) ;
#99 = DIRECTION ( 'NONE',  ( -0.0000000000000000000, -0.0000000000000000000, -1.000000000000000000 ) ) ;
#100 = DIRECTION ( 'NONE',  ( 0.0000000000000000000, 0.0000000000000000000, 1.000000000000000000 ) ) ;
#101 = DIRECTION ( 'NONE',  ( 0.0000000000000000000, 0.0000000000000000000, 1.000000000000000000 ) ) ;
#102 = CARTESIAN_POINT ( 'NONE',  ( 0.07874999999999980627, 1.056257864264590573E-17, 2.000000000000000000 ) ) ;
#103 = CARTESIAN_POINT ( 'NONE',  ( 0.0000000000000000000, 0.0000000000000000000, 0.0000000000000000000 ) ) ;
#104 = DIRECTION ( 'NONE',  ( -1.000000000000000000, 0.0000000000000000000, 0.0000000000000000000 ) ) ;
#105 = DIRECTION ( 'NONE',  ( 0.0000000000000000000, 0.0000000000000000000, 1.000000000000000000 ) ) ;
#106 = CARTESIAN_POINT ( 'NONE',  ( 0.07874999999999980627, 9.644093543285380530E-18, 2.000000000000000000 ) ) ;
#107 = SURFACE_STYLE_USAGE ( .BOTH. , #111 ) ;
#108 = AXIS2_PLACEMENT_3D ( 'NONE', #81, #184, #129 ) ;
#109 = EDGE_LOOP ( 'NONE', ( #273, #198 ) ) ;
#110 = CARTESIAN_POINT ( 'NONE',  ( -0.09365624999999999645, 0.0000000000000000000, 0.01000000000000000194 ) ) ;
#111 = SURFACE_SIDE_STYLE ('',( #301 ) ) ;
#112 = ORIENTED_EDGE ( 'NONE', *, *, #261, .F. ) ;
#113 = ORIENTED_EDGE ( 'NONE', *, *, #117, .F. ) ;
#114 = VECTOR ( 'NONE', #22, 39.37007874015748143 ) ;
#115 = ORIENTED_EDGE ( 'NONE', *, *, #177, .F. ) ;
#116 = ORIENTED_EDGE ( 'NONE', *, *, #340, .T. ) ;
#117 = EDGE_CURVE ( 'NONE', #245, #309, #299, .T. ) ;
#118 = ORIENTED_EDGE ( 'NONE', *, *, #186, .F. ) ;
#119 = VECTOR ( 'NONE', #91, 39.37007874015748143 ) ;
#120 = EDGE_CURVE ( 'NONE', #309, #216, #223, .T. ) ;
#121 = DIRECTION ( 'NONE',  ( 0.0000000000000000000, 0.0000000000000000000, -1.000000000000000000 ) ) ;
#122 = CARTESIAN_POINT ( 'NONE',  ( 0.0000000000000000000, 0.0000000000000000000, 2.000000000000000000 ) ) ;
#123 = CIRCLE ( 'NONE', #160, 0.009999999999999995004 ) ;
#124 = SURFACE_STYLE_USAGE ( .BOTH. , #23 ) ;
#125 = ADVANCED_FACE ( 'NONE', ( #94 ), #84, .T. ) ;
#126 = FILL_AREA_STYLE ('',( #46 ) ) ;
#127 = DIRECTION ( 'NONE',  ( -1.224646799147353207E-16, -0.0000000000000000000, -1.000000000000000000 ) ) ;
#128 =( NAMED_UNIT ( * ) PLANE_ANGLE_UNIT ( ) SI_UNIT ( $, .RADIAN. ) );
#129 = DIRECTION ( 'NONE',  ( -1.000000000000000000, 0.0000000000000000000, 0.0000000000000000000 ) ) ;
#130 =( GEOMETRIC_REPRESENTATION_CONTEXT ( 3 ) GLOBAL_UNCERTAINTY_ASSIGNED_CONTEXT ( ( #193 ) ) GLOBAL_UNIT_ASSIGNED_CONTEXT ( ( #220, #77, #283 ) ) REPRESENTATION_CONTEXT ( 'NONE', 'WORKASPACE' ) );
#131 = DIRECTION ( 'NONE',  ( -0.7071067811865463515, 0.0000000000000000000, -0.7071067811865486830 ) ) ;
#132 = PRESENTATION_STYLE_ASSIGNMENT (( #107 ) ) ;
#133 = DIRECTION ( 'NONE',  ( -1.224646799147353207E-16, -0.0000000000000000000, -1.000000000000000000 ) ) ;
#134 = ORIENTED_EDGE ( 'NONE', *, *, #271, .T. ) ;
#135 = PLANE ( 'NONE',  #187 ) ;
#136 = AXIS2_PLACEMENT_3D ( 'NONE', #334, #66, #272 ) ;
#137 = EDGE_LOOP ( 'NONE', ( #146, #267, #86, #337 ) ) ;
#138 = ORIENTED_EDGE ( 'NONE', *, *, #248, .T. ) ;
#139 = PRODUCT_CONTEXT ( 'NONE', #167, 'mechanical' ) ;
#140 = ORIENTED_EDGE ( 'NONE', *, *, #318, .F. ) ;
#141 = DIMENSIONAL_EXPONENTS ( 1.000000000000000000, 0.0000000000000000000, 0.0000000000000000000, 0.0000000000000000000, 0.0000000000000000000, 0.0000000000000000000, 0.0000000000000000000 ) ;
#142 = EDGE_LOOP ( 'NONE', ( #240, #88, #266, #134 ) ) ;
#143 = CARTESIAN_POINT ( 'NONE',  ( -0.07874999999999980627, 0.0000000000000000000, 2.000000000000000000 ) ) ;
#144 = EDGE_CURVE ( 'NONE', #40, #330, #24, .T. ) ;
#145 = AXIS2_PLACEMENT_3D ( 'NONE', #3, #307, #217 ) ;
#146 = ORIENTED_EDGE ( 'NONE', *, *, #65, .F. ) ;
#147 = PRESENTATION_LAYER_ASSIGNMENT (  '', '', ( #39 ) ) ;
#148 = ORIENTED_EDGE ( 'NONE', *, *, #248, .F. ) ;
#149 = DIRECTION ( 'NONE',  ( 1.000000000000000000, 0.0000000000000000000, 0.0000000000000000000 ) ) ;
#150 = DIRECTION ( 'NONE',  ( 1.000000000000000000, 0.0000000000000000000, 0.0000000000000000000 ) ) ;
#151 = DIRECTION ( 'NONE',  ( 0.0000000000000000000, 0.0000000000000000000, 1.000000000000000000 ) ) ;
#152 = CIRCLE ( 'NONE', #32, 0.07874999999999980627 ) ;
#153 = DIRECTION ( 'NONE',  ( -1.000000000000000000, 0.0000000000000000000, 0.0000000000000000000 ) ) ;
#154 = AXIS2_PLACEMENT_3D ( 'NONE', #230, #127, #285 ) ;
#155 =( LENGTH_UNIT ( ) NAMED_UNIT ( * ) SI_UNIT ( $, .METRE. ) );
#156 = PRODUCT_DEFINITION_CONTEXT ( 'detailed design', #70, 'design' ) ;
#157 = CARTESIAN_POINT ( 'NONE',  ( -0.09375000000000001388, 0.0000000000000000000, 2.000000000000000000 ) ) ;
#158 = MANIFOLD_SOLID_BREP ( 'Fillet1', #311 ) ;
#159 = DIRECTION ( 'NONE',  ( -1.000000000000000000, 0.0000000000000000000, 0.0000000000000000000 ) ) ;
#160 = AXIS2_PLACEMENT_3D ( 'NONE', #181, #176, #73 ) ;
#161 = DIRECTION ( 'NONE',  ( 1.000000000000000000, 0.0000000000000000000, 0.0000000000000000000 ) ) ;
#162 =( LENGTH_UNIT ( ) NAMED_UNIT ( * ) SI_UNIT ( $, .METRE. ) );
#163 = ORIENTED_EDGE ( 'NONE', *, *, #340, .F. ) ;
#164 = FACE_OUTER_BOUND ( 'NONE', #137, .T. ) ;
#165 = AXIS2_PLACEMENT_3D ( 'NONE', #189, #8, #228 ) ;
#166 = ORIENTED_EDGE ( 'NONE', *, *, #186, .T. ) ;
#167 = APPLICATION_CONTEXT ( 'automotive_design' ) ;
#168 = PRODUCT_DEFINITION ( 'UNKNOWN', '', #175, #156 ) ;
#169 = CARTESIAN_POINT ( 'NONE',  ( 0.09365625000000006584, 0.0000000000000000000, 0.6250000000000000000 ) ) ;
#170 = ORIENTED_EDGE ( 'NONE', *, *, #120, .T. ) ;
#171 = AXIS2_PLACEMENT_3D ( 'NONE', #214, #328, #191 ) ;
#172 = AXIS2_PLACEMENT_3D ( 'NONE', #348, #292, #317 ) ;
#173 = EDGE_LOOP ( 'NONE', ( #112, #235, #218, #11 ) ) ;
#174 = VECTOR ( 'NONE', #314, 39.37007874015748143 ) ;
#175 = PRODUCT_DEFINITION_FORMATION_WITH_SPECIFIED_SOURCE ( 'ANY', '', #335, .NOT_KNOWN. ) ;
#176 = DIRECTION ( 'NONE',  ( 1.224646799147353207E-16, 1.000000000000000000, -0.0000000000000000000 ) ) ;
#177 = EDGE_CURVE ( 'NONE', #13, #245, #152, .T. ) ;
#178 = LINE ( 'NONE', #346, #327 ) ;
#179 = CARTESIAN_POINT ( 'NONE',  ( 0.09375000000000001388, 1.148106374200643863E-17, 1.984999999999999654 ) ) ;
#180 = AXIS2_PLACEMENT_3D ( 'NONE', #60, #133, #104 ) ;
#181 = CARTESIAN_POINT ( 'NONE',  ( -0.08365625000000000144, 1.024493587911707594E-17, 0.01000000000000000021 ) ) ;
#182 = CIRCLE ( 'NONE', #315, 0.08365625000000000144 ) ;
#183 = LINE ( 'NONE', #319, #188 ) ;
#184 = DIRECTION ( 'NONE',  ( -0.0000000000000000000, -0.0000000000000000000, -1.000000000000000000 ) ) ;
#185 = LINE ( 'NONE', #157, #276 ) ;
#186 = EDGE_CURVE ( 'NONE', #336, #238, #123, .T. ) ;
#187 = AXIS2_PLACEMENT_3D ( 'NONE', #56, #195, #233 ) ;
#188 = VECTOR ( 'NONE', #131, 39.37007874015748143 ) ;
#189 = CARTESIAN_POINT ( 'NONE',  ( 7.654042494670957853E-17, 0.0000000000000000000, 0.6250000000000000000 ) ) ;
#190 = EDGE_CURVE ( 'NONE', #330, #192, #178, .T. ) ;
#191 = DIRECTION ( 'NONE',  ( 1.000000000000000000, 0.0000000000000000000, 0.0000000000000000000 ) ) ;
#192 = VERTEX_POINT ( 'NONE', #27 ) ;
#193 = UNCERTAINTY_MEASURE_WITH_UNIT (LENGTH_MEASURE( 1.000000000000000082E-05 ), #220, 'distance_accuracy_value', 'NONE');
#194 = CARTESIAN_POINT ( 'NONE',  ( 0.09365624999999999645, 1.146958267826442798E-17, -1.146958267826442798E-17 ) ) ;
#195 = DIRECTION ( 'NONE',  ( 0.0000000000000000000, 0.0000000000000000000, 1.000000000000000000 ) ) ;
#196 = CIRCLE ( 'NONE', #136, 0.08365625000000000144 ) ;
#197 = EDGE_LOOP ( 'NONE', ( #263, #244, #215, #68 ) ) ;
#198 = ORIENTED_EDGE ( 'NONE', *, *, #261, .T. ) ;
#199 = ADVANCED_FACE ( 'NONE', ( #51 ), #246, .T. ) ;
#200 = DIRECTION ( 'NONE',  ( 0.0000000000000000000, 0.0000000000000000000, 1.000000000000000000 ) ) ;
#201 = CIRCLE ( 'NONE', #49, 0.09375000000000001388 ) ;
#202 = CARTESIAN_POINT ( 'NONE',  ( 7.654042494670957853E-17, 0.0000000000000000000, 0.6250000000000000000 ) ) ;
#203 = CONICAL_SURFACE ( 'NONE', #15, 0.07874999999999980627, 0.7853981633974466137 ) ;
#204 = FACE_OUTER_BOUND ( 'NONE', #34, .T. ) ;
#205 = DIRECTION ( 'NONE',  ( 1.000000000000000000, 0.0000000000000000000, 0.0000000000000000000 ) ) ;
#206 = DIRECTION ( 'NONE',  ( -1.224646799147353207E-16, -0.0000000000000000000, -1.000000000000000000 ) ) ;
#207 = DIRECTION ( 'NONE',  ( -0.0000000000000000000, -0.0000000000000000000, -1.000000000000000000 ) ) ;
#208 = FACE_OUTER_BOUND ( 'NONE', #17, .T. ) ;
#209 = AXIS2_PLACEMENT_3D ( 'NONE', #291, #121, #153 ) ;
#210 =( CONVERSION_BASED_UNIT ( 'INCH', #76 ) LENGTH_UNIT ( ) NAMED_UNIT ( #141 ) );
#211 = CARTESIAN_POINT ( 'NONE',  ( 0.09365625000000006584, 0.0000000000000000000, 0.6250000000000000000 ) ) ;
#212 = EDGE_CURVE ( 'NONE', #336, #279, #182, .T. ) ;
#213 = PRESENTATION_LAYER_ASSIGNMENT (  '', '', ( #221 ) ) ;
#214 = CARTESIAN_POINT ( 'NONE',  ( 1.224646799147353384E-18, 0.0000000000000000000, 0.01000000000000000021 ) ) ;
#215 = ORIENTED_EDGE ( 'NONE', *, *, #12, .T. ) ;
#216 = VERTEX_POINT ( 'NONE', #252 ) ;
#217 = DIRECTION ( 'NONE',  ( 1.000000000000000000, 0.0000000000000000000, 0.0000000000000000000 ) ) ;
#218 = ORIENTED_EDGE ( 'NONE', *, *, #35, .F. ) ;
#219 = ORIENTED_EDGE ( 'NONE', *, *, #120, .F. ) ;
#220 =( CONVERSION_BASED_UNIT ( 'INCH', #75 ) LENGTH_UNIT ( ) NAMED_UNIT ( #247 ) );
#221 = STYLED_ITEM ( 'NONE', ( #225 ), #158 ) ;
#222 = DIRECTION ( 'NONE',  ( 1.000000000000000000, 0.0000000000000000000, 0.0000000000000000000 ) ) ;
#223 = LINE ( 'NONE', #347, #174 ) ;
#224 = DIRECTION ( 'NONE',  ( 0.0000000000000000000, 0.0000000000000000000, -1.000000000000000000 ) ) ;
#225 = PRESENTATION_STYLE_ASSIGNMENT (( #124 ) ) ;
#226 = DIRECTION ( 'NONE',  ( -1.224646799147353207E-16, -0.0000000000000000000, -1.000000000000000000 ) ) ;
#227 = ADVANCED_FACE ( 'NONE', ( #21 ), #69, .T. ) ;
#228 = DIRECTION ( 'NONE',  ( 1.000000000000000000, 0.0000000000000000000, 0.0000000000000000000 ) ) ;
#229 = AXIS2_PLACEMENT_3D ( 'NONE', #103, #325, #293 ) ;
#230 = CARTESIAN_POINT ( 'NONE',  ( 7.660553729477949085E-17, 0.0000000000000000000, 0.6255316826705892286 ) ) ;
#231 = LENGTH_MEASURE_WITH_UNIT ( LENGTH_MEASURE( 0.02539999999999999897 ), #162 );
#232 = ADVANCED_FACE ( 'NONE', ( #36 ), #322, .T. ) ;
#233 = DIRECTION ( 'NONE',  ( 1.000000000000000000, 0.0000000000000000000, -0.0000000000000000000 ) ) ;
#234 =( NAMED_UNIT ( * ) PLANE_ANGLE_UNIT ( ) SI_UNIT ( $, .RADIAN. ) );
#235 = ORIENTED_EDGE ( 'NONE', *, *, #117, .T. ) ;
#236 = EDGE_LOOP ( 'NONE', ( #113, #115, #38, #6 ) ) ;
#237 = EDGE_LOOP ( 'NONE', ( #219, #308, #89, #298 ) ) ;
#238 = VERTEX_POINT ( 'NONE', #110 ) ;
#239 = CARTESIAN_POINT ( 'NONE',  ( -0.09365624999999999645, 0.0000000000000000000, 1.146958267826442798E-17 ) ) ;
#240 = ORIENTED_EDGE ( 'NONE', *, *, #190, .F. ) ;
#241 = CARTESIAN_POINT ( 'NONE',  ( 1.224646799147353577E-18, 0.0000000000000000000, 0.01000000000000000194 ) ) ;
#242 = ADVANCED_FACE ( 'NONE', ( #208 ), #323, .T. ) ;
#243 = LINE ( 'NONE', #194, #289 ) ;
#244 = ORIENTED_EDGE ( 'NONE', *, *, #144, .T. ) ;
#245 = VERTEX_POINT ( 'NONE', #102 ) ;
#246 = CYLINDRICAL_SURFACE ( 'NONE', #96, 0.09365624999999999645 ) ;
#247 = DIMENSIONAL_EXPONENTS ( 1.000000000000000000, 0.0000000000000000000, 0.0000000000000000000, 0.0000000000000000000, 0.0000000000000000000, 0.0000000000000000000, 0.0000000000000000000 ) ;
#248 = EDGE_CURVE ( 'NONE', #57, #238, #85, .T. ) ;
#249 = CIRCLE ( 'NONE', #25, 0.09365624999999999645 ) ;
#250 = DIRECTION ( 'NONE',  ( -0.0000000000000000000, -0.0000000000000000000, -1.000000000000000000 ) ) ;
#251 = EDGE_CURVE ( 'NONE', #40, #216, #28, .T. ) ;
#252 = CARTESIAN_POINT ( 'NONE',  ( 0.09375000000000006939, 1.148106374200644633E-17, 0.6255316826705892286 ) ) ;
#253 = CARTESIAN_POINT ( 'NONE',  ( 1.224646799147353577E-18, 0.0000000000000000000, 0.01000000000000000194 ) ) ;
#254 = DIRECTION ( 'NONE',  ( 0.0000000000000000000, 0.0000000000000000000, 1.000000000000000000 ) ) ;
#255 = CIRCLE ( 'NONE', #305, 0.07874999999999980627 ) ;
#256 = UNCERTAINTY_MEASURE_WITH_UNIT (LENGTH_MEASURE( 1.000000000000000082E-05 ), #210, 'distance_accuracy_value', 'NONE');
#257 = CARTESIAN_POINT ( 'NONE',  ( 0.08365625000000000144, 0.0000000000000000000, 0.0000000000000000000 ) ) ;
#258 = PRODUCT_RELATED_PRODUCT_CATEGORY ( 'part', '', ( #335 ) ) ;
#259 = FACE_OUTER_BOUND ( 'NONE', #237, .T. ) ;
#260 = CIRCLE ( 'NONE', #295, 0.09375000000000001388 ) ;
#261 = EDGE_CURVE ( 'NONE', #245, #13, #255, .T. ) ;
#262 = DIRECTION ( 'NONE',  ( 1.000000000000000000, 0.0000000000000000000, 0.0000000000000000000 ) ) ;
#263 = ORIENTED_EDGE ( 'NONE', *, *, #55, .F. ) ;
#264 = DIRECTION ( 'NONE',  ( 1.224646799147353207E-16, 0.0000000000000000000, 1.000000000000000000 ) ) ;
#265 =( NAMED_UNIT ( * ) SI_UNIT ( $, .STERADIAN. ) SOLID_ANGLE_UNIT ( ) );
#266 = ORIENTED_EDGE ( 'NONE', *, *, #251, .T. ) ;
#267 = ORIENTED_EDGE ( 'NONE', *, *, #190, .T. ) ;
#268 =( GEOMETRIC_REPRESENTATION_CONTEXT ( 3 ) GLOBAL_UNCERTAINTY_ASSIGNED_CONTEXT ( ( #269 ) ) GLOBAL_UNIT_ASSIGNED_CONTEXT ( ( #270, #234, #265 ) ) REPRESENTATION_CONTEXT ( 'NONE', 'WORKASPACE' ) );
#269 = UNCERTAINTY_MEASURE_WITH_UNIT (LENGTH_MEASURE( 1.000000000000000082E-05 ), #270, 'distance_accuracy_value', 'NONE');
#270 =( CONVERSION_BASED_UNIT ( 'INCH', #231 ) LENGTH_UNIT ( ) NAMED_UNIT ( #300 ) );
#271 = EDGE_CURVE ( 'NONE', #216, #192, #19, .T. ) ;
#272 = DIRECTION ( 'NONE',  ( 1.000000000000000000, 0.0000000000000000000, 0.0000000000000000000 ) ) ;
#273 = ORIENTED_EDGE ( 'NONE', *, *, #177, .T. ) ;
#274 = ORIENTED_EDGE ( 'NONE', *, *, #35, .T. ) ;
#275 = COLOUR_RGB ( '',0.7921568627450980005, 0.8196078431372548767, 0.9333333333333333481 ) ;
#276 = VECTOR ( 'NONE', #99, 39.37007874015748143 ) ;
#277 = ADVANCED_FACE ( 'NONE', ( #259 ), #294, .T. ) ;
#278 = CARTESIAN_POINT ( 'NONE',  ( 0.0000000000000000000, 0.0000000000000000000, 1.984999999999999654 ) ) ;
#279 = VERTEX_POINT ( 'NONE', #257 ) ;
#280 = CIRCLE ( 'NONE', #180, 0.09365624999999999645 ) ;
#281 = CIRCLE ( 'NONE', #42, 0.01000000000000000021 ) ;
#282 = VERTEX_POINT ( 'NONE', #31 ) ;
#283 =( NAMED_UNIT ( * ) SI_UNIT ( $, .STERADIAN. ) SOLID_ANGLE_UNIT ( ) );
#284 = DIRECTION ( 'NONE',  ( -0.1736481776669311639, 2.126576849575782392E-17, 0.9848077530122080203 ) ) ;
#285 = DIRECTION ( 'NONE',  ( 1.000000000000000000, 0.0000000000000000000, 0.0000000000000000000 ) ) ;
#286 = SURFACE_STYLE_FILL_AREA ( #126 ) ;
#287 = DIRECTION ( 'NONE',  ( 1.000000000000000000, 0.0000000000000000000, 0.0000000000000000000 ) ) ;
#288 = EDGE_CURVE ( 'NONE', #13, #282, #183, .T. ) ;
#289 = VECTOR ( 'NONE', #87, 39.37007874015748143 ) ;
#290 = MECHANICAL_DESIGN_GEOMETRIC_PRESENTATION_REPRESENTATION (  '', ( #39 ), #268 ) ;
#291 = CARTESIAN_POINT ( 'NONE',  ( 0.0000000000000000000, 0.0000000000000000000, 2.000000000000000000 ) ) ;
#292 = DIRECTION ( 'NONE',  ( 0.0000000000000000000, 0.0000000000000000000, 1.000000000000000000 ) ) ;
#293 = DIRECTION ( 'NONE',  ( -1.000000000000000000, 0.0000000000000000000, 1.224646799147352961E-16 ) ) ;
#294 = CYLINDRICAL_SURFACE ( 'NONE', #54, 0.09375000000000001388 ) ;
#295 = AXIS2_PLACEMENT_3D ( 'NONE', #278, #343, #312 ) ;
#296 =( GEOMETRIC_REPRESENTATION_CONTEXT ( 3 ) GLOBAL_UNCERTAINTY_ASSIGNED_CONTEXT ( ( #256 ) ) GLOBAL_UNIT_ASSIGNED_CONTEXT ( ( #210, #128, #26 ) ) REPRESENTATION_CONTEXT ( 'NONE', 'WORKASPACE' ) );
#297 = FACE_OUTER_BOUND ( 'NONE', #109, .T. ) ;
#298 = ORIENTED_EDGE ( 'NONE', *, *, #271, .F. ) ;
#299 = LINE ( 'NONE', #106, #342 ) ;
#300 = DIMENSIONAL_EXPONENTS ( 1.000000000000000000, 0.0000000000000000000, 0.0000000000000000000, 0.0000000000000000000, 0.0000000000000000000, 0.0000000000000000000, 0.0000000000000000000 ) ;
#301 = SURFACE_STYLE_FILL_AREA ( #4 ) ;
#302 = ADVANCED_FACE ( 'NONE', ( #52 ), #203, .T. ) ;
#303 = ORIENTED_EDGE ( 'NONE', *, *, #55, .T. ) ;
#304 = CONICAL_SURFACE ( 'NONE', #74, 0.09365624999999999645, 0.1745329251994338360 ) ;
#305 = AXIS2_PLACEMENT_3D ( 'NONE', #351, #101, #205 ) ;
#306 = ORIENTED_EDGE ( 'NONE', *, *, #71, .F. ) ;
#307 = DIRECTION ( 'NONE',  ( -1.224646799147353207E-16, -0.0000000000000000000, -1.000000000000000000 ) ) ;
#308 = ORIENTED_EDGE ( 'NONE', *, *, #9, .T. ) ;
#309 = VERTEX_POINT ( 'NONE', #179 ) ;
#310 = EDGE_CURVE ( 'NONE', #282, #192, #185, .T. ) ;
#311 = CLOSED_SHELL ( 'NONE', ( #125, #344, #47, #302, #242, #277, #82, #227, #232, #199, #349, #93 ) ) ;
#312 = DIRECTION ( 'NONE',  ( 1.000000000000000000, 0.0000000000000000000, 0.0000000000000000000 ) ) ;
#313 = CARTESIAN_POINT ( 'NONE',  ( 1.224646799147353384E-18, 0.0000000000000000000, 0.0000000000000000000 ) ) ;
#314 = DIRECTION ( 'NONE',  ( -0.0000000000000000000, -0.0000000000000000000, -1.000000000000000000 ) ) ;
#315 = AXIS2_PLACEMENT_3D ( 'NONE', #313, #250, #150 ) ;
#316 =( LENGTH_UNIT ( ) NAMED_UNIT ( * ) SI_UNIT ( $, .METRE. ) );
#317 = DIRECTION ( 'NONE',  ( 1.000000000000000000, 0.0000000000000000000, -0.0000000000000000000 ) ) ;
#318 = EDGE_CURVE ( 'NONE', #238, #57, #249, .T. ) ;
#319 = CARTESIAN_POINT ( 'NONE',  ( -0.07874999999999980627, 0.0000000000000000000, 2.000000000000000000 ) ) ;
#320 = CYLINDRICAL_SURFACE ( 'NONE', #229, 0.09365624999999999645 ) ;
#321 = AXIS2_PLACEMENT_3D ( 'NONE', #202, #206, #95 ) ;
#322 = CONICAL_SURFACE ( 'NONE', #165, 0.09365624999999999645, 0.1745329251994338360 ) ;
#323 = CYLINDRICAL_SURFACE ( 'NONE', #108, 0.09375000000000001388 ) ;
#324 = DIRECTION ( 'NONE',  ( 0.0000000000000000000, -1.000000000000000000, 0.0000000000000000000 ) ) ;
#325 = DIRECTION ( 'NONE',  ( -1.224646799147353207E-16, -0.0000000000000000000, -1.000000000000000000 ) ) ;
#326 = DIRECTION ( 'NONE',  ( 1.000000000000000000, 0.0000000000000000000, 0.0000000000000000000 ) ) ;
#327 = VECTOR ( 'NONE', #284, 39.37007874015747433 ) ;
#328 = DIRECTION ( 'NONE',  ( 0.0000000000000000000, 0.0000000000000000000, 1.000000000000000000 ) ) ;
#329 = ORIENTED_EDGE ( 'NONE', *, *, #30, .F. ) ;
#330 = VERTEX_POINT ( 'NONE', #53 ) ;
#331 = PRODUCT_DEFINITION_SHAPE ( 'NONE', 'NONE',  #168 ) ;
#332 = CARTESIAN_POINT ( 'NONE',  ( 0.0000000000000000000, 0.0000000000000000000, 1.984999999999999654 ) ) ;
#333 = ORIENTED_EDGE ( 'NONE', *, *, #71, .T. ) ;
#334 = CARTESIAN_POINT ( 'NONE',  ( 1.224646799147353384E-18, 0.0000000000000000000, 0.0000000000000000000 ) ) ;
#335 = PRODUCT ( 'Micro_GEC-187-4-010X', 'Micro_GEC-187-4-010X', '', ( #139 ) ) ;
#336 = VERTEX_POINT ( 'NONE', #97 ) ;
#337 = ORIENTED_EDGE ( 'NONE', *, *, #251, .F. ) ;
#338 = AXIS2_PLACEMENT_3D ( 'NONE', #98, #254, #222 ) ;
#339 = EDGE_LOOP ( 'NONE', ( #118, #306, #116, #140 ) ) ;
#340 = EDGE_CURVE ( 'NONE', #279, #57, #281, .T. ) ;
#341 = CARTESIAN_POINT ( 'NONE',  ( 0.0000000000000000000, 0.0000000000000000000, 0.0000000000000000000 ) ) ;
#342 = VECTOR ( 'NONE', #10, 39.37007874015748143 ) ;
#343 = DIRECTION ( 'NONE',  ( 0.0000000000000000000, 0.0000000000000000000, -1.000000000000000000 ) ) ;
#344 = ADVANCED_FACE ( 'NONE', ( #80 ), #320, .T. ) ;
#345 = LINE ( 'NONE', #239, #119 ) ;
#346 = CARTESIAN_POINT ( 'NONE',  ( -0.09365624999999992706, 1.146958267826442798E-17, 0.6250000000000000000 ) ) ;
#347 = CARTESIAN_POINT ( 'NONE',  ( 0.09375000000000001388, 1.148106374200643863E-17, 2.000000000000000000 ) ) ;
#348 = CARTESIAN_POINT ( 'NONE',  ( 0.0000000000000000000, 0.0000000000000000000, 0.0000000000000000000 ) ) ;
#349 = ADVANCED_FACE ( 'NONE', ( #204 ), #50, .F. ) ;
#350 = APPLICATION_PROTOCOL_DEFINITION ( 'draft international standard', 'automotive_design', 1998, #167 ) ;
#351 = CARTESIAN_POINT ( 'NONE',  ( 0.0000000000000000000, 0.0000000000000000000, 2.000000000000000000 ) ) ;
ENDSEC;
END-ISO-10303-21;
