ISO-10303-21;
HEADER;
FILE_DESCRIPTION (( 'STEP AP214' ),
    '1' );
FILE_NAME ('83814.STEP',
    '2023-07-05T16:10:43',
    ( '' ),
    ( '' ),
    'SwSTEP 2.0',
    'SolidWorks 2023',
    '' );
FILE_SCHEMA (( 'AUTOMOTIVE_DESIGN' ));
ENDSEC;

DATA;
#1 = UNCERTAINTY_MEASURE_WITH_UNIT (LENGTH_MEASURE( 1.000000000000000082E-05 ), #228, 'distance_accuracy_value', 'NONE');
#2 = SURFACE_STYLE_USAGE ( .BOTH. , #48 ) ;
#3 = CIRCLE ( 'NONE', #41, 0.2500000000000000555 ) ;
#4 = CARTESIAN_POINT ( 'NONE',  ( 0.2499999999999999722, 0.2499999999999992784, 3.061616997868383018E-17 ) ) ;
#5 = DIRECTION ( 'NONE',  ( -3.148082721615988618E-18, -1.000000000000000000, -0.000000000000000000 ) ) ;
#6 = CARTESIAN_POINT ( 'NONE',  ( 0.2499999999999999722, 0.2499999999999991118, 3.061616997868383018E-17 ) ) ;
#7 = AXIS2_PLACEMENT_3D ( 'NONE', #90, #250, #145 ) ;
#8 = ORIENTED_EDGE ( 'NONE', *, *, #63, .F. ) ;
#9 = CARTESIAN_POINT ( 'NONE',  ( 1.239402646305507261E-16, 39.37007874015748143, 0.000000000000000000 ) ) ;
#10 = CLOSED_SHELL ( 'NONE', ( #46, #100, #190 ) ) ;
#11 =( NAMED_UNIT ( * ) PLANE_ANGLE_UNIT ( ) SI_UNIT ( $, .RADIAN. ) );
#12 = CARTESIAN_POINT ( 'NONE',  ( 0.2499999999999999722, 3.000000000000000444, 3.061616997868383018E-17 ) ) ;
#13 = VERTEX_POINT ( 'NONE', #12 ) ;
#14 = EDGE_CURVE ( 'NONE', #261, #175, #212, .T. ) ;
#15 = UNCERTAINTY_MEASURE_WITH_UNIT (LENGTH_MEASURE( 1.000000000000000082E-05 ), #154, 'distance_accuracy_value', 'NONE');
#16 = FACE_OUTER_BOUND ( 'NONE', #173, .T. ) ;
#17 = DIMENSIONAL_EXPONENTS ( 1.000000000000000000, 0.000000000000000000, 0.000000000000000000, 0.000000000000000000, 0.000000000000000000, 0.000000000000000000, 0.000000000000000000 ) ;
#18 = PRESENTATION_LAYER_ASSIGNMENT (  '', '', ( #112 ) ) ;
#19 = DIRECTION ( 'NONE',  ( 3.148082721615988233E-18, 1.000000000000000000, 0.000000000000000000 ) ) ;
#20 = CARTESIAN_POINT ( 'NONE',  ( -0.2499999999999999167, 3.000000000000000444, 0.000000000000000000 ) ) ;
#21 = LINE ( 'NONE', #119, #256 ) ;
#22 = STYLED_ITEM ( 'NONE', ( #81 ), #100 ) ;
#23 = PLANE ( 'NONE',  #73 ) ;
#24 = ADVANCED_FACE ( 'NONE', ( #16 ), #72, .F. ) ;
#25 = FILL_AREA_STYLE ('',( #30 ) ) ;
#26 = PRODUCT_DEFINITION ( 'UNKNOWN', '', #185, #203 ) ;
#27 = ADVANCED_BREP_SHAPE_REPRESENTATION ( '83814', ( #146, #235, #150 ), #101 ) ;
#28 = FACE_OUTER_BOUND ( 'NONE', #220, .T. ) ;
#29 = EDGE_CURVE ( 'NONE', #113, #238, #77, .T. ) ;
#30 = FILL_AREA_STYLE_COLOUR ( '', #226 ) ;
#31 = ORIENTED_EDGE ( 'NONE', *, *, #29, .T. ) ;
#32 = MECHANICAL_DESIGN_GEOMETRIC_PRESENTATION_REPRESENTATION (  '', ( #61 ), #47 ) ;
#33 = CARTESIAN_POINT ( 'NONE',  ( -0.2499999999999994171, 0.2499999999999992228, 0.000000000000000000 ) ) ;
#34 = SURFACE_STYLE_USAGE ( .BOTH. , #217 ) ;
#35 =( NAMED_UNIT ( * ) PLANE_ANGLE_UNIT ( ) SI_UNIT ( $, .RADIAN. ) );
#36 = MECHANICAL_DESIGN_GEOMETRIC_PRESENTATION_REPRESENTATION (  '', ( #84 ), #60 ) ;
#37 =( NAMED_UNIT ( * ) SI_UNIT ( $, .STERADIAN. ) SOLID_ANGLE_UNIT ( ) );
#38 = LENGTH_MEASURE_WITH_UNIT ( LENGTH_MEASURE( 0.02539999999999999897 ), #197 );
#39 = ORIENTED_EDGE ( 'NONE', *, *, #14, .F. ) ;
#40 = LINE ( 'NONE', #20, #104 ) ;
#41 = AXIS2_PLACEMENT_3D ( 'NONE', #141, #200, #201 ) ;
#42 = AXIS2_PLACEMENT_3D ( 'NONE', #216, #129, #153 ) ;
#43 = FACE_OUTER_BOUND ( 'NONE', #115, .T. ) ;
#44 = CARTESIAN_POINT ( 'NONE',  ( 2.731847993664263218E-16, 0.2499999999999991118, 0.000000000000000000 ) ) ;
#45 = SURFACE_SIDE_STYLE ('',( #143 ) ) ;
#46 = ADVANCED_FACE ( 'NONE', ( #151 ), #120, .T. ) ;
#47 =( GEOMETRIC_REPRESENTATION_CONTEXT ( 3 ) GLOBAL_UNCERTAINTY_ASSIGNED_CONTEXT ( ( #15 ) ) GLOBAL_UNIT_ASSIGNED_CONTEXT ( ( #154, #35, #37 ) ) REPRESENTATION_CONTEXT ( 'NONE', 'WORKASPACE' ) );
#48 = SURFACE_SIDE_STYLE ('',( #107 ) ) ;
#49 = LENGTH_MEASURE_WITH_UNIT ( LENGTH_MEASURE( 0.02539999999999999897 ), #169 );
#50 = EDGE_CURVE ( 'NONE', #261, #75, #40, .T. ) ;
#51 = SURFACE_STYLE_USAGE ( .BOTH. , #183 ) ;
#52 =( CONVERSION_BASED_UNIT ( 'INCH', #54 ) LENGTH_UNIT ( ) NAMED_UNIT ( #87 ) );
#53 = EDGE_CURVE ( 'NONE', #13, #75, #3, .T. ) ;
#54 = LENGTH_MEASURE_WITH_UNIT ( LENGTH_MEASURE( 0.02539999999999999897 ), #76 );
#55 = CARTESIAN_POINT ( 'NONE',  ( 0.000000000000000000, 0.000000000000000000, 0.000000000000000000 ) ) ;
#56 = DIRECTION ( 'NONE',  ( -1.000000000000000000, 0.000000000000000000, 0.000000000000000000 ) ) ;
#57 = ORIENTED_EDGE ( 'NONE', *, *, #157, .F. ) ;
#58 = DIRECTION ( 'NONE',  ( -1.216062324813796344E-16, 1.000000000000000000, -0.000000000000000000 ) ) ;
#59 = LENGTH_MEASURE_WITH_UNIT ( LENGTH_MEASURE( 0.02539999999999999897 ), #102 );
#60 =( GEOMETRIC_REPRESENTATION_CONTEXT ( 3 ) GLOBAL_UNCERTAINTY_ASSIGNED_CONTEXT ( ( #1 ) ) GLOBAL_UNIT_ASSIGNED_CONTEXT ( ( #228, #208, #126 ) ) REPRESENTATION_CONTEXT ( 'NONE', 'WORKASPACE' ) );
#61 = STYLED_ITEM ( 'NONE', ( #96 ), #46 ) ;
#62 = PLANE ( 'NONE',  #135 ) ;
#63 = EDGE_CURVE ( 'NONE', #175, #13, #21, .T. ) ;
#64 = FILL_AREA_STYLE ('',( #247 ) ) ;
#65 = AXIS2_PLACEMENT_3D ( 'NONE', #9, #83, #125 ) ;
#66 =( GEOMETRIC_REPRESENTATION_CONTEXT ( 3 ) GLOBAL_UNCERTAINTY_ASSIGNED_CONTEXT ( ( #243 ) ) GLOBAL_UNIT_ASSIGNED_CONTEXT ( ( #219, #11, #211 ) ) REPRESENTATION_CONTEXT ( 'NONE', 'WORKASPACE' ) );
#67 = FILL_AREA_STYLE ('',( #249 ) ) ;
#68 = CYLINDRICAL_SURFACE ( 'NONE', #42, 0.2499999999999998612 ) ;
#69 = STYLED_ITEM ( 'NONE', ( #188 ), #190 ) ;
#70 = EDGE_CURVE ( 'NONE', #175, #261, #245, .T. ) ;
#71 = CARTESIAN_POINT ( 'NONE',  ( -6.123233995736772199E-17, 3.000000000000000444, 0.000000000000000000 ) ) ;
#72 = PLANE ( 'NONE',  #109 ) ;
#73 = AXIS2_PLACEMENT_3D ( 'NONE', #85, #19, #163 ) ;
#74 = ORIENTED_EDGE ( 'NONE', *, *, #50, .T. ) ;
#75 = VERTEX_POINT ( 'NONE', #178 ) ;
#76 =( LENGTH_UNIT ( ) NAMED_UNIT ( * ) SI_UNIT ( $, .METRE. ) );
#77 = LINE ( 'NONE', #55, #162 ) ;
#78 = DIMENSIONAL_EXPONENTS ( 1.000000000000000000, 0.000000000000000000, 0.000000000000000000, 0.000000000000000000, 0.000000000000000000, 0.000000000000000000, 0.000000000000000000 ) ;
#79 = AXIS2_PLACEMENT_3D ( 'NONE', #265, #147, #108 ) ;
#80 = ORIENTED_EDGE ( 'NONE', *, *, #50, .F. ) ;
#81 = PRESENTATION_STYLE_ASSIGNMENT (( #225 ) ) ;
#82 = DIMENSIONAL_EXPONENTS ( 1.000000000000000000, 0.000000000000000000, 0.000000000000000000, 0.000000000000000000, 0.000000000000000000, 0.000000000000000000, 0.000000000000000000 ) ;
#83 = DIRECTION ( 'NONE',  ( 3.148082721615988618E-18, 1.000000000000000000, 0.000000000000000000 ) ) ;
#84 = STYLED_ITEM ( 'NONE', ( #181 ), #146 ) ;
#85 = CARTESIAN_POINT ( 'NONE',  ( 7.870206804039943619E-19, 0.2499999999999991118, 0.000000000000000000 ) ) ;
#86 = CARTESIAN_POINT ( 'NONE',  ( 2.731847993664263711E-16, 0.2499999999999992506, 0.000000000000000000 ) ) ;
#87 = DIMENSIONAL_EXPONENTS ( 1.000000000000000000, 0.000000000000000000, 0.000000000000000000, 0.000000000000000000, 0.000000000000000000, 0.000000000000000000, 0.000000000000000000 ) ;
#88 = PRESENTATION_STYLE_ASSIGNMENT (( #2 ) ) ;
#89 = SURFACE_STYLE_FILL_AREA ( #67 ) ;
#90 = CARTESIAN_POINT ( 'NONE',  ( -6.123233995736772199E-17, 3.000000000000000444, 0.000000000000000000 ) ) ;
#91 = CONICAL_SURFACE ( 'NONE', #239, 39.37007874015762354, 0.7853981633974500554 ) ;
#92 =( NAMED_UNIT ( * ) SI_UNIT ( $, .STERADIAN. ) SOLID_ANGLE_UNIT ( ) );
#93 = APPLICATION_CONTEXT ( 'automotive_design' ) ;
#94 = ORIENTED_EDGE ( 'NONE', *, *, #157, .T. ) ;
#95 = PRODUCT_CONTEXT ( 'NONE', #93, 'mechanical' ) ;
#96 = PRESENTATION_STYLE_ASSIGNMENT (( #34 ) ) ;
#97 = DIRECTION ( 'NONE',  ( 0.000000000000000000, 0.000000000000000000, 1.000000000000000000 ) ) ;
#98 = ORIENTED_EDGE ( 'NONE', *, *, #29, .F. ) ;
#99 = ORIENTED_EDGE ( 'NONE', *, *, #182, .T. ) ;
#100 = ADVANCED_FACE ( 'NONE', ( #43 ), #23, .T. ) ;
#101 =( GEOMETRIC_REPRESENTATION_CONTEXT ( 3 ) GLOBAL_UNCERTAINTY_ASSIGNED_CONTEXT ( ( #260 ) ) GLOBAL_UNIT_ASSIGNED_CONTEXT ( ( #52, #258, #92 ) ) REPRESENTATION_CONTEXT ( 'NONE', 'WORKASPACE' ) );
#102 =( LENGTH_UNIT ( ) NAMED_UNIT ( * ) SI_UNIT ( $, .METRE. ) );
#103 = DIRECTION ( 'NONE',  ( -1.216062324813796344E-16, 1.000000000000000000, -0.000000000000000000 ) ) ;
#104 = VECTOR ( 'NONE', #164, 39.37007874015748143 ) ;
#105 = FACE_OUTER_BOUND ( 'NONE', #210, .T. ) ;
#106 = SURFACE_STYLE_USAGE ( .BOTH. , #45 ) ;
#107 = SURFACE_STYLE_FILL_AREA ( #25 ) ;
#108 = DIRECTION ( 'NONE',  ( 1.000000000000000000, 0.000000000000000000, 0.000000000000000000 ) ) ;
#109 = AXIS2_PLACEMENT_3D ( 'NONE', #176, #263, #196 ) ;
#110 =( NAMED_UNIT ( * ) SI_UNIT ( $, .STERADIAN. ) SOLID_ANGLE_UNIT ( ) );
#111 = DIRECTION ( 'NONE',  ( 3.148082721615988618E-18, 1.000000000000000000, 0.000000000000000000 ) ) ;
#112 = STYLED_ITEM ( 'NONE', ( #88 ), #235 ) ;
#113 = VERTEX_POINT ( 'NONE', #246 ) ;
#114 = FACE_OUTER_BOUND ( 'NONE', #152, .T. ) ;
#115 = EDGE_LOOP ( 'NONE', ( #136, #57 ) ) ;
#116 = EDGE_LOOP ( 'NONE', ( #8, #168, #74, #191 ) ) ;
#117 = CARTESIAN_POINT ( 'NONE',  ( 2.731847993664263711E-16, 0.2499999999999992506, 0.000000000000000000 ) ) ;
#118 = ADVANCED_FACE ( 'NONE', ( #105 ), #62, .F. ) ;
#119 = CARTESIAN_POINT ( 'NONE',  ( 0.2499999999999998057, 3.000000000000000444, 3.061616997868381785E-17 ) ) ;
#120 = CONICAL_SURFACE ( 'NONE', #65, 39.37007874015762354, 0.7853981633974500554 ) ;
#121 = SURFACE_SIDE_STYLE ('',( #142 ) ) ;
#122 = DIMENSIONAL_EXPONENTS ( 1.000000000000000000, 0.000000000000000000, 0.000000000000000000, 0.000000000000000000, 0.000000000000000000, 0.000000000000000000, 0.000000000000000000 ) ;
#123 = DIRECTION ( 'NONE',  ( -1.216062324813796344E-16, 1.000000000000000000, 0.000000000000000000 ) ) ;
#124 = AXIS2_PLACEMENT_3D ( 'NONE', #186, #5, #167 ) ;
#125 = DIRECTION ( 'NONE',  ( -1.000000000000000000, 0.000000000000000000, 0.000000000000000000 ) ) ;
#126 =( NAMED_UNIT ( * ) SI_UNIT ( $, .STERADIAN. ) SOLID_ANGLE_UNIT ( ) );
#127 =( GEOMETRIC_REPRESENTATION_CONTEXT ( 3 ) GLOBAL_UNCERTAINTY_ASSIGNED_CONTEXT ( ( #159 ) ) GLOBAL_UNIT_ASSIGNED_CONTEXT ( ( #209, #251, #110 ) ) REPRESENTATION_CONTEXT ( 'NONE', 'WORKASPACE' ) );
#128 = LENGTH_MEASURE_WITH_UNIT ( LENGTH_MEASURE( 0.02539999999999999897 ), #248 );
#129 = DIRECTION ( 'NONE',  ( -1.216062324813796344E-16, 1.000000000000000000, -0.000000000000000000 ) ) ;
#130 = FILL_AREA_STYLE ('',( #242 ) ) ;
#131 = CIRCLE ( 'NONE', #7, 0.2500000000000000555 ) ;
#132 =( LENGTH_UNIT ( ) NAMED_UNIT ( * ) SI_UNIT ( $, .METRE. ) );
#133 = SHAPE_DEFINITION_REPRESENTATION ( #174, #27 ) ;
#134 = ORIENTED_EDGE ( 'NONE', *, *, #70, .F. ) ;
#135 = AXIS2_PLACEMENT_3D ( 'NONE', #44, #123, #180 ) ;
#136 = ORIENTED_EDGE ( 'NONE', *, *, #224, .F. ) ;
#137 = FILL_AREA_STYLE ('',( #161 ) ) ;
#138 = PRODUCT_RELATED_PRODUCT_CATEGORY ( 'part', '', ( #232 ) ) ;
#139 = DIRECTION ( 'NONE',  ( -1.000000000000000000, -1.365923996832133335E-16, 0.000000000000000000 ) ) ;
#140 = PRESENTATION_LAYER_ASSIGNMENT (  '', '', ( #22 ) ) ;
#141 = CARTESIAN_POINT ( 'NONE',  ( -6.123233995736772199E-17, 3.000000000000000444, 0.000000000000000000 ) ) ;
#142 = SURFACE_STYLE_FILL_AREA ( #137 ) ;
#143 = SURFACE_STYLE_FILL_AREA ( #64 ) ;
#144 = MECHANICAL_DESIGN_GEOMETRIC_PRESENTATION_REPRESENTATION (  '', ( #112 ), #66 ) ;
#145 = DIRECTION ( 'NONE',  ( -1.000000000000000000, 0.000000000000000000, 0.000000000000000000 ) ) ;
#146 = MANIFOLD_SOLID_BREP ( 'Revolve - Cutting Edge', #10 ) ;
#147 = DIRECTION ( 'NONE',  ( -3.148082721615988618E-18, -1.000000000000000000, -0.000000000000000000 ) ) ;
#148 = MECHANICAL_DESIGN_GEOMETRIC_PRESENTATION_REPRESENTATION (  '', ( #22 ), #184 ) ;
#149 = ORIENTED_EDGE ( 'NONE', *, *, #53, .T. ) ;
#150 = AXIS2_PLACEMENT_3D ( 'NONE', #214, #97, #192 ) ;
#151 = FACE_OUTER_BOUND ( 'NONE', #233, .T. ) ;
#152 = EDGE_LOOP ( 'NONE', ( #254, #172, #257, #80 ) ) ;
#153 = DIRECTION ( 'NONE',  ( -1.000000000000000000, 0.000000000000000000, 0.000000000000000000 ) ) ;
#154 =( CONVERSION_BASED_UNIT ( 'INCH', #259 ) LENGTH_UNIT ( ) NAMED_UNIT ( #160 ) );
#155 = ORIENTED_EDGE ( 'NONE', *, *, #182, .F. ) ;
#156 = COLOUR_RGB ( '',1.000000000000000000, 0.000000000000000000, 0.000000000000000000 ) ;
#157 = EDGE_CURVE ( 'NONE', #215, #238, #206, .T. ) ;
#158 = DIRECTION ( 'NONE',  ( -0.7071067811865486830, 0.7071067811865462405, 0.000000000000000000 ) ) ;
#159 = UNCERTAINTY_MEASURE_WITH_UNIT (LENGTH_MEASURE( 1.000000000000000082E-05 ), #209, 'distance_accuracy_value', 'NONE');
#160 = DIMENSIONAL_EXPONENTS ( 1.000000000000000000, 0.000000000000000000, 0.000000000000000000, 0.000000000000000000, 0.000000000000000000, 0.000000000000000000, 0.000000000000000000 ) ;
#161 = FILL_AREA_STYLE_COLOUR ( '', #177 ) ;
#162 = VECTOR ( 'NONE', #158, 39.37007874015748854 ) ;
#163 = DIRECTION ( 'NONE',  ( -1.000000000000000000, 3.148082721615988233E-18, 0.000000000000000000 ) ) ;
#164 = DIRECTION ( 'NONE',  ( -1.216062324813796344E-16, 1.000000000000000000, -0.000000000000000000 ) ) ;
#165 = CLOSED_SHELL ( 'NONE', ( #262, #118, #241, #24 ) ) ;
#166 = CARTESIAN_POINT ( 'NONE',  ( 0.000000000000000000, 0.000000000000000000, 0.000000000000000000 ) ) ;
#167 = DIRECTION ( 'NONE',  ( 1.000000000000000000, 0.000000000000000000, 0.000000000000000000 ) ) ;
#168 = ORIENTED_EDGE ( 'NONE', *, *, #70, .T. ) ;
#169 =( LENGTH_UNIT ( ) NAMED_UNIT ( * ) SI_UNIT ( $, .METRE. ) );
#170 = COLOUR_RGB ( '',1.000000000000000000, 0.000000000000000000, 0.000000000000000000 ) ;
#171 = CYLINDRICAL_SURFACE ( 'NONE', #240, 0.2499999999999998612 ) ;
#172 = ORIENTED_EDGE ( 'NONE', *, *, #63, .T. ) ;
#173 = EDGE_LOOP ( 'NONE', ( #193, #149 ) ) ;
#174 = PRODUCT_DEFINITION_SHAPE ( 'NONE', 'NONE',  #26 ) ;
#175 = VERTEX_POINT ( 'NONE', #4 ) ;
#176 = CARTESIAN_POINT ( 'NONE',  ( 0.2499999999999999722, 3.000000000000000444, 0.000000000000000000 ) ) ;
#177 = COLOUR_RGB ( '',1.000000000000000000, 0.000000000000000000, 0.000000000000000000 ) ;
#178 = CARTESIAN_POINT ( 'NONE',  ( -0.2500000000000001110, 3.000000000000000444, 0.000000000000000000 ) ) ;
#179 = VECTOR ( 'NONE', #204, 39.37007874015748854 ) ;
#180 = DIRECTION ( 'NONE',  ( -1.000000000000000000, -1.216062324813796344E-16, 0.000000000000000000 ) ) ;
#181 = PRESENTATION_STYLE_ASSIGNMENT (( #106 ) ) ;
#182 = EDGE_CURVE ( 'NONE', #113, #215, #207, .T. ) ;
#183 = SURFACE_SIDE_STYLE ('',( #89 ) ) ;
#184 =( GEOMETRIC_REPRESENTATION_CONTEXT ( 3 ) GLOBAL_UNCERTAINTY_ASSIGNED_CONTEXT ( ( #205 ) ) GLOBAL_UNIT_ASSIGNED_CONTEXT ( ( #221, #244, #223 ) ) REPRESENTATION_CONTEXT ( 'NONE', 'WORKASPACE' ) );
#185 = PRODUCT_DEFINITION_FORMATION_WITH_SPECIFIED_SOURCE ( 'ANY', '', #232, .NOT_KNOWN. ) ;
#186 = CARTESIAN_POINT ( 'NONE',  ( 7.870206804039943619E-19, 0.2499999999999991118, 0.000000000000000000 ) ) ;
#187 = APPLICATION_CONTEXT ( 'automotive_design' ) ;
#188 = PRESENTATION_STYLE_ASSIGNMENT (( #51 ) ) ;
#189 = PRESENTATION_LAYER_ASSIGNMENT (  '', '', ( #61 ) ) ;
#190 = ADVANCED_FACE ( 'NONE', ( #28 ), #91, .T. ) ;
#191 = ORIENTED_EDGE ( 'NONE', *, *, #53, .F. ) ;
#192 = DIRECTION ( 'NONE',  ( 1.000000000000000000, 0.000000000000000000, 0.000000000000000000 ) ) ;
#193 = ORIENTED_EDGE ( 'NONE', *, *, #230, .T. ) ;
#194 = ORIENTED_EDGE ( 'NONE', *, *, #224, .T. ) ;
#195 = AXIS2_PLACEMENT_3D ( 'NONE', #86, #103, #139 ) ;
#196 = DIRECTION ( 'NONE',  ( 1.000000000000000000, 1.216062324813796344E-16, 0.000000000000000000 ) ) ;
#197 =( LENGTH_UNIT ( ) NAMED_UNIT ( * ) SI_UNIT ( $, .METRE. ) );
#198 = DIRECTION ( 'NONE',  ( -1.000000000000000000, -1.365923996832133335E-16, 0.000000000000000000 ) ) ;
#199 = COLOUR_RGB ( '',0.7921568627450980005, 0.8196078431372548767, 0.9333333333333333481 ) ;
#200 = DIRECTION ( 'NONE',  ( -1.216062324813796344E-16, 1.000000000000000000, -0.000000000000000000 ) ) ;
#201 = DIRECTION ( 'NONE',  ( -1.000000000000000000, 0.000000000000000000, 0.000000000000000000 ) ) ;
#202 = CIRCLE ( 'NONE', #124, 0.2499999999999999722 ) ;
#203 = PRODUCT_DEFINITION_CONTEXT ( 'detailed design', #187, 'design' ) ;
#204 = DIRECTION ( 'NONE',  ( 0.7071067811865486830, 0.7071067811865462405, 8.659560562354947649E-17 ) ) ;
#205 = UNCERTAINTY_MEASURE_WITH_UNIT (LENGTH_MEASURE( 1.000000000000000082E-05 ), #221, 'distance_accuracy_value', 'NONE');
#206 = CIRCLE ( 'NONE', #79, 0.2499999999999999722 ) ;
#207 = LINE ( 'NONE', #166, #179 ) ;
#208 =( NAMED_UNIT ( * ) PLANE_ANGLE_UNIT ( ) SI_UNIT ( $, .RADIAN. ) );
#209 =( CONVERSION_BASED_UNIT ( 'INCH', #128 ) LENGTH_UNIT ( ) NAMED_UNIT ( #17 ) );
#210 = EDGE_LOOP ( 'NONE', ( #39, #134 ) ) ;
#211 =( NAMED_UNIT ( * ) SI_UNIT ( $, .STERADIAN. ) SOLID_ANGLE_UNIT ( ) );
#212 = CIRCLE ( 'NONE', #218, 0.2499999999999996947 ) ;
#213 = SURFACE_STYLE_FILL_AREA ( #130 ) ;
#214 = CARTESIAN_POINT ( 'NONE',  ( 0.000000000000000000, 0.000000000000000000, 0.000000000000000000 ) ) ;
#215 = VERTEX_POINT ( 'NONE', #6 ) ;
#216 = CARTESIAN_POINT ( 'NONE',  ( -6.123233995736772199E-17, 3.000000000000000444, 0.000000000000000000 ) ) ;
#217 = SURFACE_SIDE_STYLE ('',( #213 ) ) ;
#218 = AXIS2_PLACEMENT_3D ( 'NONE', #117, #236, #198 ) ;
#219 =( CONVERSION_BASED_UNIT ( 'INCH', #38 ) LENGTH_UNIT ( ) NAMED_UNIT ( #82 ) );
#220 = EDGE_LOOP ( 'NONE', ( #155, #31, #194 ) ) ;
#221 =( CONVERSION_BASED_UNIT ( 'INCH', #59 ) LENGTH_UNIT ( ) NAMED_UNIT ( #78 ) );
#222 = PRESENTATION_LAYER_ASSIGNMENT (  '', '', ( #84 ) ) ;
#223 =( NAMED_UNIT ( * ) SI_UNIT ( $, .STERADIAN. ) SOLID_ANGLE_UNIT ( ) );
#224 = EDGE_CURVE ( 'NONE', #238, #215, #202, .T. ) ;
#225 = SURFACE_STYLE_USAGE ( .BOTH. , #121 ) ;
#226 = COLOUR_RGB ( '',0.7921568627450980005, 0.8196078431372548767, 0.9333333333333333481 ) ;
#227 = CARTESIAN_POINT ( 'NONE',  ( 1.239402646305507261E-16, 39.37007874015748143, 0.000000000000000000 ) ) ;
#228 =( CONVERSION_BASED_UNIT ( 'INCH', #49 ) LENGTH_UNIT ( ) NAMED_UNIT ( #122 ) );
#229 = MECHANICAL_DESIGN_GEOMETRIC_PRESENTATION_REPRESENTATION (  '', ( #69 ), #127 ) ;
#230 = EDGE_CURVE ( 'NONE', #75, #13, #131, .T. ) ;
#231 = DIRECTION ( 'NONE',  ( -1.000000000000000000, 0.000000000000000000, 0.000000000000000000 ) ) ;
#232 = PRODUCT ( '83814', '83814', '', ( #95 ) ) ;
#233 = EDGE_LOOP ( 'NONE', ( #98, #99, #94 ) ) ;
#234 = FACE_OUTER_BOUND ( 'NONE', #116, .T. ) ;
#235 = MANIFOLD_SOLID_BREP ( 'Revolve - Tool Body (Pointed)', #165 ) ;
#236 = DIRECTION ( 'NONE',  ( -1.216062324813796344E-16, 1.000000000000000000, -0.000000000000000000 ) ) ;
#237 = CARTESIAN_POINT ( 'NONE',  ( -0.2499999999999999722, 0.2499999999999991118, 0.000000000000000000 ) ) ;
#238 = VERTEX_POINT ( 'NONE', #237 ) ;
#239 = AXIS2_PLACEMENT_3D ( 'NONE', #227, #111, #231 ) ;
#240 = AXIS2_PLACEMENT_3D ( 'NONE', #71, #252, #56 ) ;
#241 = ADVANCED_FACE ( 'NONE', ( #234 ), #68, .T. ) ;
#242 = FILL_AREA_STYLE_COLOUR ( '', #156 ) ;
#243 = UNCERTAINTY_MEASURE_WITH_UNIT (LENGTH_MEASURE( 1.000000000000000082E-05 ), #219, 'distance_accuracy_value', 'NONE');
#244 =( NAMED_UNIT ( * ) PLANE_ANGLE_UNIT ( ) SI_UNIT ( $, .RADIAN. ) );
#245 = CIRCLE ( 'NONE', #195, 0.2499999999999996947 ) ;
#246 = CARTESIAN_POINT ( 'NONE',  ( 0.000000000000000000, 0.000000000000000000, 0.000000000000000000 ) ) ;
#247 = FILL_AREA_STYLE_COLOUR ( '', #199 ) ;
#248 =( LENGTH_UNIT ( ) NAMED_UNIT ( * ) SI_UNIT ( $, .METRE. ) );
#249 = FILL_AREA_STYLE_COLOUR ( '', #170 ) ;
#250 = DIRECTION ( 'NONE',  ( -1.216062324813796344E-16, 1.000000000000000000, -0.000000000000000000 ) ) ;
#251 =( NAMED_UNIT ( * ) PLANE_ANGLE_UNIT ( ) SI_UNIT ( $, .RADIAN. ) );
#252 = DIRECTION ( 'NONE',  ( -1.216062324813796344E-16, 1.000000000000000000, -0.000000000000000000 ) ) ;
#253 = APPLICATION_PROTOCOL_DEFINITION ( 'draft international standard', 'automotive_design', 1998, #93 ) ;
#254 = ORIENTED_EDGE ( 'NONE', *, *, #14, .T. ) ;
#255 = APPLICATION_PROTOCOL_DEFINITION ( 'draft international standard', 'automotive_design', 1998, #187 ) ;
#256 = VECTOR ( 'NONE', #58, 39.37007874015748143 ) ;
#257 = ORIENTED_EDGE ( 'NONE', *, *, #230, .F. ) ;
#258 =( NAMED_UNIT ( * ) PLANE_ANGLE_UNIT ( ) SI_UNIT ( $, .RADIAN. ) );
#259 = LENGTH_MEASURE_WITH_UNIT ( LENGTH_MEASURE( 0.02539999999999999897 ), #132 );
#260 = UNCERTAINTY_MEASURE_WITH_UNIT (LENGTH_MEASURE( 1.000000000000000082E-05 ), #52, 'distance_accuracy_value', 'NONE');
#261 = VERTEX_POINT ( 'NONE', #33 ) ;
#262 = ADVANCED_FACE ( 'NONE', ( #114 ), #171, .T. ) ;
#263 = DIRECTION ( 'NONE',  ( 1.216062324813796344E-16, -1.000000000000000000, 0.000000000000000000 ) ) ;
#264 = PRESENTATION_LAYER_ASSIGNMENT (  '', '', ( #69 ) ) ;
#265 = CARTESIAN_POINT ( 'NONE',  ( 7.870206804039943619E-19, 0.2499999999999991118, 0.000000000000000000 ) ) ;
ENDSEC;
END-ISO-10303-21;
