ISO-10303-21;
HEADER;
FILE_DESCRIPTION (( 'STEP AP214' ),
    '1' );
FILE_NAME ('81926.STEP',
    '2023-06-30T22:33:12',
    ( '' ),
    ( '' ),
    'SwSTEP 2.0',
    'SolidWorks 2023',
    '' );
FILE_SCHEMA (( 'AUTOMOTIVE_DESIGN' ));
ENDSEC;

DATA;
#1 = LENGTH_MEASURE_WITH_UNIT ( LENGTH_MEASURE( 0.02539999999999999897 ), #261 );
#2 = EDGE_CURVE ( 'NONE', #234, #186, #255, .T. ) ;
#3 = AXIS2_PLACEMENT_3D ( 'NONE', #165, #189, #249 ) ;
#4 = DIRECTION ( 'NONE',  ( -1.574545884618025482E-16, 1.000000000000000000, -0.000000000000000000 ) ) ;
#5 = SURFACE_SIDE_STYLE ('',( #294 ) ) ;
#6 = ORIENTED_EDGE ( 'NONE', *, *, #310, .T. ) ;
#7 = DIRECTION ( 'NONE',  ( 0.000000000000000000, 0.000000000000000000, -1.000000000000000000 ) ) ;
#8 = PRESENTATION_LAYER_ASSIGNMENT (  '', '', ( #109 ) ) ;
#9 = CARTESIAN_POINT ( 'NONE',  ( 0.000000000000000000, 0.1250000000000000278, 0.000000000000000000 ) ) ;
#10 = UNCERTAINTY_MEASURE_WITH_UNIT (LENGTH_MEASURE( 1.000000000000000082E-05 ), #364, 'distance_accuracy_value', 'NONE');
#11 = VERTEX_POINT ( 'NONE', #107 ) ;
#12 = COLOUR_RGB ( '',1.000000000000000000, 0.000000000000000000, 0.000000000000000000 ) ;
#13 = DIRECTION ( 'NONE',  ( -1.574545884618025482E-16, 1.000000000000000000, -0.000000000000000000 ) ) ;
#14 = SURFACE_STYLE_USAGE ( .BOTH. , #327 ) ;
#15 = FACE_OUTER_BOUND ( 'NONE', #175, .T. ) ;
#16 = UNCERTAINTY_MEASURE_WITH_UNIT (LENGTH_MEASURE( 1.000000000000000082E-05 ), #338, 'distance_accuracy_value', 'NONE');
#17 = VERTEX_POINT ( 'NONE', #365 ) ;
#18 = EDGE_LOOP ( 'NONE', ( #262, #156 ) ) ;
#19 = PRESENTATION_LAYER_ASSIGNMENT (  '', '', ( #174 ) ) ;
#20 = CARTESIAN_POINT ( 'NONE',  ( -6.123233995736766036E-17, 2.500000000000000000, 0.000000000000000000 ) ) ;
#21 = FACE_OUTER_BOUND ( 'NONE', #230, .T. ) ;
#22 =( LENGTH_UNIT ( ) NAMED_UNIT ( * ) SI_UNIT ( $, .METRE. ) );
#23 = ADVANCED_FACE ( 'NONE', ( #136 ), #160, .T. ) ;
#24 = COLOUR_RGB ( '',1.000000000000000000, 0.000000000000000000, 0.000000000000000000 ) ;
#25 = AXIS2_PLACEMENT_3D ( 'NONE', #9, #226, #148 ) ;
#26 = FILL_AREA_STYLE ('',( #279 ) ) ;
#27 = SURFACE_STYLE_USAGE ( .BOTH. , #340 ) ;
#28 = DIRECTION ( 'NONE',  ( -0.000000000000000000, -1.000000000000000000, -0.000000000000000000 ) ) ;
#29 = DIRECTION ( 'NONE',  ( -1.574545884618025482E-16, 1.000000000000000000, -0.000000000000000000 ) ) ;
#30 =( GEOMETRIC_REPRESENTATION_CONTEXT ( 3 ) GLOBAL_UNCERTAINTY_ASSIGNED_CONTEXT ( ( #101 ) ) GLOBAL_UNIT_ASSIGNED_CONTEXT ( ( #151, #115, #346 ) ) REPRESENTATION_CONTEXT ( 'NONE', 'WORKASPACE' ) );
#31 = CARTESIAN_POINT ( 'NONE',  ( -7.654042494670957545E-18, 0.000000000000000000, 0.000000000000000000 ) ) ;
#32 = ADVANCED_FACE ( 'NONE', ( #163 ), #168, .T. ) ;
#33 = FILL_AREA_STYLE_COLOUR ( '', #24 ) ;
#34 = LINE ( 'NONE', #256, #260 ) ;
#35 = COLOUR_RGB ( '',1.000000000000000000, 0.000000000000000000, 0.000000000000000000 ) ;
#36 = AXIS2_PLACEMENT_3D ( 'NONE', #217, #57, #236 ) ;
#37 = FILL_AREA_STYLE ('',( #33 ) ) ;
#38 = VERTEX_POINT ( 'NONE', #243 ) ;
#39 = LENGTH_MEASURE_WITH_UNIT ( LENGTH_MEASURE( 0.02539999999999999897 ), #203 );
#40 = DIRECTION ( 'NONE',  ( -1.000000000000000000, 0.000000000000000000, 0.000000000000000000 ) ) ;
#41 = ORIENTED_EDGE ( 'NONE', *, *, #133, .T. ) ;
#42 = CARTESIAN_POINT ( 'NONE',  ( 0.000000000000000000, 0.1250000000000000278, 0.000000000000000000 ) ) ;
#43 = ORIENTED_EDGE ( 'NONE', *, *, #354, .T. ) ;
#44 =( NAMED_UNIT ( * ) SI_UNIT ( $, .STERADIAN. ) SOLID_ANGLE_UNIT ( ) );
#45 = SURFACE_STYLE_USAGE ( .BOTH. , #274 ) ;
#46 = ORIENTED_EDGE ( 'NONE', *, *, #127, .T. ) ;
#47 = LENGTH_MEASURE_WITH_UNIT ( LENGTH_MEASURE( 0.02539999999999999897 ), #333 );
#48 = ADVANCED_FACE ( 'NONE', ( #363 ), #351, .T. ) ;
#49 = AXIS2_PLACEMENT_3D ( 'NONE', #157, #185, #71 ) ;
#50 = DIRECTION ( 'NONE',  ( -1.000000000000000000, -1.574545884618025482E-16, 0.000000000000000000 ) ) ;
#51 = ORIENTED_EDGE ( 'NONE', *, *, #2, .T. ) ;
#52 = ORIENTED_EDGE ( 'NONE', *, *, #282, .F. ) ;
#53 =( GEOMETRIC_REPRESENTATION_CONTEXT ( 3 ) GLOBAL_UNCERTAINTY_ASSIGNED_CONTEXT ( ( #238 ) ) GLOBAL_UNIT_ASSIGNED_CONTEXT ( ( #319, #141, #61 ) ) REPRESENTATION_CONTEXT ( 'NONE', 'WORKASPACE' ) );
#54 = CARTESIAN_POINT ( 'NONE',  ( 0.000000000000000000, 0.000000000000000000, 0.000000000000000000 ) ) ;
#55 = DIRECTION ( 'NONE',  ( 0.000000000000000000, 0.000000000000000000, -1.000000000000000000 ) ) ;
#56 = DIRECTION ( 'NONE',  ( -0.000000000000000000, -1.000000000000000000, -0.000000000000000000 ) ) ;
#57 = DIRECTION ( 'NONE',  ( 1.224646799147353207E-16, -0.000000000000000000, 1.000000000000000000 ) ) ;
#58 = CARTESIAN_POINT ( 'NONE',  ( 1.530808498934190585E-17, 0.7500000000000001110, 0.1249999999999999029 ) ) ;
#59 = PRODUCT_DEFINITION_SHAPE ( 'NONE', 'NONE',  #94 ) ;
#60 = CARTESIAN_POINT ( 'NONE',  ( 0.000000000000000000, 0.7500000000000001110, 0.000000000000000000 ) ) ;
#61 =( NAMED_UNIT ( * ) SI_UNIT ( $, .STERADIAN. ) SOLID_ANGLE_UNIT ( ) );
#62 = ADVANCED_FACE ( 'NONE', ( #105 ), #74, .F. ) ;
#63 = DIRECTION ( 'NONE',  ( 0.000000000000000000, 0.000000000000000000, -1.000000000000000000 ) ) ;
#64 = AXIS2_PLACEMENT_3D ( 'NONE', #76, #298, #332 ) ;
#65 = PRESENTATION_STYLE_ASSIGNMENT (( #352 ) ) ;
#66 = CARTESIAN_POINT ( 'NONE',  ( 2.143131898507868297E-16, 0.7499999999999998890, 0.000000000000000000 ) ) ;
#67 = APPLICATION_PROTOCOL_DEFINITION ( 'draft international standard', 'automotive_design', 1998, #170 ) ;
#68 = ADVANCED_FACE ( 'NONE', ( #15 ), #80, .F. ) ;
#69 = ORIENTED_EDGE ( 'NONE', *, *, #124, .T. ) ;
#70 = CIRCLE ( 'NONE', #25, 0.1249999999999999584 ) ;
#71 = DIRECTION ( 'NONE',  ( 1.000000000000000000, 1.574545884618025482E-16, 0.000000000000000000 ) ) ;
#72 = ORIENTED_EDGE ( 'NONE', *, *, #190, .T. ) ;
#73 =( NAMED_UNIT ( * ) PLANE_ANGLE_UNIT ( ) SI_UNIT ( $, .RADIAN. ) );
#74 = PLANE ( 'NONE',  #251 ) ;
#75 = PRESENTATION_STYLE_ASSIGNMENT (( #370 ) ) ;
#76 = CARTESIAN_POINT ( 'NONE',  ( 0.000000000000000000, 0.000000000000000000, 0.000000000000000000 ) ) ;
#77 = MANIFOLD_SOLID_BREP ( 'Revolve - Cutting Edge', #315 ) ;
#78 = EDGE_LOOP ( 'NONE', ( #293, #41, #258, #132, #158 ) ) ;
#79 =( CONVERSION_BASED_UNIT ( 'INCH', #47 ) LENGTH_UNIT ( ) NAMED_UNIT ( #199 ) );
#80 = PLANE ( 'NONE',  #49 ) ;
#81 =( NAMED_UNIT ( * ) PLANE_ANGLE_UNIT ( ) SI_UNIT ( $, .RADIAN. ) );
#82 = DIRECTION ( 'NONE',  ( -1.000000000000000000, 0.000000000000000000, 0.000000000000000000 ) ) ;
#83 = VECTOR ( 'NONE', #142, 39.37007874015748143 ) ;
#84 = PRESENTATION_LAYER_ASSIGNMENT (  '', '', ( #231 ) ) ;
#85 = CARTESIAN_POINT ( 'NONE',  ( 0.000000000000000000, 0.000000000000000000, 0.000000000000000000 ) ) ;
#86 = LINE ( 'NONE', #112, #347 ) ;
#87 = FILL_AREA_STYLE_COLOUR ( '', #367 ) ;
#88 =( GEOMETRIC_REPRESENTATION_CONTEXT ( 3 ) GLOBAL_UNCERTAINTY_ASSIGNED_CONTEXT ( ( #10 ) ) GLOBAL_UNIT_ASSIGNED_CONTEXT ( ( #364, #108, #191 ) ) REPRESENTATION_CONTEXT ( 'NONE', 'WORKASPACE' ) );
#89 =( GEOMETRIC_REPRESENTATION_CONTEXT ( 3 ) GLOBAL_UNCERTAINTY_ASSIGNED_CONTEXT ( ( #233 ) ) GLOBAL_UNIT_ASSIGNED_CONTEXT ( ( #79, #215, #44 ) ) REPRESENTATION_CONTEXT ( 'NONE', 'WORKASPACE' ) );
#90 = CARTESIAN_POINT ( 'NONE',  ( 1.530808498934190893E-17, 0.000000000000000000, 0.1249999999999999306 ) ) ;
#91 = SHAPE_DEFINITION_REPRESENTATION ( #59, #126 ) ;
#92 = EDGE_CURVE ( 'NONE', #17, #11, #206, .T. ) ;
#93 = DIRECTION ( 'NONE',  ( -1.574545884618025482E-16, 1.000000000000000000, -0.000000000000000000 ) ) ;
#94 = PRODUCT_DEFINITION ( 'UNKNOWN', '', #161, #159 ) ;
#95 = AXIS2_PLACEMENT_3D ( 'NONE', #227, #4, #40 ) ;
#96 = VERTEX_POINT ( 'NONE', #224 ) ;
#97 = SURFACE_STYLE_USAGE ( .BOTH. , #286 ) ;
#98 = FILL_AREA_STYLE ('',( #87 ) ) ;
#99 = AXIS2_PLACEMENT_3D ( 'NONE', #42, #28, #314 ) ;
#100 = AXIS2_PLACEMENT_3D ( 'NONE', #85, #116, #121 ) ;
#101 = UNCERTAINTY_MEASURE_WITH_UNIT (LENGTH_MEASURE( 1.000000000000000082E-05 ), #151, 'distance_accuracy_value', 'NONE');
#102 = ORIENTED_EDGE ( 'NONE', *, *, #92, .F. ) ;
#103 = EDGE_CURVE ( 'NONE', #17, #302, #118, .T. ) ;
#104 = EDGE_LOOP ( 'NONE', ( #204, #69, #241, #299 ) ) ;
#105 = FACE_OUTER_BOUND ( 'NONE', #18, .T. ) ;
#106 = VERTEX_POINT ( 'NONE', #343 ) ;
#107 = CARTESIAN_POINT ( 'NONE',  ( 1.530808498934191201E-17, 0.1250000000000000278, 0.1249999999999999584 ) ) ;
#108 =( NAMED_UNIT ( * ) PLANE_ANGLE_UNIT ( ) SI_UNIT ( $, .RADIAN. ) );
#109 = STYLED_ITEM ( 'NONE', ( #65 ), #253 ) ;
#110 = SURFACE_SIDE_STYLE ('',( #137 ) ) ;
#111 = PRESENTATION_LAYER_ASSIGNMENT (  '', '', ( #289 ) ) ;
#112 = CARTESIAN_POINT ( 'NONE',  ( 0.000000000000000000, 0.000000000000000000, -0.1249999999999999306 ) ) ;
#113 =( GEOMETRIC_REPRESENTATION_CONTEXT ( 3 ) GLOBAL_UNCERTAINTY_ASSIGNED_CONTEXT ( ( #16 ) ) GLOBAL_UNIT_ASSIGNED_CONTEXT ( ( #338, #306, #272 ) ) REPRESENTATION_CONTEXT ( 'NONE', 'WORKASPACE' ) );
#114 = EDGE_CURVE ( 'NONE', #106, #186, #86, .T. ) ;
#115 =( NAMED_UNIT ( * ) PLANE_ANGLE_UNIT ( ) SI_UNIT ( $, .RADIAN. ) );
#116 = DIRECTION ( 'NONE',  ( 0.000000000000000000, 0.000000000000000000, 1.000000000000000000 ) ) ;
#117 = SPHERICAL_SURFACE ( 'NONE', #328, 0.1250000000000000000 ) ;
#118 = CIRCLE ( 'NONE', #200, 0.1250000000000000000 ) ;
#119 = DIRECTION ( 'NONE',  ( -1.574545884618025482E-16, 1.000000000000000000, -0.000000000000000000 ) ) ;
#120 = DIRECTION ( 'NONE',  ( -1.000000000000000000, 0.000000000000000000, 0.000000000000000000 ) ) ;
#121 = DIRECTION ( 'NONE',  ( 1.000000000000000000, 0.000000000000000000, 0.000000000000000000 ) ) ;
#122 = VERTEX_POINT ( 'NONE', #58 ) ;
#123 = LENGTH_MEASURE_WITH_UNIT ( LENGTH_MEASURE( 0.02539999999999999897 ), #329 );
#124 = EDGE_CURVE ( 'NONE', #359, #96, #297, .T. ) ;
#125 = EDGE_LOOP ( 'NONE', ( #267, #331, #218, #184 ) ) ;
#126 = ADVANCED_BREP_SHAPE_REPRESENTATION ( '81926', ( #77, #326, #100 ), #222 ) ;
#127 = EDGE_CURVE ( 'NONE', #335, #38, #134, .T. ) ;
#128 = ORIENTED_EDGE ( 'NONE', *, *, #114, .F. ) ;
#129 = ORIENTED_EDGE ( 'NONE', *, *, #103, .F. ) ;
#130 = UNCERTAINTY_MEASURE_WITH_UNIT (LENGTH_MEASURE( 1.000000000000000082E-05 ), #232, 'distance_accuracy_value', 'NONE');
#131 = MECHANICAL_DESIGN_GEOMETRIC_PRESENTATION_REPRESENTATION (  '', ( #263 ), #341 ) ;
#132 = ORIENTED_EDGE ( 'NONE', *, *, #2, .F. ) ;
#133 = EDGE_CURVE ( 'NONE', #122, #106, #198, .T. ) ;
#134 = CIRCLE ( 'NONE', #143, 0.1250000000000000000 ) ;
#135 = COLOUR_RGB ( '',1.000000000000000000, 0.000000000000000000, 0.000000000000000000 ) ;
#136 = FACE_OUTER_BOUND ( 'NONE', #125, .T. ) ;
#137 = SURFACE_STYLE_FILL_AREA ( #194 ) ;
#138 = EDGE_CURVE ( 'NONE', #122, #11, #225, .T. ) ;
#139 = AXIS2_PLACEMENT_3D ( 'NONE', #229, #93, #120 ) ;
#140 = CARTESIAN_POINT ( 'NONE',  ( 0.000000000000000000, 0.1250000000000000278, 0.000000000000000000 ) ) ;
#141 =( NAMED_UNIT ( * ) PLANE_ANGLE_UNIT ( ) SI_UNIT ( $, .RADIAN. ) );
#142 = DIRECTION ( 'NONE',  ( -0.000000000000000000, -1.000000000000000000, -0.000000000000000000 ) ) ;
#143 = AXIS2_PLACEMENT_3D ( 'NONE', #276, #369, #195 ) ;
#144 = DIMENSIONAL_EXPONENTS ( 1.000000000000000000, 0.000000000000000000, 0.000000000000000000, 0.000000000000000000, 0.000000000000000000, 0.000000000000000000, 0.000000000000000000 ) ;
#145 = FACE_OUTER_BOUND ( 'NONE', #296, .T. ) ;
#146 = ORIENTED_EDGE ( 'NONE', *, *, #196, .T. ) ;
#147 = DIMENSIONAL_EXPONENTS ( 1.000000000000000000, 0.000000000000000000, 0.000000000000000000, 0.000000000000000000, 0.000000000000000000, 0.000000000000000000, 0.000000000000000000 ) ;
#148 = DIRECTION ( 'NONE',  ( 0.000000000000000000, 0.000000000000000000, -1.000000000000000000 ) ) ;
#149 = UNCERTAINTY_MEASURE_WITH_UNIT (LENGTH_MEASURE( 1.000000000000000082E-05 ), #368, 'distance_accuracy_value', 'NONE');
#150 = EDGE_LOOP ( 'NONE', ( #52, #51, #6, #292 ) ) ;
#151 =( CONVERSION_BASED_UNIT ( 'INCH', #1 ) LENGTH_UNIT ( ) NAMED_UNIT ( #144 ) );
#152 = PRESENTATION_LAYER_ASSIGNMENT (  '', '', ( #361 ) ) ;
#153 = ORIENTED_EDGE ( 'NONE', *, *, #282, .T. ) ;
#154 = SPHERICAL_SURFACE ( 'NONE', #182, 0.1250000000000000000 ) ;
#155 =( NAMED_UNIT ( * ) SI_UNIT ( $, .STERADIAN. ) SOLID_ANGLE_UNIT ( ) );
#156 = ORIENTED_EDGE ( 'NONE', *, *, #124, .F. ) ;
#157 = CARTESIAN_POINT ( 'NONE',  ( 0.1249999999999999306, 2.500000000000000000, 0.000000000000000000 ) ) ;
#158 = ORIENTED_EDGE ( 'NONE', *, *, #354, .F. ) ;
#159 = PRODUCT_DEFINITION_CONTEXT ( 'detailed design', #170, 'design' ) ;
#160 = CYLINDRICAL_SURFACE ( 'NONE', #283, 0.1249999999999998335 ) ;
#161 = PRODUCT_DEFINITION_FORMATION_WITH_SPECIFIED_SOURCE ( 'ANY', '', #284, .NOT_KNOWN. ) ;
#162 =( CONVERSION_BASED_UNIT ( 'INCH', #360 ) LENGTH_UNIT ( ) NAMED_UNIT ( #287 ) );
#163 = FACE_OUTER_BOUND ( 'NONE', #78, .T. ) ;
#164 = ADVANCED_FACE ( 'NONE', ( #318 ), #117, .T. ) ;
#165 = CARTESIAN_POINT ( 'NONE',  ( 0.000000000000000000, 0.1250000000000000278, 0.000000000000000000 ) ) ;
#166 =( NAMED_UNIT ( * ) SI_UNIT ( $, .STERADIAN. ) SOLID_ANGLE_UNIT ( ) );
#167 = ADVANCED_FACE ( 'NONE', ( #173 ), #202, .T. ) ;
#168 = CYLINDRICAL_SURFACE ( 'NONE', #221, 0.1249999999999999306 ) ;
#169 = DIRECTION ( 'NONE',  ( -1.000000000000000000, 0.000000000000000000, 0.000000000000000000 ) ) ;
#170 = APPLICATION_CONTEXT ( 'automotive_design' ) ;
#171 = PRESENTATION_LAYER_ASSIGNMENT (  '', '', ( #263 ) ) ;
#172 = DIRECTION ( 'NONE',  ( 0.000000000000000000, 0.000000000000000000, 1.000000000000000000 ) ) ;
#173 = FACE_OUTER_BOUND ( 'NONE', #104, .T. ) ;
#174 = STYLED_ITEM ( 'NONE', ( #356 ), #164 ) ;
#175 = EDGE_LOOP ( 'NONE', ( #72, #46 ) ) ;
#176 = EDGE_CURVE ( 'NONE', #359, #335, #34, .T. ) ;
#177 = DIRECTION ( 'NONE',  ( -1.000000000000000000, 0.000000000000000000, 0.000000000000000000 ) ) ;
#178 = LINE ( 'NONE', #336, #312 ) ;
#179 = DIRECTION ( 'NONE',  ( 0.000000000000000000, 1.000000000000000000, 0.000000000000000000 ) ) ;
#180 = AXIS2_PLACEMENT_3D ( 'NONE', #193, #29, #345 ) ;
#181 =( NAMED_UNIT ( * ) PLANE_ANGLE_UNIT ( ) SI_UNIT ( $, .RADIAN. ) );
#182 = AXIS2_PLACEMENT_3D ( 'NONE', #239, #303, #300 ) ;
#183 = EDGE_LOOP ( 'NONE', ( #146, #214, #102, #237, #128 ) ) ;
#184 = ORIENTED_EDGE ( 'NONE', *, *, #265, .F. ) ;
#185 = DIRECTION ( 'NONE',  ( 1.574545884618025482E-16, -1.000000000000000000, 0.000000000000000000 ) ) ;
#186 = VERTEX_POINT ( 'NONE', #205 ) ;
#187 = AXIS2_PLACEMENT_3D ( 'NONE', #321, #325, #63 ) ;
#188 = APPLICATION_PROTOCOL_DEFINITION ( 'draft international standard', 'automotive_design', 1998, #211 ) ;
#189 = DIRECTION ( 'NONE',  ( -0.000000000000000000, -1.000000000000000000, -0.000000000000000000 ) ) ;
#190 = EDGE_CURVE ( 'NONE', #38, #335, #305, .T. ) ;
#191 =( NAMED_UNIT ( * ) SI_UNIT ( $, .STERADIAN. ) SOLID_ANGLE_UNIT ( ) );
#192 = DIRECTION ( 'NONE',  ( 0.000000000000000000, 0.000000000000000000, -1.000000000000000000 ) ) ;
#193 = CARTESIAN_POINT ( 'NONE',  ( 2.143131898507868297E-16, 0.7499999999999998890, 0.000000000000000000 ) ) ;
#194 = FILL_AREA_STYLE ('',( #337 ) ) ;
#195 = DIRECTION ( 'NONE',  ( -1.000000000000000000, 0.000000000000000000, 0.000000000000000000 ) ) ;
#196 = EDGE_CURVE ( 'NONE', #106, #122, #213, .T. ) ;
#197 = DIRECTION ( 'NONE',  ( -1.574545884618025482E-16, 1.000000000000000000, -0.000000000000000000 ) ) ;
#198 = CIRCLE ( 'NONE', #240, 0.1249999999999999029 ) ;
#199 = DIMENSIONAL_EXPONENTS ( 1.000000000000000000, 0.000000000000000000, 0.000000000000000000, 0.000000000000000000, 0.000000000000000000, 0.000000000000000000, 0.000000000000000000 ) ;
#200 = AXIS2_PLACEMENT_3D ( 'NONE', #281, #55, #169 ) ;
#201 = DIMENSIONAL_EXPONENTS ( 1.000000000000000000, 0.000000000000000000, 0.000000000000000000, 0.000000000000000000, 0.000000000000000000, 0.000000000000000000, 0.000000000000000000 ) ;
#202 = CYLINDRICAL_SURFACE ( 'NONE', #95, 0.1249999999999998335 ) ;
#203 =( LENGTH_UNIT ( ) NAMED_UNIT ( * ) SI_UNIT ( $, .METRE. ) );
#204 = ORIENTED_EDGE ( 'NONE', *, *, #176, .F. ) ;
#205 = CARTESIAN_POINT ( 'NONE',  ( 0.000000000000000000, 0.1250000000000000278, -0.1249999999999999584 ) ) ;
#206 = CIRCLE ( 'NONE', #99, 0.1249999999999999584 ) ;
#207 = DIRECTION ( 'NONE',  ( 0.000000000000000000, 0.000000000000000000, -1.000000000000000000 ) ) ;
#208 = ORIENTED_EDGE ( 'NONE', *, *, #92, .T. ) ;
#209 = SURFACE_STYLE_FILL_AREA ( #37 ) ;
#210 = FILL_AREA_STYLE ('',( #220 ) ) ;
#211 = APPLICATION_CONTEXT ( 'automotive_design' ) ;
#212 = SURFACE_STYLE_USAGE ( .BOTH. , #372 ) ;
#213 = CIRCLE ( 'NONE', #187, 0.1249999999999999029 ) ;
#214 = ORIENTED_EDGE ( 'NONE', *, *, #138, .T. ) ;
#215 =( NAMED_UNIT ( * ) PLANE_ANGLE_UNIT ( ) SI_UNIT ( $, .RADIAN. ) );
#216 = MECHANICAL_DESIGN_GEOMETRIC_PRESENTATION_REPRESENTATION (  '', ( #289 ), #113 ) ;
#217 = CARTESIAN_POINT ( 'NONE',  ( -1.530808498934191509E-17, 0.1250000000000000000, 0.000000000000000000 ) ) ;
#218 = ORIENTED_EDGE ( 'NONE', *, *, #190, .F. ) ;
#219 = PRESENTATION_STYLE_ASSIGNMENT (( #27 ) ) ;
#220 = FILL_AREA_STYLE_COLOUR ( '', #135 ) ;
#221 = AXIS2_PLACEMENT_3D ( 'NONE', #54, #278, #192 ) ;
#222 =( GEOMETRIC_REPRESENTATION_CONTEXT ( 3 ) GLOBAL_UNCERTAINTY_ASSIGNED_CONTEXT ( ( #130 ) ) GLOBAL_UNIT_ASSIGNED_CONTEXT ( ( #232, #181, #155 ) ) REPRESENTATION_CONTEXT ( 'NONE', 'WORKASPACE' ) );
#223 = MECHANICAL_DESIGN_GEOMETRIC_PRESENTATION_REPRESENTATION (  '', ( #174 ), #53 ) ;
#224 = CARTESIAN_POINT ( 'NONE',  ( -0.1249999999999994726, 0.7499999999999998890, 0.000000000000000000 ) ) ;
#225 = LINE ( 'NONE', #90, #83 ) ;
#226 = DIRECTION ( 'NONE',  ( -0.000000000000000000, -1.000000000000000000, -0.000000000000000000 ) ) ;
#227 = CARTESIAN_POINT ( 'NONE',  ( -6.123233995736766036E-17, 2.500000000000000000, 0.000000000000000000 ) ) ;
#228 = DIMENSIONAL_EXPONENTS ( 1.000000000000000000, 0.000000000000000000, 0.000000000000000000, 0.000000000000000000, 0.000000000000000000, 0.000000000000000000, 0.000000000000000000 ) ;
#229 = CARTESIAN_POINT ( 'NONE',  ( -6.123233995736766036E-17, 2.500000000000000000, 0.000000000000000000 ) ) ;
#230 = EDGE_LOOP ( 'NONE', ( #355, #322 ) ) ;
#231 = STYLED_ITEM ( 'NONE', ( #362 ), #268 ) ;
#232 =( CONVERSION_BASED_UNIT ( 'INCH', #123 ) LENGTH_UNIT ( ) NAMED_UNIT ( #250 ) );
#233 = UNCERTAINTY_MEASURE_WITH_UNIT (LENGTH_MEASURE( 1.000000000000000082E-05 ), #79, 'distance_accuracy_value', 'NONE');
#234 = VERTEX_POINT ( 'NONE', #323 ) ;
#235 =( NAMED_UNIT ( * ) SI_UNIT ( $, .STERADIAN. ) SOLID_ANGLE_UNIT ( ) );
#236 = DIRECTION ( 'NONE',  ( 1.000000000000000000, 0.000000000000000000, -1.224646799147353207E-16 ) ) ;
#237 = ORIENTED_EDGE ( 'NONE', *, *, #310, .F. ) ;
#238 = UNCERTAINTY_MEASURE_WITH_UNIT (LENGTH_MEASURE( 1.000000000000000082E-05 ), #319, 'distance_accuracy_value', 'NONE');
#239 = CARTESIAN_POINT ( 'NONE',  ( -1.530808498934191509E-17, 0.1250000000000000000, 0.000000000000000000 ) ) ;
#240 = AXIS2_PLACEMENT_3D ( 'NONE', #350, #373, #7 ) ;
#241 = ORIENTED_EDGE ( 'NONE', *, *, #265, .T. ) ;
#242 = DIRECTION ( 'NONE',  ( -1.574545884618025482E-16, 1.000000000000000000, -0.000000000000000000 ) ) ;
#243 = CARTESIAN_POINT ( 'NONE',  ( -0.1250000000000000555, 2.500000000000000000, 0.000000000000000000 ) ) ;
#244 = LENGTH_MEASURE_WITH_UNIT ( LENGTH_MEASURE( 0.02539999999999999897 ), #22 );
#245 = SURFACE_STYLE_FILL_AREA ( #26 ) ;
#246 = PRESENTATION_STYLE_ASSIGNMENT (( #45 ) ) ;
#247 = CLOSED_SHELL ( 'NONE', ( #23, #62, #167, #68 ) ) ;
#248 = LENGTH_MEASURE_WITH_UNIT ( LENGTH_MEASURE( 0.02539999999999999897 ), #309 );
#249 = DIRECTION ( 'NONE',  ( 0.000000000000000000, 0.000000000000000000, -1.000000000000000000 ) ) ;
#250 = DIMENSIONAL_EXPONENTS ( 1.000000000000000000, 0.000000000000000000, 0.000000000000000000, 0.000000000000000000, 0.000000000000000000, 0.000000000000000000, 0.000000000000000000 ) ;
#251 = AXIS2_PLACEMENT_3D ( 'NONE', #301, #330, #50 ) ;
#252 = CIRCLE ( 'NONE', #357, 0.1249999999999999584 ) ;
#253 = ADVANCED_FACE ( 'NONE', ( #145 ), #154, .T. ) ;
#254 = CARTESIAN_POINT ( 'NONE',  ( 0.1249999999999999306, 2.500000000000000000, 1.530808498934190276E-17 ) ) ;
#255 = CIRCLE ( 'NONE', #3, 0.1249999999999999584 ) ;
#256 = CARTESIAN_POINT ( 'NONE',  ( 0.1249999999999997641, 2.500000000000000000, 1.530808498934189352E-17 ) ) ;
#257 = FILL_AREA_STYLE ('',( #290 ) ) ;
#258 = ORIENTED_EDGE ( 'NONE', *, *, #114, .T. ) ;
#259 =( LENGTH_UNIT ( ) NAMED_UNIT ( * ) SI_UNIT ( $, .METRE. ) );
#260 = VECTOR ( 'NONE', #119, 39.37007874015748143 ) ;
#261 =( LENGTH_UNIT ( ) NAMED_UNIT ( * ) SI_UNIT ( $, .METRE. ) );
#262 = ORIENTED_EDGE ( 'NONE', *, *, #371, .F. ) ;
#263 = STYLED_ITEM ( 'NONE', ( #219 ), #48 ) ;
#264 = PLANE ( 'NONE',  #316 ) ;
#265 = EDGE_CURVE ( 'NONE', #96, #38, #178, .T. ) ;
#266 = UNCERTAINTY_MEASURE_WITH_UNIT (LENGTH_MEASURE( 1.000000000000000082E-05 ), #162, 'distance_accuracy_value', 'NONE');
#267 = ORIENTED_EDGE ( 'NONE', *, *, #371, .T. ) ;
#268 = ADVANCED_FACE ( 'NONE', ( #21 ), #264, .T. ) ;
#269 = SURFACE_STYLE_FILL_AREA ( #304 ) ;
#270 = COLOUR_RGB ( '',0.7921568627450980005, 0.8196078431372548767, 0.9333333333333333481 ) ;
#271 = MECHANICAL_DESIGN_GEOMETRIC_PRESENTATION_REPRESENTATION (  '', ( #361 ), #30 ) ;
#272 =( NAMED_UNIT ( * ) SI_UNIT ( $, .STERADIAN. ) SOLID_ANGLE_UNIT ( ) );
#273 = FILL_AREA_STYLE_COLOUR ( '', #270 ) ;
#274 = SURFACE_SIDE_STYLE ('',( #269 ) ) ;
#275 =( LENGTH_UNIT ( ) NAMED_UNIT ( * ) SI_UNIT ( $, .METRE. ) );
#276 = CARTESIAN_POINT ( 'NONE',  ( -6.123233995736766036E-17, 2.500000000000000000, 0.000000000000000000 ) ) ;
#277 = CIRCLE ( 'NONE', #308, 0.1249999999999996947 ) ;
#278 = DIRECTION ( 'NONE',  ( -0.000000000000000000, -1.000000000000000000, -0.000000000000000000 ) ) ;
#279 = FILL_AREA_STYLE_COLOUR ( '', #35 ) ;
#280 = COLOUR_RGB ( '',1.000000000000000000, 0.000000000000000000, 0.000000000000000000 ) ;
#281 = CARTESIAN_POINT ( 'NONE',  ( -1.530808498934191509E-17, 0.1250000000000000000, 0.000000000000000000 ) ) ;
#282 = EDGE_CURVE ( 'NONE', #234, #302, #291, .T. ) ;
#283 = AXIS2_PLACEMENT_3D ( 'NONE', #20, #197, #82 ) ;
#284 = PRODUCT ( '81926', '81926', '', ( #320 ) ) ;
#285 = SURFACE_STYLE_FILL_AREA ( #98 ) ;
#286 = SURFACE_SIDE_STYLE ('',( #209 ) ) ;
#287 = DIMENSIONAL_EXPONENTS ( 1.000000000000000000, 0.000000000000000000, 0.000000000000000000, 0.000000000000000000, 0.000000000000000000, 0.000000000000000000, 0.000000000000000000 ) ;
#288 = CARTESIAN_POINT ( 'NONE',  ( -1.530808498934191509E-17, 0.1250000000000000000, 0.000000000000000000 ) ) ;
#289 = STYLED_ITEM ( 'NONE', ( #75 ), #32 ) ;
#290 = FILL_AREA_STYLE_COLOUR ( '', #280 ) ;
#291 = CIRCLE ( 'NONE', #36, 0.1250000000000000000 ) ;
#292 = ORIENTED_EDGE ( 'NONE', *, *, #103, .T. ) ;
#293 = ORIENTED_EDGE ( 'NONE', *, *, #138, .F. ) ;
#294 = SURFACE_STYLE_FILL_AREA ( #257 ) ;
#295 = DIRECTION ( 'NONE',  ( -0.000000000000000000, -1.000000000000000000, -0.000000000000000000 ) ) ;
#296 = EDGE_LOOP ( 'NONE', ( #43, #153, #129, #208 ) ) ;
#297 = CIRCLE ( 'NONE', #180, 0.1249999999999996947 ) ;
#298 = DIRECTION ( 'NONE',  ( -0.000000000000000000, -1.000000000000000000, -0.000000000000000000 ) ) ;
#299 = ORIENTED_EDGE ( 'NONE', *, *, #127, .F. ) ;
#300 = DIRECTION ( 'NONE',  ( 1.000000000000000000, 0.000000000000000000, 0.000000000000000000 ) ) ;
#301 = CARTESIAN_POINT ( 'NONE',  ( 2.143131898507868297E-16, 0.7500000000000001110, 0.000000000000000000 ) ) ;
#302 = VERTEX_POINT ( 'NONE', #31 ) ;
#303 = DIRECTION ( 'NONE',  ( 0.000000000000000000, 0.000000000000000000, 1.000000000000000000 ) ) ;
#304 = FILL_AREA_STYLE ('',( #273 ) ) ;
#305 = CIRCLE ( 'NONE', #139, 0.1250000000000000000 ) ;
#306 =( NAMED_UNIT ( * ) PLANE_ANGLE_UNIT ( ) SI_UNIT ( $, .RADIAN. ) );
#307 = STYLED_ITEM ( 'NONE', ( #246 ), #77 ) ;
#308 = AXIS2_PLACEMENT_3D ( 'NONE', #66, #13, #177 ) ;
#309 =( LENGTH_UNIT ( ) NAMED_UNIT ( * ) SI_UNIT ( $, .METRE. ) );
#310 = EDGE_CURVE ( 'NONE', #186, #17, #252, .T. ) ;
#311 = PRESENTATION_LAYER_ASSIGNMENT (  '', '', ( #307 ) ) ;
#312 = VECTOR ( 'NONE', #242, 39.37007874015748143 ) ;
#313 = LENGTH_MEASURE_WITH_UNIT ( LENGTH_MEASURE( 0.02539999999999999897 ), #275 );
#314 = DIRECTION ( 'NONE',  ( 0.000000000000000000, 0.000000000000000000, -1.000000000000000000 ) ) ;
#315 = CLOSED_SHELL ( 'NONE', ( #253, #48, #268, #32, #164 ) ) ;
#316 = AXIS2_PLACEMENT_3D ( 'NONE', #60, #179, #317 ) ;
#317 = DIRECTION ( 'NONE',  ( 0.000000000000000000, -0.000000000000000000, 1.000000000000000000 ) ) ;
#318 = FACE_OUTER_BOUND ( 'NONE', #150, .T. ) ;
#319 =( CONVERSION_BASED_UNIT ( 'INCH', #39 ) LENGTH_UNIT ( ) NAMED_UNIT ( #342 ) );
#320 = PRODUCT_CONTEXT ( 'NONE', #211, 'mechanical' ) ;
#321 = CARTESIAN_POINT ( 'NONE',  ( 0.000000000000000000, 0.7500000000000001110, 0.000000000000000000 ) ) ;
#322 = ORIENTED_EDGE ( 'NONE', *, *, #133, .F. ) ;
#323 = CARTESIAN_POINT ( 'NONE',  ( -0.1250000000000000000, 0.1250000000000000278, 1.530808498934191201E-17 ) ) ;
#324 = PRESENTATION_STYLE_ASSIGNMENT (( #212 ) ) ;
#325 = DIRECTION ( 'NONE',  ( -0.000000000000000000, -1.000000000000000000, -0.000000000000000000 ) ) ;
#326 = MANIFOLD_SOLID_BREP ( 'Revolve - Tool Body (Straight Shanked)', #247 ) ;
#327 = SURFACE_SIDE_STYLE ('',( #358 ) ) ;
#328 = AXIS2_PLACEMENT_3D ( 'NONE', #288, #172, #349 ) ;
#329 =( LENGTH_UNIT ( ) NAMED_UNIT ( * ) SI_UNIT ( $, .METRE. ) );
#330 = DIRECTION ( 'NONE',  ( -1.574545884618025482E-16, 1.000000000000000000, 0.000000000000000000 ) ) ;
#331 = ORIENTED_EDGE ( 'NONE', *, *, #176, .T. ) ;
#332 = DIRECTION ( 'NONE',  ( 0.000000000000000000, 0.000000000000000000, -1.000000000000000000 ) ) ;
#333 =( LENGTH_UNIT ( ) NAMED_UNIT ( * ) SI_UNIT ( $, .METRE. ) );
#334 = MECHANICAL_DESIGN_GEOMETRIC_PRESENTATION_REPRESENTATION (  '', ( #109 ), #339 ) ;
#335 = VERTEX_POINT ( 'NONE', #254 ) ;
#336 = CARTESIAN_POINT ( 'NONE',  ( -0.1249999999999999029, 2.500000000000000000, 0.000000000000000000 ) ) ;
#337 = FILL_AREA_STYLE_COLOUR ( '', #12 ) ;
#338 =( CONVERSION_BASED_UNIT ( 'INCH', #313 ) LENGTH_UNIT ( ) NAMED_UNIT ( #147 ) );
#339 =( GEOMETRIC_REPRESENTATION_CONTEXT ( 3 ) GLOBAL_UNCERTAINTY_ASSIGNED_CONTEXT ( ( #266 ) ) GLOBAL_UNIT_ASSIGNED_CONTEXT ( ( #162, #73, #235 ) ) REPRESENTATION_CONTEXT ( 'NONE', 'WORKASPACE' ) );
#340 = SURFACE_SIDE_STYLE ('',( #245 ) ) ;
#341 =( GEOMETRIC_REPRESENTATION_CONTEXT ( 3 ) GLOBAL_UNCERTAINTY_ASSIGNED_CONTEXT ( ( #149 ) ) GLOBAL_UNIT_ASSIGNED_CONTEXT ( ( #368, #81, #166 ) ) REPRESENTATION_CONTEXT ( 'NONE', 'WORKASPACE' ) );
#342 = DIMENSIONAL_EXPONENTS ( 1.000000000000000000, 0.000000000000000000, 0.000000000000000000, 0.000000000000000000, 0.000000000000000000, 0.000000000000000000, 0.000000000000000000 ) ;
#343 = CARTESIAN_POINT ( 'NONE',  ( 0.000000000000000000, 0.7500000000000001110, -0.1249999999999999029 ) ) ;
#344 = PRODUCT_RELATED_PRODUCT_CATEGORY ( 'part', '', ( #284 ) ) ;
#345 = DIRECTION ( 'NONE',  ( -1.000000000000000000, 0.000000000000000000, 0.000000000000000000 ) ) ;
#346 =( NAMED_UNIT ( * ) SI_UNIT ( $, .STERADIAN. ) SOLID_ANGLE_UNIT ( ) );
#347 = VECTOR ( 'NONE', #56, 39.37007874015748143 ) ;
#348 = MECHANICAL_DESIGN_GEOMETRIC_PRESENTATION_REPRESENTATION (  '', ( #231 ), #89 ) ;
#349 = DIRECTION ( 'NONE',  ( 1.000000000000000000, 0.000000000000000000, 0.000000000000000000 ) ) ;
#350 = CARTESIAN_POINT ( 'NONE',  ( 0.000000000000000000, 0.7500000000000001110, 0.000000000000000000 ) ) ;
#351 = CYLINDRICAL_SURFACE ( 'NONE', #64, 0.1249999999999999306 ) ;
#352 = SURFACE_STYLE_USAGE ( .BOTH. , #5 ) ;
#353 = CARTESIAN_POINT ( 'NONE',  ( 0.1249999999999999167, 0.7499999999999998890, 1.530808498934190276E-17 ) ) ;
#354 = EDGE_CURVE ( 'NONE', #11, #234, #70, .T. ) ;
#355 = ORIENTED_EDGE ( 'NONE', *, *, #196, .F. ) ;
#356 = PRESENTATION_STYLE_ASSIGNMENT (( #97 ) ) ;
#357 = AXIS2_PLACEMENT_3D ( 'NONE', #140, #295, #207 ) ;
#358 = SURFACE_STYLE_FILL_AREA ( #210 ) ;
#359 = VERTEX_POINT ( 'NONE', #353 ) ;
#360 = LENGTH_MEASURE_WITH_UNIT ( LENGTH_MEASURE( 0.02539999999999999897 ), #259 );
#361 = STYLED_ITEM ( 'NONE', ( #324 ), #326 ) ;
#362 = PRESENTATION_STYLE_ASSIGNMENT (( #14 ) ) ;
#363 = FACE_OUTER_BOUND ( 'NONE', #183, .T. ) ;
#364 =( CONVERSION_BASED_UNIT ( 'INCH', #244 ) LENGTH_UNIT ( ) NAMED_UNIT ( #228 ) );
#365 = CARTESIAN_POINT ( 'NONE',  ( 0.1249999999999999584, 0.1250000000000000278, 0.000000000000000000 ) ) ;
#366 = MECHANICAL_DESIGN_GEOMETRIC_PRESENTATION_REPRESENTATION (  '', ( #307 ), #88 ) ;
#367 = COLOUR_RGB ( '',0.7921568627450980005, 0.8196078431372548767, 0.9333333333333333481 ) ;
#368 =( CONVERSION_BASED_UNIT ( 'INCH', #248 ) LENGTH_UNIT ( ) NAMED_UNIT ( #201 ) );
#369 = DIRECTION ( 'NONE',  ( -1.574545884618025482E-16, 1.000000000000000000, -0.000000000000000000 ) ) ;
#370 = SURFACE_STYLE_USAGE ( .BOTH. , #110 ) ;
#371 = EDGE_CURVE ( 'NONE', #96, #359, #277, .T. ) ;
#372 = SURFACE_SIDE_STYLE ('',( #285 ) ) ;
#373 = DIRECTION ( 'NONE',  ( -0.000000000000000000, -1.000000000000000000, -0.000000000000000000 ) ) ;
ENDSEC;
END-ISO-10303-21;
