ISO-10303-21;
HEADER;
FILE_DESCRIPTION (( 'STEP AP214' ),
    '1' );
FILE_NAME ('59724.STEP',
    '2023-07-24T15:29:16',
    ( '' ),
    ( '' ),
    'SwSTEP 2.0',
    'SolidWorks 2023',
    '' );
FILE_SCHEMA (( 'AUTOMOTIVE_DESIGN' ));
ENDSEC;

DATA;
#1 = DIRECTION ( 'NONE',  ( 0.000000000000000000, 0.000000000000000000, -1.000000000000000000 ) ) ;
#2 = DIRECTION ( 'NONE',  ( 0.000000000000000000, 0.000000000000000000, -1.000000000000000000 ) ) ;
#3 = SURFACE_STYLE_USAGE ( .BOTH. , #359 ) ;
#4 =( GEOMETRIC_REPRESENTATION_CONTEXT ( 3 ) GLOBAL_UNCERTAINTY_ASSIGNED_CONTEXT ( ( #77 ) ) GLOBAL_UNIT_ASSIGNED_CONTEXT ( ( #166, #342, #314 ) ) REPRESENTATION_CONTEXT ( 'NONE', 'WORKASPACE' ) );
#5 = AXIS2_PLACEMENT_3D ( 'NONE', #304, #78, #181 ) ;
#6 = SURFACE_STYLE_USAGE ( .BOTH. , #370 ) ;
#7 = FILL_AREA_STYLE_COLOUR ( '', #320 ) ;
#8 = CARTESIAN_POINT ( 'NONE',  ( -1.714505518806293849E-15, 89.00000000000000000, 0.000000000000000000 ) ) ;
#9 = ADVANCED_FACE ( 'NONE', ( #47 ), #138, .T. ) ;
#10 = ORIENTED_EDGE ( 'NONE', *, *, #339, .T. ) ;
#11 = AXIS2_PLACEMENT_3D ( 'NONE', #195, #148, #291 ) ;
#12 = CARTESIAN_POINT ( 'NONE',  ( 0.000000000000000000, 0.000000000000000000, 0.000000000000000000 ) ) ;
#13 = APPLICATION_CONTEXT ( 'automotive_design' ) ;
#14 = ORIENTED_EDGE ( 'NONE', *, *, #140, .F. ) ;
#15 = SURFACE_STYLE_FILL_AREA ( #125 ) ;
#16 = ORIENTED_EDGE ( 'NONE', *, *, #223, .T. ) ;
#17 =( NAMED_UNIT ( * ) SI_UNIT ( $, .STERADIAN. ) SOLID_ANGLE_UNIT ( ) );
#18 = ORIENTED_EDGE ( 'NONE', *, *, #339, .F. ) ;
#19 = ADVANCED_FACE ( 'NONE', ( #222 ), #331, .T. ) ;
#20 = DIRECTION ( 'NONE',  ( -1.576935716305902603E-16, 1.000000000000000000, -0.000000000000000000 ) ) ;
#21 = MECHANICAL_DESIGN_GEOMETRIC_PRESENTATION_REPRESENTATION (  '', ( #142 ), #206 ) ;
#22 = VERTEX_POINT ( 'NONE', #25 ) ;
#23 = CARTESIAN_POINT ( 'NONE',  ( 0.000000000000000000, 1.000000000000000000, 0.000000000000000000 ) ) ;
#24 = EDGE_CURVE ( 'NONE', #102, #303, #26, .T. ) ;
#25 = CARTESIAN_POINT ( 'NONE',  ( 0.000000000000000000, 30.00000000000000000, -10.00000000000000000 ) ) ;
#26 = CIRCLE ( 'NONE', #308, 10.00000000000000178 ) ;
#27 = PRESENTATION_LAYER_ASSIGNMENT (  '', '', ( #289 ) ) ;
#28 = SURFACE_STYLE_FILL_AREA ( #107 ) ;
#29 =( GEOMETRIC_REPRESENTATION_CONTEXT ( 3 ) GLOBAL_UNCERTAINTY_ASSIGNED_CONTEXT ( ( #216 ) ) GLOBAL_UNIT_ASSIGNED_CONTEXT ( ( #322, #115, #362 ) ) REPRESENTATION_CONTEXT ( 'NONE', 'WORKASPACE' ) );
#30 = AXIS2_PLACEMENT_3D ( 'NONE', #251, #88, #167 ) ;
#31 = DIRECTION ( 'NONE',  ( -0.000000000000000000, -1.000000000000000000, -0.000000000000000000 ) ) ;
#32 = FILL_AREA_STYLE_COLOUR ( '', #134 ) ;
#33 = AXIS2_PLACEMENT_3D ( 'NONE', #350, #118, #69 ) ;
#34 = FACE_OUTER_BOUND ( 'NONE', #242, .T. ) ;
#35 = FILL_AREA_STYLE ('',( #7 ) ) ;
#36 = ADVANCED_FACE ( 'NONE', ( #85 ), #221, .T. ) ;
#37 = CARTESIAN_POINT ( 'NONE',  ( 1.224646799147353256E-15, 30.00000000000000000, 10.00000000000000000 ) ) ;
#38 = ORIENTED_EDGE ( 'NONE', *, *, #255, .F. ) ;
#39 = ORIENTED_EDGE ( 'NONE', *, *, #306, .T. ) ;
#40 = COLOUR_RGB ( '',1.000000000000000000, 0.000000000000000000, 0.000000000000000000 ) ;
#41 = DIRECTION ( 'NONE',  ( -1.576935716305902603E-16, 1.000000000000000000, -0.000000000000000000 ) ) ;
#42 = ORIENTED_EDGE ( 'NONE', *, *, #191, .T. ) ;
#43 = SURFACE_SIDE_STYLE ('',( #15 ) ) ;
#44 = CARTESIAN_POINT ( 'NONE',  ( -1.714505518806293652E-15, 89.00000000000000000, 0.000000000000000000 ) ) ;
#45 = APPLICATION_PROTOCOL_DEFINITION ( 'draft international standard', 'automotive_design', 1998, #269 ) ;
#46 = COLOUR_RGB ( '',0.7921568627450980005, 0.8196078431372548767, 0.9333333333333333481 ) ;
#47 = FACE_OUTER_BOUND ( 'NONE', #330, .T. ) ;
#48 = PRESENTATION_STYLE_ASSIGNMENT (( #187 ) ) ;
#49 =( NAMED_UNIT ( * ) PLANE_ANGLE_UNIT ( ) SI_UNIT ( $, .RADIAN. ) );
#50 = DIRECTION ( 'NONE',  ( 0.000000000000000000, 0.000000000000000000, -1.000000000000000000 ) ) ;
#51 = DIRECTION ( 'NONE',  ( 0.000000000000000000, -0.000000000000000000, 1.000000000000000000 ) ) ;
#52 = PRESENTATION_LAYER_ASSIGNMENT (  '', '', ( #158 ) ) ;
#53 = EDGE_CURVE ( 'NONE', #22, #303, #361, .T. ) ;
#54 = UNCERTAINTY_MEASURE_WITH_UNIT (LENGTH_MEASURE( 1.000000000000000082E-05 ), #144, 'distance_accuracy_value', 'NONE');
#55 = CARTESIAN_POINT ( 'NONE',  ( 1.224646799147353454E-15, 0.000000000000000000, 10.00000000000000178 ) ) ;
#56 = FILL_AREA_STYLE ('',( #32 ) ) ;
#57 = SHAPE_DEFINITION_REPRESENTATION ( #263, #220 ) ;
#58 =( GEOMETRIC_REPRESENTATION_CONTEXT ( 3 ) GLOBAL_UNCERTAINTY_ASSIGNED_CONTEXT ( ( #358 ) ) GLOBAL_UNIT_ASSIGNED_CONTEXT ( ( #139, #119, #317 ) ) REPRESENTATION_CONTEXT ( 'NONE', 'WORKASPACE' ) );
#59 = SURFACE_STYLE_USAGE ( .BOTH. , #264 ) ;
#60 = EDGE_CURVE ( 'NONE', #177, #22, #229, .T. ) ;
#61 = PRESENTATION_STYLE_ASSIGNMENT (( #199 ) ) ;
#62 = SURFACE_SIDE_STYLE ('',( #347 ) ) ;
#63 = PRESENTATION_STYLE_ASSIGNMENT (( #59 ) ) ;
#64 = TOROIDAL_SURFACE ( 'NONE', #11, 9.000000000000001776, 1.000000000000000444 ) ;
#65 = CIRCLE ( 'NONE', #241, 1.000000000000000888 ) ;
#66 = ORIENTED_EDGE ( 'NONE', *, *, #248, .F. ) ;
#67 = DIRECTION ( 'NONE',  ( 1.000000000000000000, 0.000000000000000000, -1.224646799147353207E-16 ) ) ;
#68 = EDGE_LOOP ( 'NONE', ( #124, #66 ) ) ;
#69 = DIRECTION ( 'NONE',  ( 0.000000000000000000, 0.000000000000000000, -1.000000000000000000 ) ) ;
#70 = PRESENTATION_LAYER_ASSIGNMENT (  '', '', ( #256 ) ) ;
#71 = ORIENTED_EDGE ( 'NONE', *, *, #248, .T. ) ;
#72 = CIRCLE ( 'NONE', #349, 9.999999999999992895 ) ;
#73 = VERTEX_POINT ( 'NONE', #198 ) ;
#74 =( NAMED_UNIT ( * ) PLANE_ANGLE_UNIT ( ) SI_UNIT ( $, .RADIAN. ) );
#75 = CYLINDRICAL_SURFACE ( 'NONE', #146, 9.999999999999998224 ) ;
#76 = CARTESIAN_POINT ( 'NONE',  ( 7.589415207398531038E-15, 30.00000000000000000, 0.000000000000000000 ) ) ;
#77 = UNCERTAINTY_MEASURE_WITH_UNIT (LENGTH_MEASURE( 1.000000000000000082E-05 ), #166, 'distance_accuracy_value', 'NONE');
#78 = DIRECTION ( 'NONE',  ( -1.576935716305902603E-16, 1.000000000000000000, 0.000000000000000000 ) ) ;
#79 = EDGE_CURVE ( 'NONE', #22, #177, #299, .T. ) ;
#80 = DIRECTION ( 'NONE',  ( 0.000000000000000000, 0.000000000000000000, 1.000000000000000000 ) ) ;
#81 = DIRECTION ( 'NONE',  ( 0.000000000000000000, 1.000000000000000000, 0.000000000000000000 ) ) ;
#82 =( GEOMETRIC_REPRESENTATION_CONTEXT ( 3 ) GLOBAL_UNCERTAINTY_ASSIGNED_CONTEXT ( ( #277 ) ) GLOBAL_UNIT_ASSIGNED_CONTEXT ( ( #189, #250, #332 ) ) REPRESENTATION_CONTEXT ( 'NONE', 'WORKASPACE' ) );
#83 = SURFACE_STYLE_USAGE ( .BOTH. , #219 ) ;
#84 = DIRECTION ( 'NONE',  ( 1.576935716305902603E-16, -1.000000000000000000, 0.000000000000000000 ) ) ;
#85 = FACE_OUTER_BOUND ( 'NONE', #267, .T. ) ;
#86 = VECTOR ( 'NONE', #31, 1000.000000000000000 ) ;
#87 =( LENGTH_UNIT ( ) NAMED_UNIT ( * ) SI_UNIT ( .MILLI., .METRE. ) );
#88 = DIRECTION ( 'NONE',  ( 0.000000000000000000, 0.000000000000000000, 1.000000000000000000 ) ) ;
#89 = UNCERTAINTY_MEASURE_WITH_UNIT (LENGTH_MEASURE( 1.000000000000000082E-05 ), #213, 'distance_accuracy_value', 'NONE');
#90 = CARTESIAN_POINT ( 'NONE',  ( 0.000000000000000000, 0.000000000000000000, -10.00000000000000178 ) ) ;
#91 = ADVANCED_FACE ( 'NONE', ( #190 ), #64, .T. ) ;
#92 = AXIS2_PLACEMENT_3D ( 'NONE', #313, #282, #50 ) ;
#93 = DIRECTION ( 'NONE',  ( -1.000000000000000000, 0.000000000000000000, 0.000000000000000000 ) ) ;
#94 = CARTESIAN_POINT ( 'NONE',  ( 10.00000000000000000, 89.00000000000000000, 1.224646799147353256E-15 ) ) ;
#95 = PRESENTATION_LAYER_ASSIGNMENT (  '', '', ( #157 ) ) ;
#96 = AXIS2_PLACEMENT_3D ( 'NONE', #245, #183, #150 ) ;
#97 = DIRECTION ( 'NONE',  ( -1.000000000000000000, 0.000000000000000000, 0.000000000000000000 ) ) ;
#98 = ORIENTED_EDGE ( 'NONE', *, *, #120, .T. ) ;
#99 = FACE_OUTER_BOUND ( 'NONE', #355, .T. ) ;
#100 = ORIENTED_EDGE ( 'NONE', *, *, #79, .T. ) ;
#101 = MECHANICAL_DESIGN_GEOMETRIC_PRESENTATION_REPRESENTATION (  '', ( #256 ), #200 ) ;
#102 = VERTEX_POINT ( 'NONE', #145 ) ;
#103 = PRESENTATION_LAYER_ASSIGNMENT (  '', '', ( #142 ) ) ;
#104 = CARTESIAN_POINT ( 'NONE',  ( 1.102182119232617911E-15, 1.000000000000000000, 9.000000000000001776 ) ) ;
#105 = ORIENTED_EDGE ( 'NONE', *, *, #223, .F. ) ;
#106 = SURFACE_STYLE_FILL_AREA ( #212 ) ;
#107 = FILL_AREA_STYLE ('',( #334 ) ) ;
#108 = PRODUCT_CONTEXT ( 'NONE', #269, 'mechanical' ) ;
#109 = ADVANCED_FACE ( 'NONE', ( #34 ), #287, .T. ) ;
#110 = UNCERTAINTY_MEASURE_WITH_UNIT (LENGTH_MEASURE( 1.000000000000000082E-05 ), #154, 'distance_accuracy_value', 'NONE');
#111 = CLOSED_SHELL ( 'NONE', ( #163, #214, #109, #315 ) ) ;
#112 = CARTESIAN_POINT ( 'NONE',  ( 0.000000000000000000, 30.00000000000000000, 0.000000000000000000 ) ) ;
#113 = EDGE_CURVE ( 'NONE', #177, #102, #260, .T. ) ;
#114 = DIRECTION ( 'NONE',  ( -1.000000000000000000, 0.000000000000000000, 0.000000000000000000 ) ) ;
#115 =( NAMED_UNIT ( * ) PLANE_ANGLE_UNIT ( ) SI_UNIT ( $, .RADIAN. ) );
#116 = AXIS2_PLACEMENT_3D ( 'NONE', #143, #257, #1 ) ;
#117 = DIRECTION ( 'NONE',  ( -0.000000000000000000, -1.000000000000000000, -0.000000000000000000 ) ) ;
#118 = DIRECTION ( 'NONE',  ( -0.000000000000000000, -1.000000000000000000, -0.000000000000000000 ) ) ;
#119 =( NAMED_UNIT ( * ) PLANE_ANGLE_UNIT ( ) SI_UNIT ( $, .RADIAN. ) );
#120 = EDGE_CURVE ( 'NONE', #239, #246, #141, .T. ) ;
#121 =( GEOMETRIC_REPRESENTATION_CONTEXT ( 3 ) GLOBAL_UNCERTAINTY_ASSIGNED_CONTEXT ( ( #340 ) ) GLOBAL_UNIT_ASSIGNED_CONTEXT ( ( #87, #74, #272 ) ) REPRESENTATION_CONTEXT ( 'NONE', 'WORKASPACE' ) );
#122 = ORIENTED_EDGE ( 'NONE', *, *, #351, .F. ) ;
#123 = DIRECTION ( 'NONE',  ( -1.576935716305902603E-16, 1.000000000000000000, -0.000000000000000000 ) ) ;
#124 = ORIENTED_EDGE ( 'NONE', *, *, #209, .F. ) ;
#125 = FILL_AREA_STYLE ('',( #149 ) ) ;
#126 = MANIFOLD_SOLID_BREP ( 'Revolve - Tool Body (Straight Shanked)', #111 ) ;
#127 =( GEOMETRIC_REPRESENTATION_CONTEXT ( 3 ) GLOBAL_UNCERTAINTY_ASSIGNED_CONTEXT ( ( #110 ) ) GLOBAL_UNIT_ASSIGNED_CONTEXT ( ( #154, #238, #17 ) ) REPRESENTATION_CONTEXT ( 'NONE', 'WORKASPACE' ) );
#128 = EDGE_LOOP ( 'NONE', ( #98, #16 ) ) ;
#129 = SURFACE_STYLE_FILL_AREA ( #278 ) ;
#130 = VERTEX_POINT ( 'NONE', #265 ) ;
#131 = DIRECTION ( 'NONE',  ( -0.000000000000000000, -1.000000000000000000, -0.000000000000000000 ) ) ;
#132 = DIRECTION ( 'NONE',  ( 0.000000000000000000, 0.000000000000000000, -1.000000000000000000 ) ) ;
#133 = FACE_OUTER_BOUND ( 'NONE', #128, .T. ) ;
#134 = COLOUR_RGB ( '',1.000000000000000000, 0.000000000000000000, 0.000000000000000000 ) ;
#135 = SURFACE_STYLE_USAGE ( .BOTH. , #307 ) ;
#136 = AXIS2_PLACEMENT_3D ( 'NONE', #253, #364, #258 ) ;
#137 = CIRCLE ( 'NONE', #96, 10.00000000000000178 ) ;
#138 = PLANE ( 'NONE',  #92 ) ;
#139 =( LENGTH_UNIT ( ) NAMED_UNIT ( * ) SI_UNIT ( .MILLI., .METRE. ) );
#140 = EDGE_CURVE ( 'NONE', #130, #239, #319, .T. ) ;
#141 = CIRCLE ( 'NONE', #341, 10.00000000000000178 ) ;
#142 = STYLED_ITEM ( 'NONE', ( #318 ), #227 ) ;
#143 = CARTESIAN_POINT ( 'NONE',  ( 0.000000000000000000, 30.00000000000000000, 0.000000000000000000 ) ) ;
#144 =( LENGTH_UNIT ( ) NAMED_UNIT ( * ) SI_UNIT ( .MILLI., .METRE. ) );
#145 = CARTESIAN_POINT ( 'NONE',  ( 1.224646799147353256E-15, 1.000000000000000000, 10.00000000000000178 ) ) ;
#146 = AXIS2_PLACEMENT_3D ( 'NONE', #8, #354, #97 ) ;
#147 =( GEOMETRIC_REPRESENTATION_CONTEXT ( 3 ) GLOBAL_UNCERTAINTY_ASSIGNED_CONTEXT ( ( #89 ) ) GLOBAL_UNIT_ASSIGNED_CONTEXT ( ( #213, #49, #244 ) ) REPRESENTATION_CONTEXT ( 'NONE', 'WORKASPACE' ) );
#148 = DIRECTION ( 'NONE',  ( -0.000000000000000000, -1.000000000000000000, -0.000000000000000000 ) ) ;
#149 = FILL_AREA_STYLE_COLOUR ( '', #40 ) ;
#150 = DIRECTION ( 'NONE',  ( 0.000000000000000000, 0.000000000000000000, -1.000000000000000000 ) ) ;
#151 = ORIENTED_EDGE ( 'NONE', *, *, #159, .F. ) ;
#152 = EDGE_LOOP ( 'NONE', ( #281, #328, #211, #324 ) ) ;
#153 = ORIENTED_EDGE ( 'NONE', *, *, #255, .T. ) ;
#154 =( LENGTH_UNIT ( ) NAMED_UNIT ( * ) SI_UNIT ( .MILLI., .METRE. ) );
#155 = ORIENTED_EDGE ( 'NONE', *, *, #140, .T. ) ;
#156 = FACE_OUTER_BOUND ( 'NONE', #152, .T. ) ;
#157 = STYLED_ITEM ( 'NONE', ( #61 ), #9 ) ;
#158 = STYLED_ITEM ( 'NONE', ( #63 ), #126 ) ;
#159 = EDGE_CURVE ( 'NONE', #202, #246, #174, .T. ) ;
#160 = COLOUR_RGB ( '',1.000000000000000000, 0.000000000000000000, 0.000000000000000000 ) ;
#161 =( LENGTH_UNIT ( ) NAMED_UNIT ( * ) SI_UNIT ( .MILLI., .METRE. ) );
#162 = DIRECTION ( 'NONE',  ( 1.000000000000000000, 1.576935716305902603E-16, 0.000000000000000000 ) ) ;
#163 = ADVANCED_FACE ( 'NONE', ( #99 ), #75, .T. ) ;
#164 = FILL_AREA_STYLE_COLOUR ( '', #215 ) ;
#165 = VECTOR ( 'NONE', #117, 1000.000000000000000 ) ;
#166 =( LENGTH_UNIT ( ) NAMED_UNIT ( * ) SI_UNIT ( .MILLI., .METRE. ) );
#167 = DIRECTION ( 'NONE',  ( 1.000000000000000000, 0.000000000000000000, 0.000000000000000000 ) ) ;
#168 = DIRECTION ( 'NONE',  ( -1.576935716305902603E-16, 1.000000000000000000, -0.000000000000000000 ) ) ;
#169 = COLOUR_RGB ( '',1.000000000000000000, 0.000000000000000000, 0.000000000000000000 ) ;
#170 = AXIS2_PLACEMENT_3D ( 'NONE', #230, #346, #305 ) ;
#171 = ORIENTED_EDGE ( 'NONE', *, *, #209, .T. ) ;
#172 = PRODUCT_DEFINITION ( 'UNKNOWN', '', #234, #194 ) ;
#173 =( NAMED_UNIT ( * ) SI_UNIT ( $, .STERADIAN. ) SOLID_ANGLE_UNIT ( ) );
#174 = LINE ( 'NONE', #294, #261 ) ;
#175 = COLOUR_RGB ( '',1.000000000000000000, 0.000000000000000000, 0.000000000000000000 ) ;
#176 = CIRCLE ( 'NONE', #327, 9.000000000000001776 ) ;
#177 = VERTEX_POINT ( 'NONE', #37 ) ;
#178 = FACE_OUTER_BOUND ( 'NONE', #237, .T. ) ;
#179 = ORIENTED_EDGE ( 'NONE', *, *, #24, .T. ) ;
#180 = UNCERTAINTY_MEASURE_WITH_UNIT (LENGTH_MEASURE( 1.000000000000000082E-05 ), #161, 'distance_accuracy_value', 'NONE');
#181 = DIRECTION ( 'NONE',  ( -1.000000000000000000, -1.576935716305902603E-16, 0.000000000000000000 ) ) ;
#182 = FILL_AREA_STYLE_COLOUR ( '', #169 ) ;
#183 = DIRECTION ( 'NONE',  ( -0.000000000000000000, -1.000000000000000000, -0.000000000000000000 ) ) ;
#184 = SURFACE_SIDE_STYLE ('',( #218 ) ) ;
#185 = CARTESIAN_POINT ( 'NONE',  ( 0.000000000000000000, 0.000000000000000000, 0.000000000000000000 ) ) ;
#186 = ADVANCED_FACE ( 'NONE', ( #178 ), #240, .T. ) ;
#187 = SURFACE_STYLE_USAGE ( .BOTH. , #184 ) ;
#188 = MECHANICAL_DESIGN_GEOMETRIC_PRESENTATION_REPRESENTATION (  '', ( #293 ), #4 ) ;
#189 =( LENGTH_UNIT ( ) NAMED_UNIT ( * ) SI_UNIT ( .MILLI., .METRE. ) );
#190 = FACE_OUTER_BOUND ( 'NONE', #275, .T. ) ;
#191 = EDGE_CURVE ( 'NONE', #102, #73, #309, .T. ) ;
#192 = DIRECTION ( 'NONE',  ( -0.000000000000000000, -1.000000000000000000, -0.000000000000000000 ) ) ;
#193 = DIRECTION ( 'NONE',  ( -1.576935716305902603E-16, 1.000000000000000000, -0.000000000000000000 ) ) ;
#194 = PRODUCT_DEFINITION_CONTEXT ( 'detailed design', #13, 'design' ) ;
#195 = CARTESIAN_POINT ( 'NONE',  ( 0.000000000000000000, 1.000000000000000000, 0.000000000000000000 ) ) ;
#196 = VECTOR ( 'NONE', #193, 1000.000000000000000 ) ;
#197 = CIRCLE ( 'NONE', #357, 9.999999999999992895 ) ;
#198 = CARTESIAN_POINT ( 'NONE',  ( 1.163414459189985682E-15, 0.000000000000000000, 9.000000000000001776 ) ) ;
#199 = SURFACE_STYLE_USAGE ( .BOTH. , #62 ) ;
#200 =( GEOMETRIC_REPRESENTATION_CONTEXT ( 3 ) GLOBAL_UNCERTAINTY_ASSIGNED_CONTEXT ( ( #180 ) ) GLOBAL_UNIT_ASSIGNED_CONTEXT ( ( #161, #333, #283 ) ) REPRESENTATION_CONTEXT ( 'NONE', 'WORKASPACE' ) );
#201 = PRESENTATION_STYLE_ASSIGNMENT (( #210 ) ) ;
#202 = VERTEX_POINT ( 'NONE', #208 ) ;
#203 = DIRECTION ( 'NONE',  ( -1.224646799147353454E-16, 0.000000000000000000, -1.000000000000000000 ) ) ;
#204 = EDGE_LOOP ( 'NONE', ( #297, #353 ) ) ;
#205 = DIRECTION ( 'NONE',  ( -0.000000000000000000, -1.000000000000000000, -0.000000000000000000 ) ) ;
#206 =( GEOMETRIC_REPRESENTATION_CONTEXT ( 3 ) GLOBAL_UNCERTAINTY_ASSIGNED_CONTEXT ( ( #54 ) ) GLOBAL_UNIT_ASSIGNED_CONTEXT ( ( #144, #344, #173 ) ) REPRESENTATION_CONTEXT ( 'NONE', 'WORKASPACE' ) );
#207 = ORIENTED_EDGE ( 'NONE', *, *, #120, .F. ) ;
#208 = CARTESIAN_POINT ( 'NONE',  ( 10.00000000000000000, 30.00000000000000000, 1.224646799147353256E-15 ) ) ;
#209 = EDGE_CURVE ( 'NONE', #130, #202, #197, .T. ) ;
#210 = SURFACE_STYLE_USAGE ( .BOTH. , #43 ) ;
#211 = ORIENTED_EDGE ( 'NONE', *, *, #53, .T. ) ;
#212 = FILL_AREA_STYLE ('',( #182 ) ) ;
#213 =( LENGTH_UNIT ( ) NAMED_UNIT ( * ) SI_UNIT ( .MILLI., .METRE. ) );
#214 = ADVANCED_FACE ( 'NONE', ( #266 ), #298, .F. ) ;
#215 = COLOUR_RGB ( '',0.7921568627450980005, 0.8196078431372548767, 0.9333333333333333481 ) ;
#216 = UNCERTAINTY_MEASURE_WITH_UNIT (LENGTH_MEASURE( 1.000000000000000082E-05 ), #322, 'distance_accuracy_value', 'NONE');
#217 = PLANE ( 'NONE',  #343 ) ;
#218 = SURFACE_STYLE_FILL_AREA ( #337 ) ;
#219 = SURFACE_SIDE_STYLE ('',( #28 ) ) ;
#220 = ADVANCED_BREP_SHAPE_REPRESENTATION ( '59724', ( #252, #126, #30 ), #147 ) ;
#221 = TOROIDAL_SURFACE ( 'NONE', #136, 9.000000000000001776, 1.000000000000000444 ) ;
#222 = FACE_OUTER_BOUND ( 'NONE', #204, .T. ) ;
#223 = EDGE_CURVE ( 'NONE', #246, #239, #369, .T. ) ;
#224 = SURFACE_STYLE_FILL_AREA ( #56 ) ;
#225 = CARTESIAN_POINT ( 'NONE',  ( 0.000000000000000000, 1.000000000000000000, -9.000000000000001776 ) ) ;
#226 = DIRECTION ( 'NONE',  ( -1.576935716305902603E-16, 1.000000000000000000, -0.000000000000000000 ) ) ;
#227 = ADVANCED_FACE ( 'NONE', ( #156 ), #233, .T. ) ;
#228 = PRESENTATION_STYLE_ASSIGNMENT (( #6 ) ) ;
#229 = CIRCLE ( 'NONE', #116, 10.00000000000000000 ) ;
#230 = CARTESIAN_POINT ( 'NONE',  ( 0.000000000000000000, 0.000000000000000000, 0.000000000000000000 ) ) ;
#231 = CARTESIAN_POINT ( 'NONE',  ( -10.00000000000000355, 89.00000000000000000, 0.000000000000000000 ) ) ;
#232 = AXIS2_PLACEMENT_3D ( 'NONE', #285, #81, #51 ) ;
#233 = CYLINDRICAL_SURFACE ( 'NONE', #33, 10.00000000000000178 ) ;
#234 = PRODUCT_DEFINITION_FORMATION_WITH_SPECIFIED_SOURCE ( 'ANY', '', #365, .NOT_KNOWN. ) ;
#235 = ORIENTED_EDGE ( 'NONE', *, *, #191, .F. ) ;
#236 = CARTESIAN_POINT ( 'NONE',  ( -10.00000000000000000, 89.00000000000000000, 0.000000000000000000 ) ) ;
#237 = EDGE_LOOP ( 'NONE', ( #100, #302, #295, #273 ) ) ;
#238 =( NAMED_UNIT ( * ) PLANE_ANGLE_UNIT ( ) SI_UNIT ( $, .RADIAN. ) );
#239 = VERTEX_POINT ( 'NONE', #231 ) ;
#240 = CYLINDRICAL_SURFACE ( 'NONE', #262, 10.00000000000000178 ) ;
#241 = AXIS2_PLACEMENT_3D ( 'NONE', #225, #329, #80 ) ;
#242 = EDGE_LOOP ( 'NONE', ( #151, #71, #155, #105 ) ) ;
#243 = DIRECTION ( 'NONE',  ( -1.000000000000000000, 0.000000000000000000, 0.000000000000000000 ) ) ;
#244 =( NAMED_UNIT ( * ) SI_UNIT ( $, .STERADIAN. ) SOLID_ANGLE_UNIT ( ) );
#245 = CARTESIAN_POINT ( 'NONE',  ( 0.000000000000000000, 1.000000000000000000, 0.000000000000000000 ) ) ;
#246 = VERTEX_POINT ( 'NONE', #94 ) ;
#247 = PRESENTATION_STYLE_ASSIGNMENT (( #135 ) ) ;
#248 = EDGE_CURVE ( 'NONE', #202, #130, #72, .T. ) ;
#249 = STYLED_ITEM ( 'NONE', ( #201 ), #186 ) ;
#250 =( NAMED_UNIT ( * ) PLANE_ANGLE_UNIT ( ) SI_UNIT ( $, .RADIAN. ) );
#251 = CARTESIAN_POINT ( 'NONE',  ( 0.000000000000000000, 0.000000000000000000, 0.000000000000000000 ) ) ;
#252 = MANIFOLD_SOLID_BREP ( 'Revolve - Cutting Edge', #268 ) ;
#253 = CARTESIAN_POINT ( 'NONE',  ( 0.000000000000000000, 1.000000000000000000, 0.000000000000000000 ) ) ;
#254 = APPLICATION_PROTOCOL_DEFINITION ( 'draft international standard', 'automotive_design', 1998, #13 ) ;
#255 = EDGE_CURVE ( 'NONE', #303, #360, #65, .T. ) ;
#256 = STYLED_ITEM ( 'NONE', ( #48 ), #19 ) ;
#257 = DIRECTION ( 'NONE',  ( -0.000000000000000000, -1.000000000000000000, -0.000000000000000000 ) ) ;
#258 = DIRECTION ( 'NONE',  ( 0.000000000000000000, 0.000000000000000000, -1.000000000000000000 ) ) ;
#259 = FILL_AREA_STYLE ('',( #164 ) ) ;
#260 = LINE ( 'NONE', #55, #165 ) ;
#261 = VECTOR ( 'NONE', #20, 1000.000000000000000 ) ;
#262 = AXIS2_PLACEMENT_3D ( 'NONE', #12, #356, #323 ) ;
#263 = PRODUCT_DEFINITION_SHAPE ( 'NONE', 'NONE',  #172 ) ;
#264 = SURFACE_SIDE_STYLE ('',( #316 ) ) ;
#265 = CARTESIAN_POINT ( 'NONE',  ( -9.999999999999985789, 30.00000000000000000, 0.000000000000000000 ) ) ;
#266 = FACE_OUTER_BOUND ( 'NONE', #68, .T. ) ;
#267 = EDGE_LOOP ( 'NONE', ( #39, #42, #122, #38 ) ) ;
#268 = CLOSED_SHELL ( 'NONE', ( #186, #36, #9, #91, #227, #19 ) ) ;
#269 = APPLICATION_CONTEXT ( 'automotive_design' ) ;
#270 = PRESENTATION_LAYER_ASSIGNMENT (  '', '', ( #326 ) ) ;
#271 = MECHANICAL_DESIGN_GEOMETRIC_PRESENTATION_REPRESENTATION (  '', ( #289 ), #121 ) ;
#272 =( NAMED_UNIT ( * ) SI_UNIT ( $, .STERADIAN. ) SOLID_ANGLE_UNIT ( ) );
#273 = ORIENTED_EDGE ( 'NONE', *, *, #53, .F. ) ;
#274 = FILL_AREA_STYLE_COLOUR ( '', #160 ) ;
#275 = EDGE_LOOP ( 'NONE', ( #235, #179, #153, #18 ) ) ;
#276 = ORIENTED_EDGE ( 'NONE', *, *, #159, .T. ) ;
#277 = UNCERTAINTY_MEASURE_WITH_UNIT (LENGTH_MEASURE( 1.000000000000000082E-05 ), #189, 'distance_accuracy_value', 'NONE');
#278 = FILL_AREA_STYLE ('',( #274 ) ) ;
#279 = PRESENTATION_LAYER_ASSIGNMENT (  '', '', ( #293 ) ) ;
#280 = CARTESIAN_POINT ( 'NONE',  ( 0.000000000000000000, 1.000000000000000000, -10.00000000000000178 ) ) ;
#281 = ORIENTED_EDGE ( 'NONE', *, *, #113, .F. ) ;
#282 = DIRECTION ( 'NONE',  ( 0.000000000000000000, -1.000000000000000000, -0.000000000000000000 ) ) ;
#283 =( NAMED_UNIT ( * ) SI_UNIT ( $, .STERADIAN. ) SOLID_ANGLE_UNIT ( ) );
#284 = CARTESIAN_POINT ( 'NONE',  ( 0.000000000000000000, 0.000000000000000000, -9.000000000000001776 ) ) ;
#285 = CARTESIAN_POINT ( 'NONE',  ( 0.000000000000000000, 30.00000000000000000, 0.000000000000000000 ) ) ;
#286 = MECHANICAL_DESIGN_GEOMETRIC_PRESENTATION_REPRESENTATION (  '', ( #326 ), #82 ) ;
#287 = CYLINDRICAL_SURFACE ( 'NONE', #348, 9.999999999999998224 ) ;
#288 = AXIS2_PLACEMENT_3D ( 'NONE', #112, #192, #2 ) ;
#289 = STYLED_ITEM ( 'NONE', ( #338 ), #252 ) ;
#290 = PRODUCT_RELATED_PRODUCT_CATEGORY ( 'part', '', ( #365 ) ) ;
#291 = DIRECTION ( 'NONE',  ( 0.000000000000000000, 0.000000000000000000, -1.000000000000000000 ) ) ;
#292 = CARTESIAN_POINT ( 'NONE',  ( -1.714505518806293849E-15, 89.00000000000000000, 0.000000000000000000 ) ) ;
#293 = STYLED_ITEM ( 'NONE', ( #228 ), #91 ) ;
#294 = CARTESIAN_POINT ( 'NONE',  ( 9.999999999999996447, 89.00000000000000000, 1.224646799147353059E-15 ) ) ;
#295 = ORIENTED_EDGE ( 'NONE', *, *, #306, .F. ) ;
#296 = DIRECTION ( 'NONE',  ( -1.000000000000000000, 0.000000000000000000, 0.000000000000000000 ) ) ;
#297 = ORIENTED_EDGE ( 'NONE', *, *, #79, .F. ) ;
#298 = PLANE ( 'NONE',  #5 ) ;
#299 = CIRCLE ( 'NONE', #288, 10.00000000000000000 ) ;
#300 = PRESENTATION_LAYER_ASSIGNMENT (  '', '', ( #249 ) ) ;
#301 = CIRCLE ( 'NONE', #170, 9.000000000000001776 ) ;
#302 = ORIENTED_EDGE ( 'NONE', *, *, #113, .T. ) ;
#303 = VERTEX_POINT ( 'NONE', #280 ) ;
#304 = CARTESIAN_POINT ( 'NONE',  ( 7.589415207398531038E-15, 30.00000000000000000, 0.000000000000000000 ) ) ;
#305 = DIRECTION ( 'NONE',  ( 0.000000000000000000, 0.000000000000000000, -1.000000000000000000 ) ) ;
#306 = EDGE_CURVE ( 'NONE', #303, #102, #137, .T. ) ;
#307 = SURFACE_SIDE_STYLE ('',( #106 ) ) ;
#308 = AXIS2_PLACEMENT_3D ( 'NONE', #23, #131, #366 ) ;
#309 = CIRCLE ( 'NONE', #335, 1.000000000000000888 ) ;
#310 = FILL_AREA_STYLE_COLOUR ( '', #175 ) ;
#311 = DIRECTION ( 'NONE',  ( -1.000000000000000000, 0.000000000000000000, 0.000000000000000000 ) ) ;
#312 = MECHANICAL_DESIGN_GEOMETRIC_PRESENTATION_REPRESENTATION (  '', ( #249 ), #127 ) ;
#313 = CARTESIAN_POINT ( 'NONE',  ( 0.000000000000000000, 0.000000000000000000, 0.000000000000000000 ) ) ;
#314 =( NAMED_UNIT ( * ) SI_UNIT ( $, .STERADIAN. ) SOLID_ANGLE_UNIT ( ) );
#315 = ADVANCED_FACE ( 'NONE', ( #133 ), #217, .F. ) ;
#316 = SURFACE_STYLE_FILL_AREA ( #259 ) ;
#317 =( NAMED_UNIT ( * ) SI_UNIT ( $, .STERADIAN. ) SOLID_ANGLE_UNIT ( ) );
#318 = PRESENTATION_STYLE_ASSIGNMENT (( #3 ) ) ;
#319 = LINE ( 'NONE', #236, #196 ) ;
#320 = COLOUR_RGB ( '',1.000000000000000000, 0.000000000000000000, 0.000000000000000000 ) ;
#321 = AXIS2_PLACEMENT_3D ( 'NONE', #44, #41, #243 ) ;
#322 =( LENGTH_UNIT ( ) NAMED_UNIT ( * ) SI_UNIT ( .MILLI., .METRE. ) );
#323 = DIRECTION ( 'NONE',  ( 0.000000000000000000, 0.000000000000000000, -1.000000000000000000 ) ) ;
#324 = ORIENTED_EDGE ( 'NONE', *, *, #24, .F. ) ;
#325 = CARTESIAN_POINT ( 'NONE',  ( 7.589415207398531038E-15, 30.00000000000000000, 0.000000000000000000 ) ) ;
#326 = STYLED_ITEM ( 'NONE', ( #247 ), #36 ) ;
#327 = AXIS2_PLACEMENT_3D ( 'NONE', #185, #205, #132 ) ;
#328 = ORIENTED_EDGE ( 'NONE', *, *, #60, .T. ) ;
#329 = DIRECTION ( 'NONE',  ( -1.000000000000000000, 0.000000000000000000, 0.000000000000000000 ) ) ;
#330 = EDGE_LOOP ( 'NONE', ( #352, #10 ) ) ;
#331 = PLANE ( 'NONE',  #232 ) ;
#332 =( NAMED_UNIT ( * ) SI_UNIT ( $, .STERADIAN. ) SOLID_ANGLE_UNIT ( ) );
#333 =( NAMED_UNIT ( * ) PLANE_ANGLE_UNIT ( ) SI_UNIT ( $, .RADIAN. ) );
#334 = FILL_AREA_STYLE_COLOUR ( '', #46 ) ;
#335 = AXIS2_PLACEMENT_3D ( 'NONE', #104, #67, #203 ) ;
#336 = CARTESIAN_POINT ( 'NONE',  ( 10.00000000000000000, 89.00000000000000000, 0.000000000000000000 ) ) ;
#337 = FILL_AREA_STYLE ('',( #310 ) ) ;
#338 = PRESENTATION_STYLE_ASSIGNMENT (( #83 ) ) ;
#339 = EDGE_CURVE ( 'NONE', #73, #360, #301, .T. ) ;
#340 = UNCERTAINTY_MEASURE_WITH_UNIT (LENGTH_MEASURE( 1.000000000000000082E-05 ), #87, 'distance_accuracy_value', 'NONE');
#341 = AXIS2_PLACEMENT_3D ( 'NONE', #345, #168, #114 ) ;
#342 =( NAMED_UNIT ( * ) PLANE_ANGLE_UNIT ( ) SI_UNIT ( $, .RADIAN. ) );
#343 = AXIS2_PLACEMENT_3D ( 'NONE', #336, #84, #162 ) ;
#344 =( NAMED_UNIT ( * ) PLANE_ANGLE_UNIT ( ) SI_UNIT ( $, .RADIAN. ) );
#345 = CARTESIAN_POINT ( 'NONE',  ( -1.714505518806293652E-15, 89.00000000000000000, 0.000000000000000000 ) ) ;
#346 = DIRECTION ( 'NONE',  ( -0.000000000000000000, -1.000000000000000000, -0.000000000000000000 ) ) ;
#347 = SURFACE_STYLE_FILL_AREA ( #35 ) ;
#348 = AXIS2_PLACEMENT_3D ( 'NONE', #292, #226, #93 ) ;
#349 = AXIS2_PLACEMENT_3D ( 'NONE', #76, #363, #311 ) ;
#350 = CARTESIAN_POINT ( 'NONE',  ( 0.000000000000000000, 0.000000000000000000, 0.000000000000000000 ) ) ;
#351 = EDGE_CURVE ( 'NONE', #360, #73, #176, .T. ) ;
#352 = ORIENTED_EDGE ( 'NONE', *, *, #351, .T. ) ;
#353 = ORIENTED_EDGE ( 'NONE', *, *, #60, .F. ) ;
#354 = DIRECTION ( 'NONE',  ( -1.576935716305902603E-16, 1.000000000000000000, -0.000000000000000000 ) ) ;
#355 = EDGE_LOOP ( 'NONE', ( #171, #276, #207, #14 ) ) ;
#356 = DIRECTION ( 'NONE',  ( -0.000000000000000000, -1.000000000000000000, -0.000000000000000000 ) ) ;
#357 = AXIS2_PLACEMENT_3D ( 'NONE', #325, #123, #296 ) ;
#358 = UNCERTAINTY_MEASURE_WITH_UNIT (LENGTH_MEASURE( 1.000000000000000082E-05 ), #139, 'distance_accuracy_value', 'NONE');
#359 = SURFACE_SIDE_STYLE ('',( #129 ) ) ;
#360 = VERTEX_POINT ( 'NONE', #284 ) ;
#361 = LINE ( 'NONE', #90, #86 ) ;
#362 =( NAMED_UNIT ( * ) SI_UNIT ( $, .STERADIAN. ) SOLID_ANGLE_UNIT ( ) );
#363 = DIRECTION ( 'NONE',  ( -1.576935716305902603E-16, 1.000000000000000000, -0.000000000000000000 ) ) ;
#364 = DIRECTION ( 'NONE',  ( -0.000000000000000000, -1.000000000000000000, -0.000000000000000000 ) ) ;
#365 = PRODUCT ( '59724', '59724', '', ( #108 ) ) ;
#366 = DIRECTION ( 'NONE',  ( 0.000000000000000000, 0.000000000000000000, -1.000000000000000000 ) ) ;
#367 = MECHANICAL_DESIGN_GEOMETRIC_PRESENTATION_REPRESENTATION (  '', ( #157 ), #29 ) ;
#368 = MECHANICAL_DESIGN_GEOMETRIC_PRESENTATION_REPRESENTATION (  '', ( #158 ), #58 ) ;
#369 = CIRCLE ( 'NONE', #321, 10.00000000000000178 ) ;
#370 = SURFACE_SIDE_STYLE ('',( #224 ) ) ;
ENDSEC;
END-ISO-10303-21;
