ISO-10303-21;
HEADER;
FILE_DESCRIPTION (( 'STEP AP214' ),
    '1' );
FILE_NAME ('Micro_AEMM-045-3X.STEP',
    '2022-03-15T14:25:47',
    ( '' ),
    ( '' ),
    'SwSTEP 2.0',
    'SolidWorks 2022',
    '' );
FILE_SCHEMA (( 'AUTOMOTIVE_DESIGN' ));
ENDSEC;

DATA;
#1 = FACE_OUTER_BOUND ( 'NONE', #60, .T. ) ;
#2 = AXIS2_PLACEMENT_3D ( 'NONE', #133, #136, #226 ) ;
#3 = DIRECTION ( 'NONE',  ( -1.000000000000000000, 0.000000000000000000, 0.000000000000000000 ) ) ;
#4 = EDGE_CURVE ( 'NONE', #159, #58, #115, .T. ) ;
#5 = CARTESIAN_POINT ( 'NONE',  ( 0.000000000000000000, 0.000000000000000000, 2.244094000000000033 ) ) ;
#6 = FACE_OUTER_BOUND ( 'NONE', #34, .T. ) ;
#7 = DIRECTION ( 'NONE',  ( -1.224646799147353207E-16, -0.000000000000000000, -1.000000000000000000 ) ) ;
#8 =( GEOMETRIC_REPRESENTATION_CONTEXT ( 3 ) GLOBAL_UNCERTAINTY_ASSIGNED_CONTEXT ( ( #263 ) ) GLOBAL_UNIT_ASSIGNED_CONTEXT ( ( #270, #233, #69 ) ) REPRESENTATION_CONTEXT ( 'NONE', 'WORKASPACE' ) );
#9 = PRODUCT_DEFINITION_FORMATION_WITH_SPECIFIED_SOURCE ( 'ANY', '', #167, .NOT_KNOWN. ) ;
#10 = SURFACE_SIDE_STYLE ('',( #252 ) ) ;
#11 = ORIENTED_EDGE ( 'NONE', *, *, #280, .T. ) ;
#12 = CARTESIAN_POINT ( 'NONE',  ( 5.303590139535433909E-17, 0.000000000000000000, 0.4330709999999999837 ) ) ;
#13 = ORIENTED_EDGE ( 'NONE', *, *, #4, .T. ) ;
#14 = CARTESIAN_POINT ( 'NONE',  ( -0.1181100000000000066, 0.000000000000000000, 2.229093999999999465 ) ) ;
#15 = CIRCLE ( 'NONE', #279, 0.1181100000000000066 ) ;
#16 = EDGE_CURVE ( 'NONE', #229, #268, #285, .T. ) ;
#17 = SURFACE_STYLE_USAGE ( .BOTH. , #10 ) ;
#18 = EDGE_LOOP ( 'NONE', ( #126, #177, #201, #247 ) ) ;
#19 = CARTESIAN_POINT ( 'NONE',  ( 0.000000000000000000, 0.000000000000000000, 2.229093999999999465 ) ) ;
#20 = EDGE_LOOP ( 'NONE', ( #165, #44, #36, #290 ) ) ;
#21 = VECTOR ( 'NONE', #192, 39.37007874015748143 ) ;
#22 = DIRECTION ( 'NONE',  ( 1.000000000000000000, 0.000000000000000000, 0.000000000000000000 ) ) ;
#23 =( CONVERSION_BASED_UNIT ( 'INCH', #190 ) LENGTH_UNIT ( ) NAMED_UNIT ( #158 ) );
#24 =( LENGTH_UNIT ( ) NAMED_UNIT ( * ) SI_UNIT ( $, .METRE. ) );
#25 = DIRECTION ( 'NONE',  ( 0.000000000000000000, 0.000000000000000000, -1.000000000000000000 ) ) ;
#26 = CARTESIAN_POINT ( 'NONE',  ( 1.327196184766963528E-33, 0.000000000000000000, 1.083737928103849530E-17 ) ) ;
#27 = CLOSED_SHELL ( 'NONE', ( #103, #214, #198, #166, #181, #94, #31, #236, #92, #183 ) ) ;
#28 = AXIS2_PLACEMENT_3D ( 'NONE', #202, #89, #187 ) ;
#29 = CARTESIAN_POINT ( 'NONE',  ( 0.000000000000000000, 0.000000000000000000, 2.229093999999999465 ) ) ;
#30 = CARTESIAN_POINT ( 'NONE',  ( -0.1181099999999999373, 0.000000000000000000, 0.6010321502505472369 ) ) ;
#31 = ADVANCED_FACE ( 'NONE', ( #51 ), #227, .T. ) ;
#32 = DIRECTION ( 'NONE',  ( -1.224646799147353207E-16, -0.000000000000000000, -1.000000000000000000 ) ) ;
#33 = PRODUCT_DEFINITION_CONTEXT ( 'detailed design', #238, 'design' ) ;
#34 = EDGE_LOOP ( 'NONE', ( #156, #63, #132, #82 ) ) ;
#35 = DIRECTION ( 'NONE',  ( -1.224646799147353207E-16, -0.000000000000000000, -1.000000000000000000 ) ) ;
#36 = ORIENTED_EDGE ( 'NONE', *, *, #260, .F. ) ;
#37 = FACE_OUTER_BOUND ( 'NONE', #189, .T. ) ;
#38 = EDGE_CURVE ( 'NONE', #254, #225, #54, .T. ) ;
#39 = EDGE_LOOP ( 'NONE', ( #205, #108 ) ) ;
#40 = CARTESIAN_POINT ( 'NONE',  ( 0.000000000000000000, 0.000000000000000000, 2.244094000000000033 ) ) ;
#41 = VERTEX_POINT ( 'NONE', #262 ) ;
#42 = PRESENTATION_STYLE_ASSIGNMENT (( #17 ) ) ;
#43 = AXIS2_PLACEMENT_3D ( 'NONE', #222, #35, #208 ) ;
#44 = ORIENTED_EDGE ( 'NONE', *, *, #117, .T. ) ;
#45 = CARTESIAN_POINT ( 'NONE',  ( 0.08849391750000007439, 0.000000000000000000, 0.4330709999999999837 ) ) ;
#46 = EDGE_LOOP ( 'NONE', ( #137, #223, #210, #11 ) ) ;
#47 = AXIS2_PLACEMENT_3D ( 'NONE', #142, #235, #22 ) ;
#48 = ADVANCED_BREP_SHAPE_REPRESENTATION ( 'Micro_AEMM-045-3X', ( #281, #47 ), #170 ) ;
#49 = CARTESIAN_POINT ( 'NONE',  ( 0.08849391750000001888, 1.083737928103849684E-17, -1.083737928103849684E-17 ) ) ;
#50 = EDGE_CURVE ( 'NONE', #225, #159, #200, .T. ) ;
#51 = FACE_OUTER_BOUND ( 'NONE', #18, .T. ) ;
#52 = CIRCLE ( 'NONE', #28, 0.1031100000000002570 ) ;
#53 = CARTESIAN_POINT ( 'NONE',  ( 1.327196184766963528E-33, 0.000000000000000000, 1.083737928103849530E-17 ) ) ;
#54 = LINE ( 'NONE', #74, #274 ) ;
#55 = EDGE_LOOP ( 'NONE', ( #272, #163, #13, #232 ) ) ;
#56 = FACE_OUTER_BOUND ( 'NONE', #39, .T. ) ;
#57 = AXIS2_PLACEMENT_3D ( 'NONE', #180, #294, #245 ) ;
#58 = VERTEX_POINT ( 'NONE', #196 ) ;
#59 = CYLINDRICAL_SURFACE ( 'NONE', #2, 0.1181100000000000066 ) ;
#60 = EDGE_LOOP ( 'NONE', ( #88, #114, #257, #230 ) ) ;
#61 = LINE ( 'NONE', #231, #265 ) ;
#62 = VECTOR ( 'NONE', #264, 39.37007874015748143 ) ;
#63 = ORIENTED_EDGE ( 'NONE', *, *, #255, .T. ) ;
#64 = FILL_AREA_STYLE_COLOUR ( '', #72 ) ;
#65 = VERTEX_POINT ( 'NONE', #244 ) ;
#66 = APPLICATION_PROTOCOL_DEFINITION ( 'draft international standard', 'automotive_design', 1998, #138 ) ;
#67 =( LENGTH_UNIT ( ) NAMED_UNIT ( * ) SI_UNIT ( $, .METRE. ) );
#68 = AXIS2_PLACEMENT_3D ( 'NONE', #185, #83, #271 ) ;
#69 =( NAMED_UNIT ( * ) SI_UNIT ( $, .STERADIAN. ) SOLID_ANGLE_UNIT ( ) );
#70 = EDGE_CURVE ( 'NONE', #41, #229, #95, .T. ) ;
#71 = PRODUCT_DEFINITION_SHAPE ( 'NONE', 'NONE',  #153 ) ;
#72 = COLOUR_RGB ( '',0.7921568627450980005, 0.8196078431372548767, 0.9333333333333333481 ) ;
#73 = DIRECTION ( 'NONE',  ( 0.7071067811865358044, 8.659560562354788645E-17, -0.7071067811865590080 ) ) ;
#74 = CARTESIAN_POINT ( 'NONE',  ( -0.1031100000000002570, 0.000000000000000000, 2.244094000000000033 ) ) ;
#75 = CARTESIAN_POINT ( 'NONE',  ( -0.1181100000000000066, 0.000000000000000000, 2.244094000000000033 ) ) ;
#76 = DIMENSIONAL_EXPONENTS ( 1.000000000000000000, 0.000000000000000000, 0.000000000000000000, 0.000000000000000000, 0.000000000000000000, 0.000000000000000000, 0.000000000000000000 ) ;
#77 = STYLED_ITEM ( 'NONE', ( #42 ), #281 ) ;
#78 = ORIENTED_EDGE ( 'NONE', *, *, #16, .F. ) ;
#79 = DIMENSIONAL_EXPONENTS ( 1.000000000000000000, 0.000000000000000000, 0.000000000000000000, 0.000000000000000000, 0.000000000000000000, 0.000000000000000000, 0.000000000000000000 ) ;
#80 = CYLINDRICAL_SURFACE ( 'NONE', #68, 0.1181100000000000066 ) ;
#81 = DIRECTION ( 'NONE',  ( 0.000000000000000000, 0.000000000000000000, 1.000000000000000000 ) ) ;
#82 = ORIENTED_EDGE ( 'NONE', *, *, #50, .F. ) ;
#83 = DIRECTION ( 'NONE',  ( -0.000000000000000000, -0.000000000000000000, -1.000000000000000000 ) ) ;
#84 = AXIS2_PLACEMENT_3D ( 'NONE', #220, #32, #175 ) ;
#85 = FACE_OUTER_BOUND ( 'NONE', #55, .T. ) ;
#86 = DIRECTION ( 'NONE',  ( 1.000000000000000000, 0.000000000000000000, 0.000000000000000000 ) ) ;
#87 = EDGE_CURVE ( 'NONE', #41, #65, #267, .T. ) ;
#88 = ORIENTED_EDGE ( 'NONE', *, *, #70, .T. ) ;
#89 = DIRECTION ( 'NONE',  ( 0.000000000000000000, 0.000000000000000000, 1.000000000000000000 ) ) ;
#90 = ORIENTED_EDGE ( 'NONE', *, *, #255, .F. ) ;
#91 = PRESENTATION_STYLE_ASSIGNMENT (( #212 ) ) ;
#92 = ADVANCED_FACE ( 'NONE', ( #176 ), #216, .T. ) ;
#93 = UNCERTAINTY_MEASURE_WITH_UNIT (LENGTH_MEASURE( 1.000000000000000082E-05 ), #278, 'distance_accuracy_value', 'NONE');
#94 = ADVANCED_FACE ( 'NONE', ( #100 ), #148, .T. ) ;
#95 = CIRCLE ( 'NONE', #218, 0.08849391750000001888 ) ;
#96 =( NAMED_UNIT ( * ) PLANE_ANGLE_UNIT ( ) SI_UNIT ( $, .RADIAN. ) );
#97 = SURFACE_SIDE_STYLE ('',( #139 ) ) ;
#98 = CARTESIAN_POINT ( 'NONE',  ( 0.08849391750000007439, 0.000000000000000000, 0.4330709999999999837 ) ) ;
#99 = VECTOR ( 'NONE', #119, 39.37007874015748143 ) ;
#100 = FACE_OUTER_BOUND ( 'NONE', #293, .T. ) ;
#101 = LINE ( 'NONE', #98, #21 ) ;
#102 = CARTESIAN_POINT ( 'NONE',  ( 0.000000000000000000, 0.000000000000000000, 0.000000000000000000 ) ) ;
#103 = ADVANCED_FACE ( 'NONE', ( #1 ), #122, .T. ) ;
#104 = AXIS2_PLACEMENT_3D ( 'NONE', #106, #172, #284 ) ;
#105 = AXIS2_PLACEMENT_3D ( 'NONE', #19, #269, #203 ) ;
#106 = CARTESIAN_POINT ( 'NONE',  ( 7.360520989889838000E-17, 0.000000000000000000, 0.6010321502505472369 ) ) ;
#107 = LENGTH_MEASURE_WITH_UNIT ( LENGTH_MEASURE( 0.02539999999999999897 ), #109 );
#108 = ORIENTED_EDGE ( 'NONE', *, *, #162, .T. ) ;
#109 =( LENGTH_UNIT ( ) NAMED_UNIT ( * ) SI_UNIT ( $, .METRE. ) );
#110 = ORIENTED_EDGE ( 'NONE', *, *, #280, .F. ) ;
#111 = DIRECTION ( 'NONE',  ( -0.1736481776669311639, 2.126576849575782392E-17, 0.9848077530122080203 ) ) ;
#112 = AXIS2_PLACEMENT_3D ( 'NONE', #289, #178, #182 ) ;
#113 = CARTESIAN_POINT ( 'NONE',  ( 0.08849391750000000501, 1.083737928103849530E-17, -1.895600338963814870E-33 ) ) ;
#114 = ORIENTED_EDGE ( 'NONE', *, *, #16, .T. ) ;
#115 = CIRCLE ( 'NONE', #104, 0.1181100000000000066 ) ;
#116 = STYLED_ITEM ( 'NONE', ( #91 ), #48 ) ;
#117 = EDGE_CURVE ( 'NONE', #291, #131, #243, .T. ) ;
#118 = VECTOR ( 'NONE', #111, 39.37007874015747433 ) ;
#119 = DIRECTION ( 'NONE',  ( -0.000000000000000000, -0.000000000000000000, -1.000000000000000000 ) ) ;
#120 = DIRECTION ( 'NONE',  ( -1.000000000000000000, 0.000000000000000000, 0.000000000000000000 ) ) ;
#121 = CIRCLE ( 'NONE', #246, 0.08849391750000000501 ) ;
#122 = CYLINDRICAL_SURFACE ( 'NONE', #193, 0.08849391750000001888 ) ;
#123 = EDGE_CURVE ( 'NONE', #131, #225, #15, .T. ) ;
#124 = DIRECTION ( 'NONE',  ( -1.000000000000000000, 0.000000000000000000, 1.224646799147353207E-16 ) ) ;
#125 = DIRECTION ( 'NONE',  ( 0.000000000000000000, 0.000000000000000000, -1.000000000000000000 ) ) ;
#126 = ORIENTED_EDGE ( 'NONE', *, *, #117, .F. ) ;
#127 = CIRCLE ( 'NONE', #43, 0.1181100000000000066 ) ;
#128 = FILL_AREA_STYLE_COLOUR ( '', #215 ) ;
#129 = ORIENTED_EDGE ( 'NONE', *, *, #171, .T. ) ;
#130 = DIRECTION ( 'NONE',  ( -1.000000000000000000, 0.000000000000000000, 0.000000000000000000 ) ) ;
#131 = VERTEX_POINT ( 'NONE', #221 ) ;
#132 = ORIENTED_EDGE ( 'NONE', *, *, #4, .F. ) ;
#133 = CARTESIAN_POINT ( 'NONE',  ( 0.000000000000000000, 0.000000000000000000, 2.244094000000000033 ) ) ;
#134 = AXIS2_PLACEMENT_3D ( 'NONE', #164, #81, #248 ) ;
#135 = ORIENTED_EDGE ( 'NONE', *, *, #162, .F. ) ;
#136 = DIRECTION ( 'NONE',  ( -0.000000000000000000, -0.000000000000000000, -1.000000000000000000 ) ) ;
#137 = ORIENTED_EDGE ( 'NONE', *, *, #209, .F. ) ;
#138 = APPLICATION_CONTEXT ( 'automotive_design' ) ;
#139 = SURFACE_STYLE_FILL_AREA ( #169 ) ;
#140 = EDGE_CURVE ( 'NONE', #229, #58, #101, .T. ) ;
#141 = SHAPE_DEFINITION_REPRESENTATION ( #71, #48 ) ;
#142 = CARTESIAN_POINT ( 'NONE',  ( 0.000000000000000000, 0.000000000000000000, 0.000000000000000000 ) ) ;
#143 =( NAMED_UNIT ( * ) SI_UNIT ( $, .STERADIAN. ) SOLID_ANGLE_UNIT ( ) );
#144 = EDGE_CURVE ( 'NONE', #229, #41, #259, .T. ) ;
#145 = PRESENTATION_LAYER_ASSIGNMENT (  '', '', ( #77 ) ) ;
#146 = CARTESIAN_POINT ( 'NONE',  ( 5.303590139535433909E-17, 0.000000000000000000, 0.4330709999999999837 ) ) ;
#147 = EDGE_CURVE ( 'NONE', #65, #268, #121, .T. ) ;
#148 = PLANE ( 'NONE',  #188 ) ;
#149 = UNCERTAINTY_MEASURE_WITH_UNIT (LENGTH_MEASURE( 1.000000000000000082E-05 ), #23, 'distance_accuracy_value', 'NONE');
#150 = AXIS2_PLACEMENT_3D ( 'NONE', #53, #288, #124 ) ;
#151 = CARTESIAN_POINT ( 'NONE',  ( -0.08849391750000001888, 0.000000000000000000, 1.083737928103849684E-17 ) ) ;
#152 = DIRECTION ( 'NONE',  ( -1.224646799147353207E-16, -0.000000000000000000, -1.000000000000000000 ) ) ;
#153 = PRODUCT_DEFINITION ( 'UNKNOWN', '', #9, #33 ) ;
#154 = FILL_AREA_STYLE ('',( #128 ) ) ;
#155 = AXIS2_PLACEMENT_3D ( 'NONE', #5, #25, #286 ) ;
#156 = ORIENTED_EDGE ( 'NONE', *, *, #260, .T. ) ;
#157 = CIRCLE ( 'NONE', #105, 0.1181100000000000066 ) ;
#158 = DIMENSIONAL_EXPONENTS ( 1.000000000000000000, 0.000000000000000000, 0.000000000000000000, 0.000000000000000000, 0.000000000000000000, 0.000000000000000000, 0.000000000000000000 ) ;
#159 = VERTEX_POINT ( 'NONE', #30 ) ;
#160 = DIRECTION ( 'NONE',  ( 1.224646799147353207E-16, 0.000000000000000000, 1.000000000000000000 ) ) ;
#161 = CARTESIAN_POINT ( 'NONE',  ( -0.1031100000000002570, 0.000000000000000000, 2.244094000000000033 ) ) ;
#162 = EDGE_CURVE ( 'NONE', #268, #65, #168, .T. ) ;
#163 = ORIENTED_EDGE ( 'NONE', *, *, #209, .T. ) ;
#164 = CARTESIAN_POINT ( 'NONE',  ( 0.000000000000000000, 0.000000000000000000, 2.244094000000000033 ) ) ;
#165 = ORIENTED_EDGE ( 'NONE', *, *, #171, .F. ) ;
#166 = ADVANCED_FACE ( 'NONE', ( #6 ), #80, .T. ) ;
#167 = PRODUCT ( 'Micro_AEMM-045-3X', 'Micro_AEMM-045-3X', '', ( #297 ) ) ;
#168 = CIRCLE ( 'NONE', #150, 0.08849391750000000501 ) ;
#169 = FILL_AREA_STYLE ('',( #64 ) ) ;
#170 =( GEOMETRIC_REPRESENTATION_CONTEXT ( 3 ) GLOBAL_UNCERTAINTY_ASSIGNED_CONTEXT ( ( #93 ) ) GLOBAL_UNIT_ASSIGNED_CONTEXT ( ( #278, #96, #191 ) ) REPRESENTATION_CONTEXT ( 'NONE', 'WORKASPACE' ) );
#171 = EDGE_CURVE ( 'NONE', #291, #254, #52, .T. ) ;
#172 = DIRECTION ( 'NONE',  ( -1.224646799147353207E-16, -0.000000000000000000, -1.000000000000000000 ) ) ;
#173 = DIRECTION ( 'NONE',  ( -0.7071067811865358044, 0.000000000000000000, -0.7071067811865590080 ) ) ;
#174 = DIRECTION ( 'NONE',  ( -1.000000000000000000, 0.000000000000000000, 1.224646799147353207E-16 ) ) ;
#175 = DIRECTION ( 'NONE',  ( -1.000000000000000000, 0.000000000000000000, 1.224646799147353207E-16 ) ) ;
#176 = FACE_OUTER_BOUND ( 'NONE', #296, .T. ) ;
#177 = ORIENTED_EDGE ( 'NONE', *, *, #194, .F. ) ;
#178 = DIRECTION ( 'NONE',  ( 1.224646799147353207E-16, 0.000000000000000000, 1.000000000000000000 ) ) ;
#179 =( GEOMETRIC_REPRESENTATION_CONTEXT ( 3 ) GLOBAL_UNCERTAINTY_ASSIGNED_CONTEXT ( ( #149 ) ) GLOBAL_UNIT_ASSIGNED_CONTEXT ( ( #23, #211, #143 ) ) REPRESENTATION_CONTEXT ( 'NONE', 'WORKASPACE' ) );
#180 = CARTESIAN_POINT ( 'NONE',  ( 0.000000000000000000, 0.000000000000000000, 0.000000000000000000 ) ) ;
#181 = ADVANCED_FACE ( 'NONE', ( #37 ), #59, .T. ) ;
#182 = DIRECTION ( 'NONE',  ( 1.000000000000000000, 0.000000000000000000, 0.000000000000000000 ) ) ;
#183 = ADVANCED_FACE ( 'NONE', ( #56 ), #256, .F. ) ;
#184 = ORIENTED_EDGE ( 'NONE', *, *, #50, .T. ) ;
#185 = CARTESIAN_POINT ( 'NONE',  ( 0.000000000000000000, 0.000000000000000000, 2.244094000000000033 ) ) ;
#186 = ORIENTED_EDGE ( 'NONE', *, *, #87, .T. ) ;
#187 = DIRECTION ( 'NONE',  ( 1.000000000000000000, 0.000000000000000000, 0.000000000000000000 ) ) ;
#188 = AXIS2_PLACEMENT_3D ( 'NONE', #195, #283, #261 ) ;
#189 = EDGE_LOOP ( 'NONE', ( #90, #277, #184, #110 ) ) ;
#190 = LENGTH_MEASURE_WITH_UNIT ( LENGTH_MEASURE( 0.02539999999999999897 ), #67 );
#191 =( NAMED_UNIT ( * ) SI_UNIT ( $, .STERADIAN. ) SOLID_ANGLE_UNIT ( ) );
#192 = DIRECTION ( 'NONE',  ( 0.1736481776669313304, 0.000000000000000000, 0.9848077530122077983 ) ) ;
#193 = AXIS2_PLACEMENT_3D ( 'NONE', #102, #197, #242 ) ;
#194 = EDGE_CURVE ( 'NONE', #254, #291, #239, .T. ) ;
#195 = CARTESIAN_POINT ( 'NONE',  ( 0.000000000000000000, 0.000000000000000000, 2.244094000000000033 ) ) ;
#196 = CARTESIAN_POINT ( 'NONE',  ( 0.1181100000000000899, 1.446430334472940009E-17, 0.6010321502505472369 ) ) ;
#197 = DIRECTION ( 'NONE',  ( -1.224646799147353207E-16, -0.000000000000000000, -1.000000000000000000 ) ) ;
#198 = ADVANCED_FACE ( 'NONE', ( #207 ), #199, .T. ) ;
#199 = CONICAL_SURFACE ( 'NONE', #228, 0.1031100000000002570, 0.7853981633974318477 ) ;
#200 = LINE ( 'NONE', #75, #99 ) ;
#201 = ORIENTED_EDGE ( 'NONE', *, *, #38, .T. ) ;
#202 = CARTESIAN_POINT ( 'NONE',  ( 0.000000000000000000, 0.000000000000000000, 2.244094000000000033 ) ) ;
#203 = DIRECTION ( 'NONE',  ( 1.000000000000000000, 0.000000000000000000, 0.000000000000000000 ) ) ;
#204 = CONICAL_SURFACE ( 'NONE', #112, 0.08849391750000001888, 0.1745329251994338360 ) ;
#205 = ORIENTED_EDGE ( 'NONE', *, *, #147, .T. ) ;
#206 = DIRECTION ( 'NONE',  ( -0.000000000000000000, -0.000000000000000000, -1.000000000000000000 ) ) ;
#207 = FACE_OUTER_BOUND ( 'NONE', #20, .T. ) ;
#208 = DIRECTION ( 'NONE',  ( 1.000000000000000000, 0.000000000000000000, 0.000000000000000000 ) ) ;
#209 = EDGE_CURVE ( 'NONE', #41, #159, #273, .T. ) ;
#210 = ORIENTED_EDGE ( 'NONE', *, *, #140, .T. ) ;
#211 =( NAMED_UNIT ( * ) PLANE_ANGLE_UNIT ( ) SI_UNIT ( $, .RADIAN. ) );
#212 = SURFACE_STYLE_USAGE ( .BOTH. , #97 ) ;
#213 = VECTOR ( 'NONE', #240, 39.37007874015748143 ) ;
#214 = ADVANCED_FACE ( 'NONE', ( #85 ), #204, .T. ) ;
#215 = COLOUR_RGB ( '',0.7921568627450980005, 0.8196078431372548767, 0.9333333333333333481 ) ;
#216 = CYLINDRICAL_SURFACE ( 'NONE', #84, 0.08849391750000001888 ) ;
#217 = CARTESIAN_POINT ( 'NONE',  ( 5.303590139535433909E-17, 0.000000000000000000, 0.4330709999999999837 ) ) ;
#218 = AXIS2_PLACEMENT_3D ( 'NONE', #217, #152, #3 ) ;
#219 = DIRECTION ( 'NONE',  ( 1.000000000000000000, 0.000000000000000000, 0.000000000000000000 ) ) ;
#220 = CARTESIAN_POINT ( 'NONE',  ( 0.000000000000000000, 0.000000000000000000, 0.000000000000000000 ) ) ;
#221 = CARTESIAN_POINT ( 'NONE',  ( 0.1181100000000000066, 1.446430334472939084E-17, 2.229093999999999465 ) ) ;
#222 = CARTESIAN_POINT ( 'NONE',  ( 7.360520989889838000E-17, 0.000000000000000000, 0.6010321502505472369 ) ) ;
#223 = ORIENTED_EDGE ( 'NONE', *, *, #144, .F. ) ;
#224 = CARTESIAN_POINT ( 'NONE',  ( -0.08849391749999997725, 1.083737928103849684E-17, 0.4330709999999999837 ) ) ;
#225 = VERTEX_POINT ( 'NONE', #14 ) ;
#226 = DIRECTION ( 'NONE',  ( -1.000000000000000000, 0.000000000000000000, 0.000000000000000000 ) ) ;
#227 = CONICAL_SURFACE ( 'NONE', #155, 0.1031100000000002570, 0.7853981633974318477 ) ;
#228 = AXIS2_PLACEMENT_3D ( 'NONE', #40, #292, #130 ) ;
#229 = VERTEX_POINT ( 'NONE', #45 ) ;
#230 = ORIENTED_EDGE ( 'NONE', *, *, #87, .F. ) ;
#231 = CARTESIAN_POINT ( 'NONE',  ( 0.1181100000000000066, 1.446430334472939084E-17, 2.244094000000000033 ) ) ;
#232 = ORIENTED_EDGE ( 'NONE', *, *, #140, .F. ) ;
#233 =( NAMED_UNIT ( * ) PLANE_ANGLE_UNIT ( ) SI_UNIT ( $, .RADIAN. ) );
#234 = PRESENTATION_LAYER_ASSIGNMENT (  '', '', ( #116 ) ) ;
#235 = DIRECTION ( 'NONE',  ( 0.000000000000000000, 0.000000000000000000, 1.000000000000000000 ) ) ;
#236 = ADVANCED_FACE ( 'NONE', ( #276 ), #275, .T. ) ;
#237 = APPLICATION_PROTOCOL_DEFINITION ( 'draft international standard', 'automotive_design', 1998, #238 ) ;
#238 = APPLICATION_CONTEXT ( 'automotive_design' ) ;
#239 = CIRCLE ( 'NONE', #134, 0.1031100000000002570 ) ;
#240 = DIRECTION ( 'NONE',  ( -1.224646799147353207E-16, -0.000000000000000000, -1.000000000000000000 ) ) ;
#241 = DIRECTION ( 'NONE',  ( -1.224646799147353207E-16, -0.000000000000000000, -1.000000000000000000 ) ) ;
#242 = DIRECTION ( 'NONE',  ( -1.000000000000000000, 0.000000000000000000, 1.224646799147353207E-16 ) ) ;
#243 = LINE ( 'NONE', #266, #253 ) ;
#244 = CARTESIAN_POINT ( 'NONE',  ( -0.08849391750000000501, 0.000000000000000000, 2.167475856207699061E-17 ) ) ;
#245 = DIRECTION ( 'NONE',  ( 1.000000000000000000, 0.000000000000000000, -0.000000000000000000 ) ) ;
#246 = AXIS2_PLACEMENT_3D ( 'NONE', #26, #7, #174 ) ;
#247 = ORIENTED_EDGE ( 'NONE', *, *, #123, .F. ) ;
#248 = DIRECTION ( 'NONE',  ( 1.000000000000000000, 0.000000000000000000, 0.000000000000000000 ) ) ;
#249 = PRODUCT_RELATED_PRODUCT_CATEGORY ( 'part', '', ( #167 ) ) ;
#250 = ORIENTED_EDGE ( 'NONE', *, *, #194, .T. ) ;
#251 = ORIENTED_EDGE ( 'NONE', *, *, #144, .T. ) ;
#252 = SURFACE_STYLE_FILL_AREA ( #154 ) ;
#253 = VECTOR ( 'NONE', #73, 39.37007874015748854 ) ;
#254 = VERTEX_POINT ( 'NONE', #161 ) ;
#255 = EDGE_CURVE ( 'NONE', #131, #58, #61, .T. ) ;
#256 = PLANE ( 'NONE',  #57 ) ;
#257 = ORIENTED_EDGE ( 'NONE', *, *, #147, .F. ) ;
#258 = CARTESIAN_POINT ( 'NONE',  ( 0.1031100000000002570, 1.354581824536888722E-17, 2.244094000000000033 ) ) ;
#259 = CIRCLE ( 'NONE', #298, 0.08849391750000001888 ) ;
#260 = EDGE_CURVE ( 'NONE', #225, #131, #157, .T. ) ;
#261 = DIRECTION ( 'NONE',  ( 1.000000000000000000, 0.000000000000000000, -0.000000000000000000 ) ) ;
#262 = CARTESIAN_POINT ( 'NONE',  ( -0.08849391749999997725, 1.265084131288394307E-17, 0.4330709999999999837 ) ) ;
#263 = UNCERTAINTY_MEASURE_WITH_UNIT (LENGTH_MEASURE( 1.000000000000000082E-05 ), #270, 'distance_accuracy_value', 'NONE');
#264 = DIRECTION ( 'NONE',  ( -1.224646799147353207E-16, -0.000000000000000000, -1.000000000000000000 ) ) ;
#265 = VECTOR ( 'NONE', #206, 39.37007874015748143 ) ;
#266 = CARTESIAN_POINT ( 'NONE',  ( 0.1031100000000002570, 1.262733314600838667E-17, 2.244094000000000033 ) ) ;
#267 = LINE ( 'NONE', #151, #62 ) ;
#268 = VERTEX_POINT ( 'NONE', #113 ) ;
#269 = DIRECTION ( 'NONE',  ( 0.000000000000000000, 0.000000000000000000, -1.000000000000000000 ) ) ;
#270 =( CONVERSION_BASED_UNIT ( 'INCH', #107 ) LENGTH_UNIT ( ) NAMED_UNIT ( #76 ) );
#271 = DIRECTION ( 'NONE',  ( -1.000000000000000000, 0.000000000000000000, 0.000000000000000000 ) ) ;
#272 = ORIENTED_EDGE ( 'NONE', *, *, #70, .F. ) ;
#273 = LINE ( 'NONE', #224, #118 ) ;
#274 = VECTOR ( 'NONE', #173, 39.37007874015748854 ) ;
#275 = CONICAL_SURFACE ( 'NONE', #287, 0.08849391750000001888, 0.1745329251994338360 ) ;
#276 = FACE_OUTER_BOUND ( 'NONE', #46, .T. ) ;
#277 = ORIENTED_EDGE ( 'NONE', *, *, #123, .T. ) ;
#278 =( CONVERSION_BASED_UNIT ( 'INCH', #299 ) LENGTH_UNIT ( ) NAMED_UNIT ( #79 ) );
#279 = AXIS2_PLACEMENT_3D ( 'NONE', #29, #125, #219 ) ;
#280 = EDGE_CURVE ( 'NONE', #58, #159, #127, .T. ) ;
#281 = MANIFOLD_SOLID_BREP ( 'Cut-Revolve1', #27 ) ;
#282 = MECHANICAL_DESIGN_GEOMETRIC_PRESENTATION_REPRESENTATION (  '', ( #116 ), #179 ) ;
#283 = DIRECTION ( 'NONE',  ( 0.000000000000000000, 0.000000000000000000, 1.000000000000000000 ) ) ;
#284 = DIRECTION ( 'NONE',  ( 1.000000000000000000, 0.000000000000000000, 0.000000000000000000 ) ) ;
#285 = LINE ( 'NONE', #49, #213 ) ;
#286 = DIRECTION ( 'NONE',  ( -1.000000000000000000, 0.000000000000000000, 0.000000000000000000 ) ) ;
#287 = AXIS2_PLACEMENT_3D ( 'NONE', #12, #160, #86 ) ;
#288 = DIRECTION ( 'NONE',  ( -1.224646799147353207E-16, -0.000000000000000000, -1.000000000000000000 ) ) ;
#289 = CARTESIAN_POINT ( 'NONE',  ( 5.303590139535433909E-17, 0.000000000000000000, 0.4330709999999999837 ) ) ;
#290 = ORIENTED_EDGE ( 'NONE', *, *, #38, .F. ) ;
#291 = VERTEX_POINT ( 'NONE', #258 ) ;
#292 = DIRECTION ( 'NONE',  ( 0.000000000000000000, 0.000000000000000000, -1.000000000000000000 ) ) ;
#293 = EDGE_LOOP ( 'NONE', ( #250, #129 ) ) ;
#294 = DIRECTION ( 'NONE',  ( 0.000000000000000000, 0.000000000000000000, 1.000000000000000000 ) ) ;
#295 = MECHANICAL_DESIGN_GEOMETRIC_PRESENTATION_REPRESENTATION (  '', ( #77 ), #8 ) ;
#296 = EDGE_LOOP ( 'NONE', ( #78, #251, #186, #135 ) ) ;
#297 = PRODUCT_CONTEXT ( 'NONE', #138, 'mechanical' ) ;
#298 = AXIS2_PLACEMENT_3D ( 'NONE', #146, #241, #120 ) ;
#299 = LENGTH_MEASURE_WITH_UNIT ( LENGTH_MEASURE( 0.02539999999999999897 ), #24 );
ENDSEC;
END-ISO-10303-21;
