ISO-10303-21;
HEADER;
FILE_DESCRIPTION (( 'STEP AP214' ),
    '1' );
FILE_NAME ('83284.STEP',
    '2023-06-30T22:54:53',
    ( '' ),
    ( '' ),
    'SwSTEP 2.0',
    'SolidWorks 2023',
    '' );
FILE_SCHEMA (( 'AUTOMOTIVE_DESIGN' ));
ENDSEC;

DATA;
#1 = AXIS2_PLACEMENT_3D ( 'NONE', #25, #107, #228 ) ;
#2 = PRODUCT_DEFINITION_SHAPE ( 'NONE', 'NONE',  #278 ) ;
#3 =( LENGTH_UNIT ( ) NAMED_UNIT ( * ) SI_UNIT ( $, .METRE. ) );
#4 = SURFACE_STYLE_FILL_AREA ( #65 ) ;
#5 = EDGE_CURVE ( 'NONE', #79, #193, #100, .T. ) ;
#6 = CIRCLE ( 'NONE', #178, 0.1249999999999999861 ) ;
#7 = FILL_AREA_STYLE ('',( #162 ) ) ;
#8 = ORIENTED_EDGE ( 'NONE', *, *, #142, .T. ) ;
#9 = CARTESIAN_POINT ( 'NONE',  ( 0.000000000000000000, 0.7500000000000001110, 0.000000000000000000 ) ) ;
#10 = AXIS2_PLACEMENT_3D ( 'NONE', #157, #94, #286 ) ;
#11 = FILL_AREA_STYLE_COLOUR ( '', #213 ) ;
#12 = SURFACE_STYLE_USAGE ( .BOTH. , #103 ) ;
#13 = EDGE_LOOP ( 'NONE', ( #169, #289 ) ) ;
#14 = EDGE_CURVE ( 'NONE', #323, #171, #302, .T. ) ;
#15 = FACE_OUTER_BOUND ( 'NONE', #13, .T. ) ;
#16 = DIRECTION ( 'NONE',  ( 1.224646799147353207E-16, -0.000000000000000000, 1.000000000000000000 ) ) ;
#17 = ADVANCED_FACE ( 'NONE', ( #29 ), #311, .T. ) ;
#18 = DIRECTION ( 'NONE',  ( 0.000000000000000000, 0.000000000000000000, -1.000000000000000000 ) ) ;
#19 = MECHANICAL_DESIGN_GEOMETRIC_PRESENTATION_REPRESENTATION (  '', ( #296 ), #22 ) ;
#20 = ORIENTED_EDGE ( 'NONE', *, *, #5, .T. ) ;
#21 = CARTESIAN_POINT ( 'NONE',  ( 0.1249999999999997641, 2.500000000000000000, 1.530808498934189352E-17 ) ) ;
#22 =( GEOMETRIC_REPRESENTATION_CONTEXT ( 3 ) GLOBAL_UNCERTAINTY_ASSIGNED_CONTEXT ( ( #190 ) ) GLOBAL_UNIT_ASSIGNED_CONTEXT ( ( #62, #368, #163 ) ) REPRESENTATION_CONTEXT ( 'NONE', 'WORKASPACE' ) );
#23 = DIRECTION ( 'NONE',  ( -1.574545884618025482E-16, 1.000000000000000000, -0.000000000000000000 ) ) ;
#24 = ORIENTED_EDGE ( 'NONE', *, *, #142, .F. ) ;
#25 = CARTESIAN_POINT ( 'NONE',  ( 0.000000000000000000, 0.1250000000000000278, 0.000000000000000000 ) ) ;
#26 = CARTESIAN_POINT ( 'NONE',  ( 1.530808498934190585E-17, 0.7500000000000001110, 0.1249999999999999029 ) ) ;
#27 = ORIENTED_EDGE ( 'NONE', *, *, #14, .T. ) ;
#28 = EDGE_CURVE ( 'NONE', #76, #266, #303, .T. ) ;
#29 = FACE_OUTER_BOUND ( 'NONE', #351, .T. ) ;
#30 = FACE_OUTER_BOUND ( 'NONE', #137, .T. ) ;
#31 = ADVANCED_FACE ( 'NONE', ( #317 ), #98, .T. ) ;
#32 = COLOUR_RGB ( '',0.7921568627450980005, 0.8196078431372548767, 0.9333333333333333481 ) ;
#33 = LINE ( 'NONE', #181, #277 ) ;
#34 = CIRCLE ( 'NONE', #331, 0.1250000000000000000 ) ;
#35 = SURFACE_SIDE_STYLE ('',( #255 ) ) ;
#36 = CYLINDRICAL_SURFACE ( 'NONE', #195, 0.1249999999999998335 ) ;
#37 = EDGE_LOOP ( 'NONE', ( #269, #223, #349, #301, #218 ) ) ;
#38 = CIRCLE ( 'NONE', #132, 0.1249999999999999029 ) ;
#39 =( GEOMETRIC_REPRESENTATION_CONTEXT ( 3 ) GLOBAL_UNCERTAINTY_ASSIGNED_CONTEXT ( ( #45 ) ) GLOBAL_UNIT_ASSIGNED_CONTEXT ( ( #124, #285, #342 ) ) REPRESENTATION_CONTEXT ( 'NONE', 'WORKASPACE' ) );
#40 = DIRECTION ( 'NONE',  ( 0.000000000000000000, 0.000000000000000000, -1.000000000000000000 ) ) ;
#41 = EDGE_CURVE ( 'NONE', #174, #347, #81, .T. ) ;
#42 = ADVANCED_FACE ( 'NONE', ( #346 ), #43, .T. ) ;
#43 = CYLINDRICAL_SURFACE ( 'NONE', #10, 0.1249999999999999306 ) ;
#44 = DIMENSIONAL_EXPONENTS ( 1.000000000000000000, 0.000000000000000000, 0.000000000000000000, 0.000000000000000000, 0.000000000000000000, 0.000000000000000000, 0.000000000000000000 ) ;
#45 = UNCERTAINTY_MEASURE_WITH_UNIT (LENGTH_MEASURE( 1.000000000000000082E-05 ), #124, 'distance_accuracy_value', 'NONE');
#46 = AXIS2_PLACEMENT_3D ( 'NONE', #341, #131, #239 ) ;
#47 = CARTESIAN_POINT ( 'NONE',  ( 2.143131898507868297E-16, 0.7500000000000001110, 0.000000000000000000 ) ) ;
#48 = CIRCLE ( 'NONE', #114, 0.1250000000000000000 ) ;
#49 = DIRECTION ( 'NONE',  ( -1.000000000000000000, 0.000000000000000000, 0.000000000000000000 ) ) ;
#50 = DIRECTION ( 'NONE',  ( -0.000000000000000000, -1.000000000000000000, -0.000000000000000000 ) ) ;
#51 = CARTESIAN_POINT ( 'NONE',  ( -1.530808498934191509E-17, 0.1250000000000000000, 0.000000000000000000 ) ) ;
#52 = APPLICATION_PROTOCOL_DEFINITION ( 'draft international standard', 'automotive_design', 1998, #293 ) ;
#53 = ADVANCED_FACE ( 'NONE', ( #312 ), #36, .T. ) ;
#54 = DIRECTION ( 'NONE',  ( -0.000000000000000000, -1.000000000000000000, -0.000000000000000000 ) ) ;
#55 =( NAMED_UNIT ( * ) SI_UNIT ( $, .STERADIAN. ) SOLID_ANGLE_UNIT ( ) );
#56 = MECHANICAL_DESIGN_GEOMETRIC_PRESENTATION_REPRESENTATION (  '', ( #246 ), #288 ) ;
#57 = FACE_OUTER_BOUND ( 'NONE', #71, .T. ) ;
#58 =( NAMED_UNIT ( * ) PLANE_ANGLE_UNIT ( ) SI_UNIT ( $, .RADIAN. ) );
#59 = MECHANICAL_DESIGN_GEOMETRIC_PRESENTATION_REPRESENTATION (  '', ( #251 ), #307 ) ;
#60 = CARTESIAN_POINT ( 'NONE',  ( -0.1250000000000000555, 2.500000000000000000, 0.000000000000000000 ) ) ;
#61 = UNCERTAINTY_MEASURE_WITH_UNIT (LENGTH_MEASURE( 1.000000000000000082E-05 ), #234, 'distance_accuracy_value', 'NONE');
#62 =( CONVERSION_BASED_UNIT ( 'INCH', #308 ) LENGTH_UNIT ( ) NAMED_UNIT ( #44 ) );
#63 = CARTESIAN_POINT ( 'NONE',  ( 0.000000000000000000, 0.000000000000000000, 0.000000000000000000 ) ) ;
#64 = MECHANICAL_DESIGN_GEOMETRIC_PRESENTATION_REPRESENTATION (  '', ( #270 ), #120 ) ;
#65 = FILL_AREA_STYLE ('',( #183 ) ) ;
#66 = AXIS2_PLACEMENT_3D ( 'NONE', #219, #333, #84 ) ;
#67 = DIRECTION ( 'NONE',  ( -1.000000000000000000, 0.000000000000000000, 0.000000000000000000 ) ) ;
#68 = LENGTH_MEASURE_WITH_UNIT ( LENGTH_MEASURE( 0.02539999999999999897 ), #217 );
#69 = LENGTH_MEASURE_WITH_UNIT ( LENGTH_MEASURE( 0.02539999999999999897 ), #348 );
#70 = AXIS2_PLACEMENT_3D ( 'NONE', #77, #298, #192 ) ;
#71 = EDGE_LOOP ( 'NONE', ( #106, #326, #316, #111 ) ) ;
#72 = SURFACE_STYLE_FILL_AREA ( #7 ) ;
#73 = DIMENSIONAL_EXPONENTS ( 1.000000000000000000, 0.000000000000000000, 0.000000000000000000, 0.000000000000000000, 0.000000000000000000, 0.000000000000000000, 0.000000000000000000 ) ;
#74 = DIRECTION ( 'NONE',  ( 0.000000000000000000, 0.000000000000000000, -1.000000000000000000 ) ) ;
#75 = ADVANCED_FACE ( 'NONE', ( #15 ), #138, .F. ) ;
#76 = VERTEX_POINT ( 'NONE', #194 ) ;
#77 = CARTESIAN_POINT ( 'NONE',  ( 2.143131898507868297E-16, 0.7499999999999998890, 0.000000000000000000 ) ) ;
#78 = ADVANCED_FACE ( 'NONE', ( #366 ), #105, .F. ) ;
#79 = VERTEX_POINT ( 'NONE', #361 ) ;
#80 = DIRECTION ( 'NONE',  ( 0.000000000000000000, -0.000000000000000000, 1.000000000000000000 ) ) ;
#81 = CIRCLE ( 'NONE', #330, 0.1249999999999999029 ) ;
#82 = EDGE_CURVE ( 'NONE', #171, #323, #187, .T. ) ;
#83 =( NAMED_UNIT ( * ) SI_UNIT ( $, .STERADIAN. ) SOLID_ANGLE_UNIT ( ) );
#84 = DIRECTION ( 'NONE',  ( 1.000000000000000000, 0.000000000000000000, 0.000000000000000000 ) ) ;
#85 = PRODUCT_RELATED_PRODUCT_CATEGORY ( 'part', '', ( #243 ) ) ;
#86 = PRESENTATION_LAYER_ASSIGNMENT (  '', '', ( #246 ) ) ;
#87 =( LENGTH_UNIT ( ) NAMED_UNIT ( * ) SI_UNIT ( $, .METRE. ) );
#88 = DIRECTION ( 'NONE',  ( -1.000000000000000000, 0.000000000000000000, 0.000000000000000000 ) ) ;
#89 = CARTESIAN_POINT ( 'NONE',  ( 0.000000000000000000, 0.1250000000000000278, -0.1249999999999999861 ) ) ;
#90 = FACE_OUTER_BOUND ( 'NONE', #37, .T. ) ;
#91 = EDGE_CURVE ( 'NONE', #266, #79, #129, .T. ) ;
#92 = SURFACE_STYLE_USAGE ( .BOTH. , #127 ) ;
#93 = DIRECTION ( 'NONE',  ( -1.574545884618025482E-16, 1.000000000000000000, -0.000000000000000000 ) ) ;
#94 = DIRECTION ( 'NONE',  ( -0.000000000000000000, -1.000000000000000000, -0.000000000000000000 ) ) ;
#95 = ORIENTED_EDGE ( 'NONE', *, *, #41, .F. ) ;
#96 = SURFACE_SIDE_STYLE ('',( #4 ) ) ;
#97 = EDGE_CURVE ( 'NONE', #347, #266, #224, .T. ) ;
#98 = CYLINDRICAL_SURFACE ( 'NONE', #235, 0.1249999999999998335 ) ;
#99 = ORIENTED_EDGE ( 'NONE', *, *, #283, .F. ) ;
#100 = CIRCLE ( 'NONE', #200, 0.1250000000000000000 ) ;
#101 = MECHANICAL_DESIGN_GEOMETRIC_PRESENTATION_REPRESENTATION (  '', ( #315 ), #362 ) ;
#102 =( LENGTH_UNIT ( ) NAMED_UNIT ( * ) SI_UNIT ( $, .METRE. ) );
#103 = SURFACE_SIDE_STYLE ('',( #241 ) ) ;
#104 = PRESENTATION_STYLE_ASSIGNMENT (( #209 ) ) ;
#105 = PLANE ( 'NONE',  #258 ) ;
#106 = ORIENTED_EDGE ( 'NONE', *, *, #158, .T. ) ;
#107 = DIRECTION ( 'NONE',  ( -0.000000000000000000, -1.000000000000000000, -0.000000000000000000 ) ) ;
#108 = SURFACE_STYLE_USAGE ( .BOTH. , #168 ) ;
#109 = ORIENTED_EDGE ( 'NONE', *, *, #357, .F. ) ;
#110 = PRESENTATION_STYLE_ASSIGNMENT (( #108 ) ) ;
#111 = ORIENTED_EDGE ( 'NONE', *, *, #370, .T. ) ;
#112 = DIRECTION ( 'NONE',  ( 1.574545884618025482E-16, -1.000000000000000000, 0.000000000000000000 ) ) ;
#113 = COLOUR_RGB ( '',1.000000000000000000, 0.000000000000000000, 0.000000000000000000 ) ;
#114 = AXIS2_PLACEMENT_3D ( 'NONE', #273, #16, #328 ) ;
#115 = SURFACE_STYLE_FILL_AREA ( #180 ) ;
#116 = UNCERTAINTY_MEASURE_WITH_UNIT (LENGTH_MEASURE( 1.000000000000000082E-05 ), #126, 'distance_accuracy_value', 'NONE');
#117 = PRESENTATION_STYLE_ASSIGNMENT (( #12 ) ) ;
#118 = DIRECTION ( 'NONE',  ( 0.000000000000000000, 0.000000000000000000, -1.000000000000000000 ) ) ;
#119 = CARTESIAN_POINT ( 'NONE',  ( -1.530808498934191509E-17, 0.1250000000000000000, 0.000000000000000000 ) ) ;
#120 =( GEOMETRIC_REPRESENTATION_CONTEXT ( 3 ) GLOBAL_UNCERTAINTY_ASSIGNED_CONTEXT ( ( #164 ) ) GLOBAL_UNIT_ASSIGNED_CONTEXT ( ( #242, #167, #55 ) ) REPRESENTATION_CONTEXT ( 'NONE', 'WORKASPACE' ) );
#121 = PRESENTATION_LAYER_ASSIGNMENT (  '', '', ( #270 ) ) ;
#122 =( GEOMETRIC_REPRESENTATION_CONTEXT ( 3 ) GLOBAL_UNCERTAINTY_ASSIGNED_CONTEXT ( ( #334 ) ) GLOBAL_UNIT_ASSIGNED_CONTEXT ( ( #367, #58, #83 ) ) REPRESENTATION_CONTEXT ( 'NONE', 'WORKASPACE' ) );
#123 = MANIFOLD_SOLID_BREP ( 'Revolve - Tool Body (Straight Shanked)', #186 ) ;
#124 =( CONVERSION_BASED_UNIT ( 'INCH', #68 ) LENGTH_UNIT ( ) NAMED_UNIT ( #73 ) );
#125 =( NAMED_UNIT ( * ) SI_UNIT ( $, .STERADIAN. ) SOLID_ANGLE_UNIT ( ) );
#126 =( CONVERSION_BASED_UNIT ( 'INCH', #202 ) LENGTH_UNIT ( ) NAMED_UNIT ( #141 ) );
#127 = SURFACE_SIDE_STYLE ('',( #72 ) ) ;
#128 = CLOSED_SHELL ( 'NONE', ( #165, #42, #207, #306, #17 ) ) ;
#129 = CIRCLE ( 'NONE', #322, 0.1249999999999999861 ) ;
#130 = ORIENTED_EDGE ( 'NONE', *, *, #320, .F. ) ;
#131 = DIRECTION ( 'NONE',  ( 0.000000000000000000, 0.000000000000000000, 1.000000000000000000 ) ) ;
#132 = AXIS2_PLACEMENT_3D ( 'NONE', #300, #304, #245 ) ;
#133 = VECTOR ( 'NONE', #365, 39.37007874015748143 ) ;
#134 = FILL_AREA_STYLE ('',( #11 ) ) ;
#135 = DIMENSIONAL_EXPONENTS ( 1.000000000000000000, 0.000000000000000000, 0.000000000000000000, 0.000000000000000000, 0.000000000000000000, 0.000000000000000000, 0.000000000000000000 ) ;
#136 = FILL_AREA_STYLE ('',( #295 ) ) ;
#137 = EDGE_LOOP ( 'NONE', ( #24, #95 ) ) ;
#138 = PLANE ( 'NONE',  #262 ) ;
#139 = CARTESIAN_POINT ( 'NONE',  ( 0.1249999999999999167, 0.7499999999999998890, 1.530808498934190276E-17 ) ) ;
#140 = PRESENTATION_LAYER_ASSIGNMENT (  '', '', ( #296 ) ) ;
#141 = DIMENSIONAL_EXPONENTS ( 1.000000000000000000, 0.000000000000000000, 0.000000000000000000, 0.000000000000000000, 0.000000000000000000, 0.000000000000000000, 0.000000000000000000 ) ;
#142 = EDGE_CURVE ( 'NONE', #347, #174, #38, .T. ) ;
#143 = CARTESIAN_POINT ( 'NONE',  ( 0.000000000000000000, 0.1250000000000000278, 0.000000000000000000 ) ) ;
#144 = EDGE_LOOP ( 'NONE', ( #8, #225, #214, #259, #260 ) ) ;
#145 = LINE ( 'NONE', #172, #133 ) ;
#146 =( NAMED_UNIT ( * ) PLANE_ANGLE_UNIT ( ) SI_UNIT ( $, .RADIAN. ) );
#147 = CIRCLE ( 'NONE', #310, 0.1250000000000000000 ) ;
#148 = STYLED_ITEM ( 'NONE', ( #287 ), #306 ) ;
#149 = DIRECTION ( 'NONE',  ( -1.000000000000000000, 0.000000000000000000, 0.000000000000000000 ) ) ;
#150 = EDGE_CURVE ( 'NONE', #265, #208, #147, .T. ) ;
#151 = FILL_AREA_STYLE_COLOUR ( '', #337 ) ;
#152 =( NAMED_UNIT ( * ) SI_UNIT ( $, .STERADIAN. ) SOLID_ANGLE_UNIT ( ) );
#153 = PRESENTATION_LAYER_ASSIGNMENT (  '', '', ( #315 ) ) ;
#154 = MECHANICAL_DESIGN_GEOMETRIC_PRESENTATION_REPRESENTATION (  '', ( #373 ), #39 ) ;
#155 = DIRECTION ( 'NONE',  ( 0.000000000000000000, 0.000000000000000000, -1.000000000000000000 ) ) ;
#156 = SURFACE_STYLE_USAGE ( .BOTH. , #35 ) ;
#157 = CARTESIAN_POINT ( 'NONE',  ( 0.000000000000000000, 0.000000000000000000, 0.000000000000000000 ) ) ;
#158 = EDGE_CURVE ( 'NONE', #250, #76, #6, .T. ) ;
#159 = CARTESIAN_POINT ( 'NONE',  ( 1.530808498934191509E-17, 0.1250000000000000278, 0.1249999999999999861 ) ) ;
#160 = CARTESIAN_POINT ( 'NONE',  ( -6.123233995736766036E-17, 2.500000000000000000, 0.000000000000000000 ) ) ;
#161 = ORIENTED_EDGE ( 'NONE', *, *, #82, .T. ) ;
#162 = FILL_AREA_STYLE_COLOUR ( '', #113 ) ;
#163 =( NAMED_UNIT ( * ) SI_UNIT ( $, .STERADIAN. ) SOLID_ANGLE_UNIT ( ) );
#164 = UNCERTAINTY_MEASURE_WITH_UNIT (LENGTH_MEASURE( 1.000000000000000082E-05 ), #242, 'distance_accuracy_value', 'NONE');
#165 = ADVANCED_FACE ( 'NONE', ( #57 ), #274, .T. ) ;
#166 = PRODUCT_DEFINITION_FORMATION_WITH_SPECIFIED_SOURCE ( 'ANY', '', #243, .NOT_KNOWN. ) ;
#167 =( NAMED_UNIT ( * ) PLANE_ANGLE_UNIT ( ) SI_UNIT ( $, .RADIAN. ) );
#168 = SURFACE_SIDE_STYLE ('',( #359 ) ) ;
#169 = ORIENTED_EDGE ( 'NONE', *, *, #82, .F. ) ;
#170 = LENGTH_MEASURE_WITH_UNIT ( LENGTH_MEASURE( 0.02539999999999999897 ), #249 );
#171 = VERTEX_POINT ( 'NONE', #261 ) ;
#172 = CARTESIAN_POINT ( 'NONE',  ( 1.530808498934190893E-17, 0.000000000000000000, 0.1249999999999999306 ) ) ;
#173 = DIMENSIONAL_EXPONENTS ( 1.000000000000000000, 0.000000000000000000, 0.000000000000000000, 0.000000000000000000, 0.000000000000000000, 0.000000000000000000, 0.000000000000000000 ) ;
#174 = VERTEX_POINT ( 'NONE', #26 ) ;
#175 = DIRECTION ( 'NONE',  ( 1.000000000000000000, 0.000000000000000000, 0.000000000000000000 ) ) ;
#176 = SHAPE_DEFINITION_REPRESENTATION ( #2, #343 ) ;
#177 =( LENGTH_UNIT ( ) NAMED_UNIT ( * ) SI_UNIT ( $, .METRE. ) );
#178 = AXIS2_PLACEMENT_3D ( 'NONE', #143, #54, #74 ) ;
#179 = DIRECTION ( 'NONE',  ( 0.000000000000000000, 0.000000000000000000, 1.000000000000000000 ) ) ;
#180 = FILL_AREA_STYLE ('',( #151 ) ) ;
#181 = CARTESIAN_POINT ( 'NONE',  ( -0.1249999999999999029, 2.500000000000000000, 0.000000000000000000 ) ) ;
#182 = DIRECTION ( 'NONE',  ( -1.574545884618025482E-16, 1.000000000000000000, -0.000000000000000000 ) ) ;
#183 = FILL_AREA_STYLE_COLOUR ( '', #231 ) ;
#184 = DIRECTION ( 'NONE',  ( -1.574545884618025482E-16, 1.000000000000000000, -0.000000000000000000 ) ) ;
#185 =( NAMED_UNIT ( * ) PLANE_ANGLE_UNIT ( ) SI_UNIT ( $, .RADIAN. ) );
#186 = CLOSED_SHELL ( 'NONE', ( #31, #75, #53, #78 ) ) ;
#187 = CIRCLE ( 'NONE', #70, 0.1249999999999996947 ) ;
#188 = VECTOR ( 'NONE', #275, 39.37007874015748143 ) ;
#189 = EDGE_LOOP ( 'NONE', ( #161, #244, #221, #99 ) ) ;
#190 = UNCERTAINTY_MEASURE_WITH_UNIT (LENGTH_MEASURE( 1.000000000000000082E-05 ), #62, 'distance_accuracy_value', 'NONE');
#191 = DIRECTION ( 'NONE',  ( -1.000000000000000000, -1.574545884618025482E-16, 0.000000000000000000 ) ) ;
#192 = DIRECTION ( 'NONE',  ( -1.000000000000000000, 0.000000000000000000, 0.000000000000000000 ) ) ;
#193 = VERTEX_POINT ( 'NONE', #254 ) ;
#194 = CARTESIAN_POINT ( 'NONE',  ( -0.1250000000000000000, 0.1250000000000000278, 1.530808498934191201E-17 ) ) ;
#195 = AXIS2_PLACEMENT_3D ( 'NONE', #160, #257, #268 ) ;
#196 = PRESENTATION_LAYER_ASSIGNMENT (  '', '', ( #373 ) ) ;
#197 = CARTESIAN_POINT ( 'NONE',  ( 0.000000000000000000, 0.7500000000000001110, -0.1249999999999999029 ) ) ;
#198 = LENGTH_MEASURE_WITH_UNIT ( LENGTH_MEASURE( 0.02539999999999999897 ), #177 );
#199 = PRODUCT_CONTEXT ( 'NONE', #293, 'mechanical' ) ;
#200 = AXIS2_PLACEMENT_3D ( 'NONE', #51, #118, #149 ) ;
#201 = CARTESIAN_POINT ( 'NONE',  ( 0.000000000000000000, 0.1250000000000000278, 0.000000000000000000 ) ) ;
#202 = LENGTH_MEASURE_WITH_UNIT ( LENGTH_MEASURE( 0.02539999999999999897 ), #3 );
#203 = CARTESIAN_POINT ( 'NONE',  ( -6.123233995736766036E-17, 2.500000000000000000, 0.000000000000000000 ) ) ;
#204 = COLOUR_RGB ( '',1.000000000000000000, 0.000000000000000000, 0.000000000000000000 ) ;
#205 = CIRCLE ( 'NONE', #1, 0.1249999999999999861 ) ;
#206 = FILL_AREA_STYLE ('',( #284 ) ) ;
#207 = ADVANCED_FACE ( 'NONE', ( #30 ), #253, .T. ) ;
#208 = VERTEX_POINT ( 'NONE', #60 ) ;
#209 = SURFACE_STYLE_USAGE ( .BOTH. , #96 ) ;
#210 = DIRECTION ( 'NONE',  ( -0.000000000000000000, -1.000000000000000000, -0.000000000000000000 ) ) ;
#211 = ORIENTED_EDGE ( 'NONE', *, *, #28, .T. ) ;
#212 = CARTESIAN_POINT ( 'NONE',  ( -6.123233995736766036E-17, 2.500000000000000000, 0.000000000000000000 ) ) ;
#213 = COLOUR_RGB ( '',1.000000000000000000, 0.000000000000000000, 0.000000000000000000 ) ;
#214 = ORIENTED_EDGE ( 'NONE', *, *, #370, .F. ) ;
#215 = DIRECTION ( 'NONE',  ( 0.000000000000000000, 0.000000000000000000, -1.000000000000000000 ) ) ;
#216 = CARTESIAN_POINT ( 'NONE',  ( 0.000000000000000000, 0.000000000000000000, -0.1249999999999999306 ) ) ;
#217 =( LENGTH_UNIT ( ) NAMED_UNIT ( * ) SI_UNIT ( $, .METRE. ) );
#218 = ORIENTED_EDGE ( 'NONE', *, *, #158, .F. ) ;
#219 = CARTESIAN_POINT ( 'NONE',  ( 0.000000000000000000, 0.000000000000000000, 0.000000000000000000 ) ) ;
#220 =( LENGTH_UNIT ( ) NAMED_UNIT ( * ) SI_UNIT ( $, .METRE. ) );
#221 = ORIENTED_EDGE ( 'NONE', *, *, #272, .F. ) ;
#222 = LINE ( 'NONE', #21, #188 ) ;
#223 = ORIENTED_EDGE ( 'NONE', *, *, #41, .T. ) ;
#224 = LINE ( 'NONE', #216, #372 ) ;
#225 = ORIENTED_EDGE ( 'NONE', *, *, #344, .T. ) ;
#226 = AXIS2_PLACEMENT_3D ( 'NONE', #201, #350, #215 ) ;
#227 = SURFACE_SIDE_STYLE ('',( #115 ) ) ;
#228 = DIRECTION ( 'NONE',  ( 0.000000000000000000, 0.000000000000000000, -1.000000000000000000 ) ) ;
#229 = FILL_AREA_STYLE_COLOUR ( '', #204 ) ;
#230 = FILL_AREA_STYLE ('',( #229 ) ) ;
#231 = COLOUR_RGB ( '',0.7921568627450980005, 0.8196078431372548767, 0.9333333333333333481 ) ;
#232 = MANIFOLD_SOLID_BREP ( 'Revolve - Cutting Edge', #128 ) ;
#233 =( NAMED_UNIT ( * ) PLANE_ANGLE_UNIT ( ) SI_UNIT ( $, .RADIAN. ) );
#234 =( CONVERSION_BASED_UNIT ( 'INCH', #69 ) LENGTH_UNIT ( ) NAMED_UNIT ( #135 ) );
#235 = AXIS2_PLACEMENT_3D ( 'NONE', #212, #184, #67 ) ;
#236 = MECHANICAL_DESIGN_GEOMETRIC_PRESENTATION_REPRESENTATION (  '', ( #148 ), #297 ) ;
#237 =( NAMED_UNIT ( * ) SI_UNIT ( $, .STERADIAN. ) SOLID_ANGLE_UNIT ( ) );
#238 = ORIENTED_EDGE ( 'NONE', *, *, #283, .T. ) ;
#239 = DIRECTION ( 'NONE',  ( 1.000000000000000000, 0.000000000000000000, 0.000000000000000000 ) ) ;
#240 = EDGE_LOOP ( 'NONE', ( #356, #299 ) ) ;
#241 = SURFACE_STYLE_FILL_AREA ( #134 ) ;
#242 =( CONVERSION_BASED_UNIT ( 'INCH', #324 ) LENGTH_UNIT ( ) NAMED_UNIT ( #173 ) );
#243 = PRODUCT ( '83284', '83284', '', ( #199 ) ) ;
#244 = ORIENTED_EDGE ( 'NONE', *, *, #357, .T. ) ;
#245 = DIRECTION ( 'NONE',  ( 0.000000000000000000, 0.000000000000000000, -1.000000000000000000 ) ) ;
#246 = STYLED_ITEM ( 'NONE', ( #117 ), #165 ) ;
#247 = CARTESIAN_POINT ( 'NONE',  ( 0.000000000000000000, 0.1250000000000000278, 0.000000000000000000 ) ) ;
#248 = DIRECTION ( 'NONE',  ( -1.574545884618025482E-16, 1.000000000000000000, 0.000000000000000000 ) ) ;
#249 =( LENGTH_UNIT ( ) NAMED_UNIT ( * ) SI_UNIT ( $, .METRE. ) );
#250 = VERTEX_POINT ( 'NONE', #159 ) ;
#251 = STYLED_ITEM ( 'NONE', ( #290 ), #42 ) ;
#252 = SURFACE_SIDE_STYLE ('',( #276 ) ) ;
#253 = PLANE ( 'NONE',  #363 ) ;
#254 = CARTESIAN_POINT ( 'NONE',  ( -7.654042494670957545E-18, 0.000000000000000000, 0.000000000000000000 ) ) ;
#255 = SURFACE_STYLE_FILL_AREA ( #206 ) ;
#256 =( CONVERSION_BASED_UNIT ( 'INCH', #313 ) LENGTH_UNIT ( ) NAMED_UNIT ( #318 ) );
#257 = DIRECTION ( 'NONE',  ( -1.574545884618025482E-16, 1.000000000000000000, -0.000000000000000000 ) ) ;
#258 = AXIS2_PLACEMENT_3D ( 'NONE', #321, #112, #327 ) ;
#259 = ORIENTED_EDGE ( 'NONE', *, *, #91, .F. ) ;
#260 = ORIENTED_EDGE ( 'NONE', *, *, #97, .F. ) ;
#261 = CARTESIAN_POINT ( 'NONE',  ( -0.1249999999999994726, 0.7499999999999998890, 0.000000000000000000 ) ) ;
#262 = AXIS2_PLACEMENT_3D ( 'NONE', #47, #248, #191 ) ;
#263 = COLOUR_RGB ( '',1.000000000000000000, 0.000000000000000000, 0.000000000000000000 ) ;
#264 = CARTESIAN_POINT ( 'NONE',  ( -6.123233995736766036E-17, 2.500000000000000000, 0.000000000000000000 ) ) ;
#265 = VERTEX_POINT ( 'NONE', #279 ) ;
#266 = VERTEX_POINT ( 'NONE', #89 ) ;
#267 = DIMENSIONAL_EXPONENTS ( 1.000000000000000000, 0.000000000000000000, 0.000000000000000000, 0.000000000000000000, 0.000000000000000000, 0.000000000000000000, 0.000000000000000000 ) ;
#268 = DIRECTION ( 'NONE',  ( -1.000000000000000000, 0.000000000000000000, 0.000000000000000000 ) ) ;
#269 = ORIENTED_EDGE ( 'NONE', *, *, #344, .F. ) ;
#270 = STYLED_ITEM ( 'NONE', ( #110 ), #123 ) ;
#271 = DIRECTION ( 'NONE',  ( -1.000000000000000000, 0.000000000000000000, 0.000000000000000000 ) ) ;
#272 = EDGE_CURVE ( 'NONE', #208, #265, #34, .T. ) ;
#273 = CARTESIAN_POINT ( 'NONE',  ( -1.530808498934191509E-17, 0.1250000000000000000, 0.000000000000000000 ) ) ;
#274 = SPHERICAL_SURFACE ( 'NONE', #369, 0.1250000000000000000 ) ;
#275 = DIRECTION ( 'NONE',  ( -1.574545884618025482E-16, 1.000000000000000000, -0.000000000000000000 ) ) ;
#276 = SURFACE_STYLE_FILL_AREA ( #230 ) ;
#277 = VECTOR ( 'NONE', #340, 39.37007874015748143 ) ;
#278 = PRODUCT_DEFINITION ( 'UNKNOWN', '', #166, #338 ) ;
#279 = CARTESIAN_POINT ( 'NONE',  ( 0.1249999999999999306, 2.500000000000000000, 1.530808498934190276E-17 ) ) ;
#280 = PRESENTATION_STYLE_ASSIGNMENT (( #339 ) ) ;
#281 = CARTESIAN_POINT ( 'NONE',  ( 2.143131898507868297E-16, 0.7499999999999998890, 0.000000000000000000 ) ) ;
#282 = DIRECTION ( 'NONE',  ( -0.000000000000000000, -1.000000000000000000, -0.000000000000000000 ) ) ;
#283 = EDGE_CURVE ( 'NONE', #171, #208, #33, .T. ) ;
#284 = FILL_AREA_STYLE_COLOUR ( '', #263 ) ;
#285 =( NAMED_UNIT ( * ) PLANE_ANGLE_UNIT ( ) SI_UNIT ( $, .RADIAN. ) );
#286 = DIRECTION ( 'NONE',  ( 0.000000000000000000, 0.000000000000000000, -1.000000000000000000 ) ) ;
#287 = PRESENTATION_STYLE_ASSIGNMENT (( #156 ) ) ;
#288 =( GEOMETRIC_REPRESENTATION_CONTEXT ( 3 ) GLOBAL_UNCERTAINTY_ASSIGNED_CONTEXT ( ( #319 ) ) GLOBAL_UNIT_ASSIGNED_CONTEXT ( ( #335, #146, #152 ) ) REPRESENTATION_CONTEXT ( 'NONE', 'WORKASPACE' ) );
#289 = ORIENTED_EDGE ( 'NONE', *, *, #14, .F. ) ;
#290 = PRESENTATION_STYLE_ASSIGNMENT (( #92 ) ) ;
#291 = ORIENTED_EDGE ( 'NONE', *, *, #150, .F. ) ;
#292 = UNCERTAINTY_MEASURE_WITH_UNIT (LENGTH_MEASURE( 1.000000000000000082E-05 ), #256, 'distance_accuracy_value', 'NONE');
#293 = APPLICATION_CONTEXT ( 'automotive_design' ) ;
#294 =( NAMED_UNIT ( * ) PLANE_ANGLE_UNIT ( ) SI_UNIT ( $, .RADIAN. ) );
#295 = FILL_AREA_STYLE_COLOUR ( '', #32 ) ;
#296 = STYLED_ITEM ( 'NONE', ( #280 ), #207 ) ;
#297 =( GEOMETRIC_REPRESENTATION_CONTEXT ( 3 ) GLOBAL_UNCERTAINTY_ASSIGNED_CONTEXT ( ( #116 ) ) GLOBAL_UNIT_ASSIGNED_CONTEXT ( ( #126, #233, #358 ) ) REPRESENTATION_CONTEXT ( 'NONE', 'WORKASPACE' ) );
#298 = DIRECTION ( 'NONE',  ( -1.574545884618025482E-16, 1.000000000000000000, -0.000000000000000000 ) ) ;
#299 = ORIENTED_EDGE ( 'NONE', *, *, #150, .T. ) ;
#300 = CARTESIAN_POINT ( 'NONE',  ( 0.000000000000000000, 0.7500000000000001110, 0.000000000000000000 ) ) ;
#301 = ORIENTED_EDGE ( 'NONE', *, *, #28, .F. ) ;
#302 = CIRCLE ( 'NONE', #352, 0.1249999999999996947 ) ;
#303 = CIRCLE ( 'NONE', #226, 0.1249999999999999861 ) ;
#304 = DIRECTION ( 'NONE',  ( -0.000000000000000000, -1.000000000000000000, -0.000000000000000000 ) ) ;
#305 = APPLICATION_PROTOCOL_DEFINITION ( 'draft international standard', 'automotive_design', 1998, #329 ) ;
#306 = ADVANCED_FACE ( 'NONE', ( #90 ), #309, .T. ) ;
#307 =( GEOMETRIC_REPRESENTATION_CONTEXT ( 3 ) GLOBAL_UNCERTAINTY_ASSIGNED_CONTEXT ( ( #61 ) ) GLOBAL_UNIT_ASSIGNED_CONTEXT ( ( #234, #294, #125 ) ) REPRESENTATION_CONTEXT ( 'NONE', 'WORKASPACE' ) );
#308 = LENGTH_MEASURE_WITH_UNIT ( LENGTH_MEASURE( 0.02539999999999999897 ), #87 );
#309 = CYLINDRICAL_SURFACE ( 'NONE', #355, 0.1249999999999999306 ) ;
#310 = AXIS2_PLACEMENT_3D ( 'NONE', #264, #23, #271 ) ;
#311 = SPHERICAL_SURFACE ( 'NONE', #46, 0.1250000000000000000 ) ;
#312 = FACE_OUTER_BOUND ( 'NONE', #314, .T. ) ;
#313 = LENGTH_MEASURE_WITH_UNIT ( LENGTH_MEASURE( 0.02539999999999999897 ), #102 );
#314 = EDGE_LOOP ( 'NONE', ( #109, #27, #238, #291 ) ) ;
#315 = STYLED_ITEM ( 'NONE', ( #354 ), #17 ) ;
#316 = ORIENTED_EDGE ( 'NONE', *, *, #5, .F. ) ;
#317 = FACE_OUTER_BOUND ( 'NONE', #189, .T. ) ;
#318 = DIMENSIONAL_EXPONENTS ( 1.000000000000000000, 0.000000000000000000, 0.000000000000000000, 0.000000000000000000, 0.000000000000000000, 0.000000000000000000, 0.000000000000000000 ) ;
#319 = UNCERTAINTY_MEASURE_WITH_UNIT (LENGTH_MEASURE( 1.000000000000000082E-05 ), #335, 'distance_accuracy_value', 'NONE');
#320 = EDGE_CURVE ( 'NONE', #76, #193, #48, .T. ) ;
#321 = CARTESIAN_POINT ( 'NONE',  ( 0.1249999999999999306, 2.500000000000000000, 0.000000000000000000 ) ) ;
#322 = AXIS2_PLACEMENT_3D ( 'NONE', #247, #50, #18 ) ;
#323 = VERTEX_POINT ( 'NONE', #139 ) ;
#324 = LENGTH_MEASURE_WITH_UNIT ( LENGTH_MEASURE( 0.02539999999999999897 ), #220 );
#325 = DIMENSIONAL_EXPONENTS ( 1.000000000000000000, 0.000000000000000000, 0.000000000000000000, 0.000000000000000000, 0.000000000000000000, 0.000000000000000000, 0.000000000000000000 ) ;
#326 = ORIENTED_EDGE ( 'NONE', *, *, #320, .T. ) ;
#327 = DIRECTION ( 'NONE',  ( 1.000000000000000000, 1.574545884618025482E-16, 0.000000000000000000 ) ) ;
#328 = DIRECTION ( 'NONE',  ( 1.000000000000000000, 0.000000000000000000, -1.224646799147353207E-16 ) ) ;
#329 = APPLICATION_CONTEXT ( 'automotive_design' ) ;
#330 = AXIS2_PLACEMENT_3D ( 'NONE', #9, #210, #40 ) ;
#331 = AXIS2_PLACEMENT_3D ( 'NONE', #203, #93, #49 ) ;
#332 = SURFACE_STYLE_USAGE ( .BOTH. , #227 ) ;
#333 = DIRECTION ( 'NONE',  ( 0.000000000000000000, 0.000000000000000000, 1.000000000000000000 ) ) ;
#334 = UNCERTAINTY_MEASURE_WITH_UNIT (LENGTH_MEASURE( 1.000000000000000082E-05 ), #367, 'distance_accuracy_value', 'NONE');
#335 =( CONVERSION_BASED_UNIT ( 'INCH', #198 ) LENGTH_UNIT ( ) NAMED_UNIT ( #267 ) );
#336 = CARTESIAN_POINT ( 'NONE',  ( 0.000000000000000000, 0.7500000000000001110, 0.000000000000000000 ) ) ;
#337 = COLOUR_RGB ( '',1.000000000000000000, 0.000000000000000000, 0.000000000000000000 ) ;
#338 = PRODUCT_DEFINITION_CONTEXT ( 'detailed design', #329, 'design' ) ;
#339 = SURFACE_STYLE_USAGE ( .BOTH. , #252 ) ;
#340 = DIRECTION ( 'NONE',  ( -1.574545884618025482E-16, 1.000000000000000000, -0.000000000000000000 ) ) ;
#341 = CARTESIAN_POINT ( 'NONE',  ( -1.530808498934191509E-17, 0.1250000000000000000, 0.000000000000000000 ) ) ;
#342 =( NAMED_UNIT ( * ) SI_UNIT ( $, .STERADIAN. ) SOLID_ANGLE_UNIT ( ) );
#343 = ADVANCED_BREP_SHAPE_REPRESENTATION ( '83284', ( #232, #123, #66 ), #122 ) ;
#344 = EDGE_CURVE ( 'NONE', #174, #250, #145, .T. ) ;
#345 = PRESENTATION_LAYER_ASSIGNMENT (  '', '', ( #148 ) ) ;
#346 = FACE_OUTER_BOUND ( 'NONE', #144, .T. ) ;
#347 = VERTEX_POINT ( 'NONE', #197 ) ;
#348 =( LENGTH_UNIT ( ) NAMED_UNIT ( * ) SI_UNIT ( $, .METRE. ) );
#349 = ORIENTED_EDGE ( 'NONE', *, *, #97, .T. ) ;
#350 = DIRECTION ( 'NONE',  ( -0.000000000000000000, -1.000000000000000000, -0.000000000000000000 ) ) ;
#351 = EDGE_LOOP ( 'NONE', ( #130, #211, #360, #20 ) ) ;
#352 = AXIS2_PLACEMENT_3D ( 'NONE', #281, #182, #88 ) ;
#353 = PRESENTATION_LAYER_ASSIGNMENT (  '', '', ( #251 ) ) ;
#354 = PRESENTATION_STYLE_ASSIGNMENT (( #332 ) ) ;
#355 = AXIS2_PLACEMENT_3D ( 'NONE', #63, #282, #155 ) ;
#356 = ORIENTED_EDGE ( 'NONE', *, *, #272, .T. ) ;
#357 = EDGE_CURVE ( 'NONE', #323, #265, #222, .T. ) ;
#358 =( NAMED_UNIT ( * ) SI_UNIT ( $, .STERADIAN. ) SOLID_ANGLE_UNIT ( ) );
#359 = SURFACE_STYLE_FILL_AREA ( #136 ) ;
#360 = ORIENTED_EDGE ( 'NONE', *, *, #91, .T. ) ;
#361 = CARTESIAN_POINT ( 'NONE',  ( 0.1249999999999999861, 0.1250000000000000278, 0.000000000000000000 ) ) ;
#362 =( GEOMETRIC_REPRESENTATION_CONTEXT ( 3 ) GLOBAL_UNCERTAINTY_ASSIGNED_CONTEXT ( ( #292 ) ) GLOBAL_UNIT_ASSIGNED_CONTEXT ( ( #256, #185, #237 ) ) REPRESENTATION_CONTEXT ( 'NONE', 'WORKASPACE' ) );
#363 = AXIS2_PLACEMENT_3D ( 'NONE', #336, #371, #80 ) ;
#364 = DIRECTION ( 'NONE',  ( -0.000000000000000000, -1.000000000000000000, -0.000000000000000000 ) ) ;
#365 = DIRECTION ( 'NONE',  ( -0.000000000000000000, -1.000000000000000000, -0.000000000000000000 ) ) ;
#366 = FACE_OUTER_BOUND ( 'NONE', #240, .T. ) ;
#367 =( CONVERSION_BASED_UNIT ( 'INCH', #170 ) LENGTH_UNIT ( ) NAMED_UNIT ( #325 ) );
#368 =( NAMED_UNIT ( * ) PLANE_ANGLE_UNIT ( ) SI_UNIT ( $, .RADIAN. ) );
#369 = AXIS2_PLACEMENT_3D ( 'NONE', #119, #179, #175 ) ;
#370 = EDGE_CURVE ( 'NONE', #79, #250, #205, .T. ) ;
#371 = DIRECTION ( 'NONE',  ( 0.000000000000000000, 1.000000000000000000, 0.000000000000000000 ) ) ;
#372 = VECTOR ( 'NONE', #364, 39.37007874015748143 ) ;
#373 = STYLED_ITEM ( 'NONE', ( #104 ), #232 ) ;
ENDSEC;
END-ISO-10303-21;
