ISO-10303-21;
HEADER;
FILE_DESCRIPTION (( 'STEP AP214' ),
    '1' );
FILE_NAME ('83290.STEP',
    '2023-06-30T22:57:52',
    ( '' ),
    ( '' ),
    'SwSTEP 2.0',
    'SolidWorks 2023',
    '' );
FILE_SCHEMA (( 'AUTOMOTIVE_DESIGN' ));
ENDSEC;

DATA;
#1 = ORIENTED_EDGE ( 'NONE', *, *, #272, .T. ) ;
#2 = LENGTH_MEASURE_WITH_UNIT ( LENGTH_MEASURE( 0.02539999999999999897 ), #117 );
#3 = LENGTH_MEASURE_WITH_UNIT ( LENGTH_MEASURE( 0.02539999999999999897 ), #28 );
#4 = CIRCLE ( 'NONE', #49, 0.1562500000000000000 ) ;
#5 = AXIS2_PLACEMENT_3D ( 'NONE', #131, #99, #153 ) ;
#6 = EDGE_LOOP ( 'NONE', ( #150, #181 ) ) ;
#7 = LINE ( 'NONE', #124, #68 ) ;
#8 = EDGE_CURVE ( 'NONE', #355, #9, #11, .T. ) ;
#9 = VERTEX_POINT ( 'NONE', #67 ) ;
#10 = DIRECTION ( 'NONE',  ( -1.000000000000000000, -1.224646799147353454E-16, 0.000000000000000000 ) ) ;
#11 = CIRCLE ( 'NONE', #257, 0.1562499999999996947 ) ;
#12 = LENGTH_MEASURE_WITH_UNIT ( LENGTH_MEASURE( 0.02539999999999999897 ), #213 );
#13 = MECHANICAL_DESIGN_GEOMETRIC_PRESENTATION_REPRESENTATION (  '', ( #182 ), #113 ) ;
#14 = FILL_AREA_STYLE_COLOUR ( '', #303 ) ;
#15 = FILL_AREA_STYLE_COLOUR ( '', #83 ) ;
#16 = COLOUR_RGB ( '',1.000000000000000000, 0.000000000000000000, 0.000000000000000000 ) ;
#17 = PRODUCT_RELATED_PRODUCT_CATEGORY ( 'part', '', ( #136 ) ) ;
#18 = AXIS2_PLACEMENT_3D ( 'NONE', #202, #177, #314 ) ;
#19 = DIRECTION ( 'NONE',  ( -1.224646799147353454E-16, 1.000000000000000000, -0.000000000000000000 ) ) ;
#20 = ADVANCED_FACE ( 'NONE', ( #163 ), #50, .T. ) ;
#21 = SHAPE_DEFINITION_REPRESENTATION ( #45, #316 ) ;
#22 = SURFACE_SIDE_STYLE ('',( #197 ) ) ;
#23 = CARTESIAN_POINT ( 'NONE',  ( 0.000000000000000000, 1.250000000000000000, -0.1562499999999998335 ) ) ;
#24 = LENGTH_MEASURE_WITH_UNIT ( LENGTH_MEASURE( 0.02539999999999999897 ), #260 );
#25 = PRESENTATION_LAYER_ASSIGNMENT (  '', '', ( #102 ) ) ;
#26 = CARTESIAN_POINT ( 'NONE',  ( 0.1562499999999998335, 3.000000000000000444, 1.913510623667737614E-17 ) ) ;
#27 = PLANE ( 'NONE',  #5 ) ;
#28 =( LENGTH_UNIT ( ) NAMED_UNIT ( * ) SI_UNIT ( $, .METRE. ) );
#29 = UNCERTAINTY_MEASURE_WITH_UNIT (LENGTH_MEASURE( 1.000000000000000082E-05 ), #360, 'distance_accuracy_value', 'NONE');
#30 = ORIENTED_EDGE ( 'NONE', *, *, #144, .T. ) ;
#31 = DIRECTION ( 'NONE',  ( -1.224646799147353454E-16, 1.000000000000000000, -0.000000000000000000 ) ) ;
#32 = AXIS2_PLACEMENT_3D ( 'NONE', #194, #336, #302 ) ;
#33 = ORIENTED_EDGE ( 'NONE', *, *, #210, .T. ) ;
#34 = ADVANCED_FACE ( 'NONE', ( #41 ), #366, .T. ) ;
#35 = CARTESIAN_POINT ( 'NONE',  ( 1.913510623667739463E-17, 0.1562500000000000278, 0.1562500000000000000 ) ) ;
#36 = PLANE ( 'NONE',  #193 ) ;
#37 = ORIENTED_EDGE ( 'NONE', *, *, #238, .T. ) ;
#38 = CARTESIAN_POINT ( 'NONE',  ( 0.1562500000000000000, 0.1562500000000000278, 0.000000000000000000 ) ) ;
#39 = CIRCLE ( 'NONE', #55, 0.1562499999999996947 ) ;
#40 = PRESENTATION_STYLE_ASSIGNMENT (( #185 ) ) ;
#41 = FACE_OUTER_BOUND ( 'NONE', #233, .T. ) ;
#42 = FILL_AREA_STYLE ('',( #15 ) ) ;
#43 =( NAMED_UNIT ( * ) SI_UNIT ( $, .STERADIAN. ) SOLID_ANGLE_UNIT ( ) );
#44 = DIRECTION ( 'NONE',  ( 0.000000000000000000, 0.000000000000000000, -1.000000000000000000 ) ) ;
#45 = PRODUCT_DEFINITION_SHAPE ( 'NONE', 'NONE',  #89 ) ;
#46 = FILL_AREA_STYLE ('',( #164 ) ) ;
#47 = SURFACE_STYLE_FILL_AREA ( #139 ) ;
#48 = DIMENSIONAL_EXPONENTS ( 1.000000000000000000, 0.000000000000000000, 0.000000000000000000, 0.000000000000000000, 0.000000000000000000, 0.000000000000000000, 0.000000000000000000 ) ;
#49 = AXIS2_PLACEMENT_3D ( 'NONE', #315, #373, #175 ) ;
#50 = CYLINDRICAL_SURFACE ( 'NONE', #159, 0.1562499999999998057 ) ;
#51 = DIMENSIONAL_EXPONENTS ( 1.000000000000000000, 0.000000000000000000, 0.000000000000000000, 0.000000000000000000, 0.000000000000000000, 0.000000000000000000, 0.000000000000000000 ) ;
#52 = DIRECTION ( 'NONE',  ( 1.000000000000000000, 0.000000000000000000, 0.000000000000000000 ) ) ;
#53 = DIRECTION ( 'NONE',  ( 0.000000000000000000, 0.000000000000000000, 1.000000000000000000 ) ) ;
#54 = EDGE_CURVE ( 'NONE', #291, #90, #62, .T. ) ;
#55 = AXIS2_PLACEMENT_3D ( 'NONE', #295, #31, #183 ) ;
#56 = DIRECTION ( 'NONE',  ( -1.224646799147353454E-16, 1.000000000000000000, -0.000000000000000000 ) ) ;
#57 = APPLICATION_CONTEXT ( 'automotive_design' ) ;
#58 = SURFACE_SIDE_STYLE ('',( #364 ) ) ;
#59 = DIRECTION ( 'NONE',  ( -1.000000000000000000, 0.000000000000000000, 0.000000000000000000 ) ) ;
#60 = VERTEX_POINT ( 'NONE', #38 ) ;
#61 = CYLINDRICAL_SURFACE ( 'NONE', #262, 0.1562499999999998057 ) ;
#62 = CIRCLE ( 'NONE', #128, 0.1562500000000000000 ) ;
#63 = EDGE_LOOP ( 'NONE', ( #80, #93, #161, #120 ) ) ;
#64 = FACE_OUTER_BOUND ( 'NONE', #242, .T. ) ;
#65 = SURFACE_STYLE_FILL_AREA ( #162 ) ;
#66 = EDGE_LOOP ( 'NONE', ( #353, #216, #111, #78 ) ) ;
#67 = CARTESIAN_POINT ( 'NONE',  ( -0.1562499999999995559, 1.250000000000000000, 0.000000000000000000 ) ) ;
#68 = VECTOR ( 'NONE', #359, 39.37007874015748143 ) ;
#69 = CARTESIAN_POINT ( 'NONE',  ( -9.567553118338697316E-18, 0.000000000000000000, 0.000000000000000000 ) ) ;
#70 = ADVANCED_FACE ( 'NONE', ( #243 ), #231, .T. ) ;
#71 = LENGTH_MEASURE_WITH_UNIT ( LENGTH_MEASURE( 0.02539999999999999897 ), #192 );
#72 = EDGE_CURVE ( 'NONE', #279, #60, #140, .T. ) ;
#73 = SURFACE_STYLE_USAGE ( .BOTH. , #79 ) ;
#74 =( GEOMETRIC_REPRESENTATION_CONTEXT ( 3 ) GLOBAL_UNCERTAINTY_ASSIGNED_CONTEXT ( ( #82 ) ) GLOBAL_UNIT_ASSIGNED_CONTEXT ( ( #108, #249, #43 ) ) REPRESENTATION_CONTEXT ( 'NONE', 'WORKASPACE' ) );
#75 = FILL_AREA_STYLE ('',( #105 ) ) ;
#76 = SURFACE_STYLE_USAGE ( .BOTH. , #22 ) ;
#77 = SPHERICAL_SURFACE ( 'NONE', #341, 0.1562500000000000000 ) ;
#78 = ORIENTED_EDGE ( 'NONE', *, *, #188, .T. ) ;
#79 = SURFACE_SIDE_STYLE ('',( #334 ) ) ;
#80 = ORIENTED_EDGE ( 'NONE', *, *, #104, .F. ) ;
#81 = EDGE_CURVE ( 'NONE', #158, #279, #258, .T. ) ;
#82 = UNCERTAINTY_MEASURE_WITH_UNIT (LENGTH_MEASURE( 1.000000000000000082E-05 ), #108, 'distance_accuracy_value', 'NONE');
#83 = COLOUR_RGB ( '',1.000000000000000000, 0.000000000000000000, 0.000000000000000000 ) ;
#84 =( CONVERSION_BASED_UNIT ( 'INCH', #235 ) LENGTH_UNIT ( ) NAMED_UNIT ( #340 ) );
#85 = CARTESIAN_POINT ( 'NONE',  ( -1.913510623667739463E-17, 0.1562500000000000000, 0.000000000000000000 ) ) ;
#86 = CARTESIAN_POINT ( 'NONE',  ( 0.1562499999999997224, 3.000000000000000444, 1.913510623667736998E-17 ) ) ;
#87 = MECHANICAL_DESIGN_GEOMETRIC_PRESENTATION_REPRESENTATION (  '', ( #106 ), #298 ) ;
#88 = SURFACE_STYLE_USAGE ( .BOTH. , #259 ) ;
#89 = PRODUCT_DEFINITION ( 'UNKNOWN', '', #200, #173 ) ;
#90 = VERTEX_POINT ( 'NONE', #119 ) ;
#91 =( NAMED_UNIT ( * ) PLANE_ANGLE_UNIT ( ) SI_UNIT ( $, .RADIAN. ) );
#92 = EDGE_CURVE ( 'NONE', #158, #208, #277, .T. ) ;
#93 = ORIENTED_EDGE ( 'NONE', *, *, #331, .T. ) ;
#94 = CARTESIAN_POINT ( 'NONE',  ( 0.1562499999999998335, 3.000000000000000444, 0.000000000000000000 ) ) ;
#95 = ORIENTED_EDGE ( 'NONE', *, *, #116, .T. ) ;
#96 = DIRECTION ( 'NONE',  ( -1.224646799147353454E-16, 1.000000000000000000, -0.000000000000000000 ) ) ;
#97 = PRESENTATION_LAYER_ASSIGNMENT (  '', '', ( #152 ) ) ;
#98 =( GEOMETRIC_REPRESENTATION_CONTEXT ( 3 ) GLOBAL_UNCERTAINTY_ASSIGNED_CONTEXT ( ( #204 ) ) GLOBAL_UNIT_ASSIGNED_CONTEXT ( ( #229, #368, #287 ) ) REPRESENTATION_CONTEXT ( 'NONE', 'WORKASPACE' ) );
#99 = DIRECTION ( 'NONE',  ( 0.000000000000000000, 1.000000000000000000, 0.000000000000000000 ) ) ;
#100 = FILL_AREA_STYLE_COLOUR ( '', #219 ) ;
#101 = MECHANICAL_DESIGN_GEOMETRIC_PRESENTATION_REPRESENTATION (  '', ( #152 ), #283 ) ;
#102 = STYLED_ITEM ( 'NONE', ( #40 ), #230 ) ;
#103 = DIRECTION ( 'NONE',  ( 0.000000000000000000, 0.000000000000000000, 1.000000000000000000 ) ) ;
#104 = EDGE_CURVE ( 'NONE', #90, #263, #4, .T. ) ;
#105 = FILL_AREA_STYLE_COLOUR ( '', #365 ) ;
#106 = STYLED_ITEM ( 'NONE', ( #223 ), #70 ) ;
#107 =( GEOMETRIC_REPRESENTATION_CONTEXT ( 3 ) GLOBAL_UNCERTAINTY_ASSIGNED_CONTEXT ( ( #123 ) ) GLOBAL_UNIT_ASSIGNED_CONTEXT ( ( #326, #269, #244 ) ) REPRESENTATION_CONTEXT ( 'NONE', 'WORKASPACE' ) );
#108 =( CONVERSION_BASED_UNIT ( 'INCH', #168 ) LENGTH_UNIT ( ) NAMED_UNIT ( #222 ) );
#109 = CARTESIAN_POINT ( 'NONE',  ( 0.000000000000000000, 0.1562500000000000278, 0.000000000000000000 ) ) ;
#110 =( NAMED_UNIT ( * ) PLANE_ANGLE_UNIT ( ) SI_UNIT ( $, .RADIAN. ) );
#111 = ORIENTED_EDGE ( 'NONE', *, *, #129, .F. ) ;
#112 = LINE ( 'NONE', #86, #218 ) ;
#113 =( GEOMETRIC_REPRESENTATION_CONTEXT ( 3 ) GLOBAL_UNCERTAINTY_ASSIGNED_CONTEXT ( ( #255 ) ) GLOBAL_UNIT_ASSIGNED_CONTEXT ( ( #371, #174, #280 ) ) REPRESENTATION_CONTEXT ( 'NONE', 'WORKASPACE' ) );
#114 = PRODUCT_CONTEXT ( 'NONE', #57, 'mechanical' ) ;
#115 = FACE_OUTER_BOUND ( 'NONE', #6, .T. ) ;
#116 = EDGE_CURVE ( 'NONE', #130, #125, #290, .T. ) ;
#117 =( LENGTH_UNIT ( ) NAMED_UNIT ( * ) SI_UNIT ( $, .METRE. ) );
#118 = SURFACE_STYLE_USAGE ( .BOTH. , #58 ) ;
#119 = CARTESIAN_POINT ( 'NONE',  ( -0.1562500000000000000, 0.1562500000000000278, 1.913510623667738847E-17 ) ) ;
#120 = ORIENTED_EDGE ( 'NONE', *, *, #129, .T. ) ;
#121 = AXIS2_PLACEMENT_3D ( 'NONE', #143, #346, #311 ) ;
#122 = PRESENTATION_LAYER_ASSIGNMENT (  '', '', ( #182 ) ) ;
#123 = UNCERTAINTY_MEASURE_WITH_UNIT (LENGTH_MEASURE( 1.000000000000000082E-05 ), #326, 'distance_accuracy_value', 'NONE');
#124 = CARTESIAN_POINT ( 'NONE',  ( -0.1562499999999998612, 3.000000000000000444, 0.000000000000000000 ) ) ;
#125 = VERTEX_POINT ( 'NONE', #26 ) ;
#126 = FACE_OUTER_BOUND ( 'NONE', #327, .T. ) ;
#127 = ORIENTED_EDGE ( 'NONE', *, *, #343, .T. ) ;
#128 = AXIS2_PLACEMENT_3D ( 'NONE', #109, #325, #169 ) ;
#129 = EDGE_CURVE ( 'NONE', #60, #263, #165, .T. ) ;
#130 = VERTEX_POINT ( 'NONE', #281 ) ;
#131 = CARTESIAN_POINT ( 'NONE',  ( 0.000000000000000000, 1.250000000000000000, 0.000000000000000000 ) ) ;
#132 =( LENGTH_UNIT ( ) NAMED_UNIT ( * ) SI_UNIT ( $, .METRE. ) );
#133 = CARTESIAN_POINT ( 'NONE',  ( 0.1562499999999998335, 1.250000000000000000, 1.913510623667737614E-17 ) ) ;
#134 = AXIS2_PLACEMENT_3D ( 'NONE', #305, #250, #44 ) ;
#135 = LINE ( 'NONE', #332, #349 ) ;
#136 = PRODUCT ( '83290', '83290', '', ( #114 ) ) ;
#137 = DIRECTION ( 'NONE',  ( 1.000000000000000000, 0.000000000000000000, 0.000000000000000000 ) ) ;
#138 = DIMENSIONAL_EXPONENTS ( 1.000000000000000000, 0.000000000000000000, 0.000000000000000000, 0.000000000000000000, 0.000000000000000000, 0.000000000000000000, 0.000000000000000000 ) ;
#139 = FILL_AREA_STYLE ('',( #14 ) ) ;
#140 = CIRCLE ( 'NONE', #348, 0.1562500000000000000 ) ;
#141 = STYLED_ITEM ( 'NONE', ( #207 ), #224 ) ;
#142 = SURFACE_STYLE_USAGE ( .BOTH. , #225 ) ;
#143 = CARTESIAN_POINT ( 'NONE',  ( 0.000000000000000000, 1.250000000000000000, 0.000000000000000000 ) ) ;
#144 = EDGE_CURVE ( 'NONE', #355, #125, #112, .T. ) ;
#145 = CARTESIAN_POINT ( 'NONE',  ( 1.913510623667738231E-17, 1.250000000000000000, 0.1562499999999998335 ) ) ;
#146 = CLOSED_SHELL ( 'NONE', ( #20, #319, #248, #273 ) ) ;
#147 = PRESENTATION_STYLE_ASSIGNMENT (( #118 ) ) ;
#148 = DIRECTION ( 'NONE',  ( 0.000000000000000000, 0.000000000000000000, -1.000000000000000000 ) ) ;
#149 = FILL_AREA_STYLE ('',( #285 ) ) ;
#150 = ORIENTED_EDGE ( 'NONE', *, *, #92, .F. ) ;
#151 = EDGE_LOOP ( 'NONE', ( #1, #30, #261, #154 ) ) ;
#152 = STYLED_ITEM ( 'NONE', ( #214 ), #34 ) ;
#153 = DIRECTION ( 'NONE',  ( 0.000000000000000000, -0.000000000000000000, 1.000000000000000000 ) ) ;
#154 = ORIENTED_EDGE ( 'NONE', *, *, #238, .F. ) ;
#155 =( NAMED_UNIT ( * ) SI_UNIT ( $, .STERADIAN. ) SOLID_ANGLE_UNIT ( ) );
#156 = ORIENTED_EDGE ( 'NONE', *, *, #312, .F. ) ;
#157 = CARTESIAN_POINT ( 'NONE',  ( 1.530808498934191571E-16, 1.250000000000000000, 0.000000000000000000 ) ) ;
#158 = VERTEX_POINT ( 'NONE', #23 ) ;
#159 = AXIS2_PLACEMENT_3D ( 'NONE', #187, #19, #301 ) ;
#160 =( GEOMETRIC_REPRESENTATION_CONTEXT ( 3 ) GLOBAL_UNCERTAINTY_ASSIGNED_CONTEXT ( ( #29 ) ) GLOBAL_UNIT_ASSIGNED_CONTEXT ( ( #360, #110, #333 ) ) REPRESENTATION_CONTEXT ( 'NONE', 'WORKASPACE' ) );
#161 = ORIENTED_EDGE ( 'NONE', *, *, #72, .T. ) ;
#162 = FILL_AREA_STYLE ('',( #264 ) ) ;
#163 = FACE_OUTER_BOUND ( 'NONE', #151, .T. ) ;
#164 = FILL_AREA_STYLE_COLOUR ( '', #16 ) ;
#165 = CIRCLE ( 'NONE', #206, 0.1562500000000000000 ) ;
#166 = MECHANICAL_DESIGN_GEOMETRIC_PRESENTATION_REPRESENTATION (  '', ( #102 ), #221 ) ;
#167 = CYLINDRICAL_SURFACE ( 'NONE', #32, 0.1562499999999999445 ) ;
#168 = LENGTH_MEASURE_WITH_UNIT ( LENGTH_MEASURE( 0.02539999999999999897 ), #362 );
#169 = DIRECTION ( 'NONE',  ( 0.000000000000000000, 0.000000000000000000, -1.000000000000000000 ) ) ;
#170 = VECTOR ( 'NONE', #367, 39.37007874015748143 ) ;
#171 = AXIS2_PLACEMENT_3D ( 'NONE', #232, #256, #370 ) ;
#172 = FILL_AREA_STYLE ('',( #100 ) ) ;
#173 = PRODUCT_DEFINITION_CONTEXT ( 'detailed design', #286, 'design' ) ;
#174 =( NAMED_UNIT ( * ) PLANE_ANGLE_UNIT ( ) SI_UNIT ( $, .RADIAN. ) );
#175 = DIRECTION ( 'NONE',  ( 1.000000000000000000, 0.000000000000000000, -1.224646799147353207E-16 ) ) ;
#176 = CIRCLE ( 'NONE', #171, 0.1562499999999998335 ) ;
#177 = DIRECTION ( 'NONE',  ( 0.000000000000000000, 0.000000000000000000, 1.000000000000000000 ) ) ;
#178 = DIRECTION ( 'NONE',  ( 0.000000000000000000, 0.000000000000000000, -1.000000000000000000 ) ) ;
#179 =( LENGTH_UNIT ( ) NAMED_UNIT ( * ) SI_UNIT ( $, .METRE. ) );
#180 = UNCERTAINTY_MEASURE_WITH_UNIT (LENGTH_MEASURE( 1.000000000000000082E-05 ), #84, 'distance_accuracy_value', 'NONE');
#181 = ORIENTED_EDGE ( 'NONE', *, *, #210, .F. ) ;
#182 = STYLED_ITEM ( 'NONE', ( #147 ), #356 ) ;
#183 = DIRECTION ( 'NONE',  ( -1.000000000000000000, 0.000000000000000000, 0.000000000000000000 ) ) ;
#184 = ORIENTED_EDGE ( 'NONE', *, *, #92, .T. ) ;
#185 = SURFACE_STYLE_USAGE ( .BOTH. , #191 ) ;
#186 = CARTESIAN_POINT ( 'NONE',  ( 0.000000000000000000, 0.1562500000000000278, 0.000000000000000000 ) ) ;
#187 = CARTESIAN_POINT ( 'NONE',  ( -6.123233995736772199E-17, 3.000000000000000444, 0.000000000000000000 ) ) ;
#188 = EDGE_CURVE ( 'NONE', #60, #291, #335, .T. ) ;
#189 = COLOUR_RGB ( '',0.7921568627450980005, 0.8196078431372548767, 0.9333333333333333481 ) ;
#190 = EDGE_LOOP ( 'NONE', ( #184, #127, #239, #266, #240 ) ) ;
#191 = SURFACE_SIDE_STYLE ('',( #65 ) ) ;
#192 =( LENGTH_UNIT ( ) NAMED_UNIT ( * ) SI_UNIT ( $, .METRE. ) );
#193 = AXIS2_PLACEMENT_3D ( 'NONE', #157, #265, #10 ) ;
#194 = CARTESIAN_POINT ( 'NONE',  ( 0.000000000000000000, 0.000000000000000000, 0.000000000000000000 ) ) ;
#195 = DIMENSIONAL_EXPONENTS ( 1.000000000000000000, 0.000000000000000000, 0.000000000000000000, 0.000000000000000000, 0.000000000000000000, 0.000000000000000000, 0.000000000000000000 ) ;
#196 = CARTESIAN_POINT ( 'NONE',  ( -1.913510623667739463E-17, 0.1562500000000000000, 0.000000000000000000 ) ) ;
#197 = SURFACE_STYLE_FILL_AREA ( #172 ) ;
#198 = DIRECTION ( 'NONE',  ( -1.224646799147353454E-16, 1.000000000000000000, -0.000000000000000000 ) ) ;
#199 = PRESENTATION_LAYER_ASSIGNMENT (  '', '', ( #141 ) ) ;
#200 = PRODUCT_DEFINITION_FORMATION_WITH_SPECIFIED_SOURCE ( 'ANY', '', #136, .NOT_KNOWN. ) ;
#201 = DIRECTION ( 'NONE',  ( -0.000000000000000000, -1.000000000000000000, -0.000000000000000000 ) ) ;
#202 = CARTESIAN_POINT ( 'NONE',  ( 0.000000000000000000, 0.000000000000000000, 0.000000000000000000 ) ) ;
#203 =( NAMED_UNIT ( * ) SI_UNIT ( $, .STERADIAN. ) SOLID_ANGLE_UNIT ( ) );
#204 = UNCERTAINTY_MEASURE_WITH_UNIT (LENGTH_MEASURE( 1.000000000000000082E-05 ), #229, 'distance_accuracy_value', 'NONE');
#205 = ORIENTED_EDGE ( 'NONE', *, *, #144, .F. ) ;
#206 = AXIS2_PLACEMENT_3D ( 'NONE', #347, #148, #254 ) ;
#207 = PRESENTATION_STYLE_ASSIGNMENT (( #88 ) ) ;
#208 = VERTEX_POINT ( 'NONE', #145 ) ;
#209 = DIRECTION ( 'NONE',  ( 1.224646799147353454E-16, -1.000000000000000000, 0.000000000000000000 ) ) ;
#210 = EDGE_CURVE ( 'NONE', #208, #158, #176, .T. ) ;
#211 = MECHANICAL_DESIGN_GEOMETRIC_PRESENTATION_REPRESENTATION (  '', ( #308 ), #74 ) ;
#212 = DIRECTION ( 'NONE',  ( -1.000000000000000000, 0.000000000000000000, 0.000000000000000000 ) ) ;
#213 =( LENGTH_UNIT ( ) NAMED_UNIT ( * ) SI_UNIT ( $, .METRE. ) );
#214 = PRESENTATION_STYLE_ASSIGNMENT (( #76 ) ) ;
#215 =( CONVERSION_BASED_UNIT ( 'INCH', #12 ) LENGTH_UNIT ( ) NAMED_UNIT ( #195 ) );
#216 = ORIENTED_EDGE ( 'NONE', *, *, #104, .T. ) ;
#217 = DIRECTION ( 'NONE',  ( -1.224646799147353454E-16, 1.000000000000000000, -0.000000000000000000 ) ) ;
#218 = VECTOR ( 'NONE', #56, 39.37007874015748143 ) ;
#219 = COLOUR_RGB ( '',1.000000000000000000, 0.000000000000000000, 0.000000000000000000 ) ;
#220 =( NAMED_UNIT ( * ) SI_UNIT ( $, .STERADIAN. ) SOLID_ANGLE_UNIT ( ) );
#221 =( GEOMETRIC_REPRESENTATION_CONTEXT ( 3 ) GLOBAL_UNCERTAINTY_ASSIGNED_CONTEXT ( ( #227 ) ) GLOBAL_UNIT_ASSIGNED_CONTEXT ( ( #215, #357, #155 ) ) REPRESENTATION_CONTEXT ( 'NONE', 'WORKASPACE' ) );
#222 = DIMENSIONAL_EXPONENTS ( 1.000000000000000000, 0.000000000000000000, 0.000000000000000000, 0.000000000000000000, 0.000000000000000000, 0.000000000000000000, 0.000000000000000000 ) ;
#223 = PRESENTATION_STYLE_ASSIGNMENT (( #270 ) ) ;
#224 = ADVANCED_FACE ( 'NONE', ( #115 ), #27, .T. ) ;
#225 = SURFACE_SIDE_STYLE ('',( #252 ) ) ;
#226 = ORIENTED_EDGE ( 'NONE', *, *, #343, .F. ) ;
#227 = UNCERTAINTY_MEASURE_WITH_UNIT (LENGTH_MEASURE( 1.000000000000000082E-05 ), #215, 'distance_accuracy_value', 'NONE');
#228 = SURFACE_STYLE_FILL_AREA ( #149 ) ;
#229 =( CONVERSION_BASED_UNIT ( 'INCH', #2 ) LENGTH_UNIT ( ) NAMED_UNIT ( #275 ) );
#230 = MANIFOLD_SOLID_BREP ( 'Revolve - Cutting Edge', #307 ) ;
#231 = SPHERICAL_SURFACE ( 'NONE', #328, 0.1562500000000000000 ) ;
#232 = CARTESIAN_POINT ( 'NONE',  ( 0.000000000000000000, 1.250000000000000000, 0.000000000000000000 ) ) ;
#233 = EDGE_LOOP ( 'NONE', ( #226, #33, #318, #288, #337 ) ) ;
#234 = MECHANICAL_DESIGN_GEOMETRIC_PRESENTATION_REPRESENTATION (  '', ( #141 ), #107 ) ;
#235 = LENGTH_MEASURE_WITH_UNIT ( LENGTH_MEASURE( 0.02539999999999999897 ), #179 );
#236 = EDGE_LOOP ( 'NONE', ( #95, #320 ) ) ;
#237 = FACE_OUTER_BOUND ( 'NONE', #236, .T. ) ;
#238 = EDGE_CURVE ( 'NONE', #9, #130, #7, .T. ) ;
#239 = ORIENTED_EDGE ( 'NONE', *, *, #188, .F. ) ;
#240 = ORIENTED_EDGE ( 'NONE', *, *, #81, .F. ) ;
#241 = PRESENTATION_LAYER_ASSIGNMENT (  '', '', ( #308 ) ) ;
#242 = EDGE_LOOP ( 'NONE', ( #351, #294 ) ) ;
#243 = FACE_OUTER_BOUND ( 'NONE', #66, .T. ) ;
#244 =( NAMED_UNIT ( * ) SI_UNIT ( $, .STERADIAN. ) SOLID_ANGLE_UNIT ( ) );
#245 = CARTESIAN_POINT ( 'NONE',  ( 1.530808498934191571E-16, 1.250000000000000000, 0.000000000000000000 ) ) ;
#246 = DIRECTION ( 'NONE',  ( -0.000000000000000000, -1.000000000000000000, -0.000000000000000000 ) ) ;
#247 = STYLED_ITEM ( 'NONE', ( #361 ), #352 ) ;
#248 = ADVANCED_FACE ( 'NONE', ( #126 ), #61, .T. ) ;
#249 =( NAMED_UNIT ( * ) PLANE_ANGLE_UNIT ( ) SI_UNIT ( $, .RADIAN. ) );
#250 = DIRECTION ( 'NONE',  ( -0.000000000000000000, -1.000000000000000000, -0.000000000000000000 ) ) ;
#251 = DIMENSIONAL_EXPONENTS ( 1.000000000000000000, 0.000000000000000000, 0.000000000000000000, 0.000000000000000000, 0.000000000000000000, 0.000000000000000000, 0.000000000000000000 ) ;
#252 = SURFACE_STYLE_FILL_AREA ( #42 ) ;
#253 =( NAMED_UNIT ( * ) PLANE_ANGLE_UNIT ( ) SI_UNIT ( $, .RADIAN. ) );
#254 = DIRECTION ( 'NONE',  ( -1.000000000000000000, 0.000000000000000000, 0.000000000000000000 ) ) ;
#255 = UNCERTAINTY_MEASURE_WITH_UNIT (LENGTH_MEASURE( 1.000000000000000082E-05 ), #371, 'distance_accuracy_value', 'NONE');
#256 = DIRECTION ( 'NONE',  ( -0.000000000000000000, -1.000000000000000000, -0.000000000000000000 ) ) ;
#257 = AXIS2_PLACEMENT_3D ( 'NONE', #245, #198, #309 ) ;
#258 = LINE ( 'NONE', #289, #170 ) ;
#259 = SURFACE_SIDE_STYLE ('',( #228 ) ) ;
#260 =( LENGTH_UNIT ( ) NAMED_UNIT ( * ) SI_UNIT ( $, .METRE. ) );
#261 = ORIENTED_EDGE ( 'NONE', *, *, #116, .F. ) ;
#262 = AXIS2_PLACEMENT_3D ( 'NONE', #300, #217, #330 ) ;
#263 = VERTEX_POINT ( 'NONE', #69 ) ;
#264 = FILL_AREA_STYLE_COLOUR ( '', #189 ) ;
#265 = DIRECTION ( 'NONE',  ( -1.224646799147353454E-16, 1.000000000000000000, 0.000000000000000000 ) ) ;
#266 = ORIENTED_EDGE ( 'NONE', *, *, #72, .F. ) ;
#267 = MECHANICAL_DESIGN_GEOMETRIC_PRESENTATION_REPRESENTATION (  '', ( #247 ), #160 ) ;
#268 = LENGTH_MEASURE_WITH_UNIT ( LENGTH_MEASURE( 0.02539999999999999897 ), #132 );
#269 =( NAMED_UNIT ( * ) PLANE_ANGLE_UNIT ( ) SI_UNIT ( $, .RADIAN. ) );
#270 = SURFACE_STYLE_USAGE ( .BOTH. , #358 ) ;
#271 = FACE_OUTER_BOUND ( 'NONE', #190, .T. ) ;
#272 = EDGE_CURVE ( 'NONE', #9, #355, #39, .T. ) ;
#273 = ADVANCED_FACE ( 'NONE', ( #237 ), #354, .F. ) ;
#274 = CARTESIAN_POINT ( 'NONE',  ( 0.000000000000000000, 0.1562500000000000278, 0.000000000000000000 ) ) ;
#275 = DIMENSIONAL_EXPONENTS ( 1.000000000000000000, 0.000000000000000000, 0.000000000000000000, 0.000000000000000000, 0.000000000000000000, 0.000000000000000000, 0.000000000000000000 ) ;
#276 = FACE_OUTER_BOUND ( 'NONE', #63, .T. ) ;
#277 = CIRCLE ( 'NONE', #121, 0.1562499999999998335 ) ;
#278 = AXIS2_PLACEMENT_3D ( 'NONE', #323, #96, #212 ) ;
#279 = VERTEX_POINT ( 'NONE', #324 ) ;
#280 =( NAMED_UNIT ( * ) SI_UNIT ( $, .STERADIAN. ) SOLID_ANGLE_UNIT ( ) );
#281 = CARTESIAN_POINT ( 'NONE',  ( -0.1562499999999999722, 3.000000000000000444, 0.000000000000000000 ) ) ;
#282 = DIRECTION ( 'NONE',  ( -1.224646799147353454E-16, 1.000000000000000000, -0.000000000000000000 ) ) ;
#283 =( GEOMETRIC_REPRESENTATION_CONTEXT ( 3 ) GLOBAL_UNCERTAINTY_ASSIGNED_CONTEXT ( ( #317 ) ) GLOBAL_UNIT_ASSIGNED_CONTEXT ( ( #297, #253, #220 ) ) REPRESENTATION_CONTEXT ( 'NONE', 'WORKASPACE' ) );
#284 = AXIS2_PLACEMENT_3D ( 'NONE', #342, #344, #178 ) ;
#285 = FILL_AREA_STYLE_COLOUR ( '', #299 ) ;
#286 = APPLICATION_CONTEXT ( 'automotive_design' ) ;
#287 =( NAMED_UNIT ( * ) SI_UNIT ( $, .STERADIAN. ) SOLID_ANGLE_UNIT ( ) );
#288 = ORIENTED_EDGE ( 'NONE', *, *, #331, .F. ) ;
#289 = CARTESIAN_POINT ( 'NONE',  ( 0.000000000000000000, 0.000000000000000000, -0.1562499999999999445 ) ) ;
#290 = CIRCLE ( 'NONE', #321, 0.1562499999999999167 ) ;
#291 = VERTEX_POINT ( 'NONE', #35 ) ;
#292 = PRESENTATION_LAYER_ASSIGNMENT (  '', '', ( #247 ) ) ;
#293 = DIRECTION ( 'NONE',  ( 1.000000000000000000, 1.224646799147353454E-16, 0.000000000000000000 ) ) ;
#294 = ORIENTED_EDGE ( 'NONE', *, *, #8, .F. ) ;
#295 = CARTESIAN_POINT ( 'NONE',  ( 1.530808498934191571E-16, 1.250000000000000000, 0.000000000000000000 ) ) ;
#296 = DIRECTION ( 'NONE',  ( -0.000000000000000000, -1.000000000000000000, -0.000000000000000000 ) ) ;
#297 =( CONVERSION_BASED_UNIT ( 'INCH', #268 ) LENGTH_UNIT ( ) NAMED_UNIT ( #138 ) );
#298 =( GEOMETRIC_REPRESENTATION_CONTEXT ( 3 ) GLOBAL_UNCERTAINTY_ASSIGNED_CONTEXT ( ( #180 ) ) GLOBAL_UNIT_ASSIGNED_CONTEXT ( ( #84, #91, #203 ) ) REPRESENTATION_CONTEXT ( 'NONE', 'WORKASPACE' ) );
#299 = COLOUR_RGB ( '',1.000000000000000000, 0.000000000000000000, 0.000000000000000000 ) ;
#300 = CARTESIAN_POINT ( 'NONE',  ( -6.123233995736772199E-17, 3.000000000000000444, 0.000000000000000000 ) ) ;
#301 = DIRECTION ( 'NONE',  ( -1.000000000000000000, 0.000000000000000000, 0.000000000000000000 ) ) ;
#302 = DIRECTION ( 'NONE',  ( 0.000000000000000000, 0.000000000000000000, -1.000000000000000000 ) ) ;
#303 = COLOUR_RGB ( '',1.000000000000000000, 0.000000000000000000, 0.000000000000000000 ) ;
#304 = PRESENTATION_STYLE_ASSIGNMENT (( #73 ) ) ;
#305 = CARTESIAN_POINT ( 'NONE',  ( 0.000000000000000000, 0.000000000000000000, 0.000000000000000000 ) ) ;
#306 = APPLICATION_PROTOCOL_DEFINITION ( 'draft international standard', 'automotive_design', 1998, #286 ) ;
#307 = CLOSED_SHELL ( 'NONE', ( #70, #350, #224, #34, #352 ) ) ;
#308 = STYLED_ITEM ( 'NONE', ( #304 ), #350 ) ;
#309 = DIRECTION ( 'NONE',  ( -1.000000000000000000, 0.000000000000000000, 0.000000000000000000 ) ) ;
#310 = AXIS2_PLACEMENT_3D ( 'NONE', #186, #296, #338 ) ;
#311 = DIRECTION ( 'NONE',  ( 0.000000000000000000, 0.000000000000000000, -1.000000000000000000 ) ) ;
#312 = EDGE_CURVE ( 'NONE', #125, #130, #369, .T. ) ;
#313 = DIRECTION ( 'NONE',  ( 0.000000000000000000, 0.000000000000000000, -1.000000000000000000 ) ) ;
#314 = DIRECTION ( 'NONE',  ( 1.000000000000000000, 0.000000000000000000, 0.000000000000000000 ) ) ;
#315 = CARTESIAN_POINT ( 'NONE',  ( -1.913510623667739463E-17, 0.1562500000000000000, 0.000000000000000000 ) ) ;
#316 = ADVANCED_BREP_SHAPE_REPRESENTATION ( '83290', ( #230, #356, #18 ), #98 ) ;
#317 = UNCERTAINTY_MEASURE_WITH_UNIT (LENGTH_MEASURE( 1.000000000000000082E-05 ), #297, 'distance_accuracy_value', 'NONE');
#318 = ORIENTED_EDGE ( 'NONE', *, *, #81, .T. ) ;
#319 = ADVANCED_FACE ( 'NONE', ( #64 ), #36, .F. ) ;
#320 = ORIENTED_EDGE ( 'NONE', *, *, #312, .T. ) ;
#321 = AXIS2_PLACEMENT_3D ( 'NONE', #372, #282, #59 ) ;
#322 = AXIS2_PLACEMENT_3D ( 'NONE', #94, #209, #293 ) ;
#323 = CARTESIAN_POINT ( 'NONE',  ( -6.123233995736772199E-17, 3.000000000000000444, 0.000000000000000000 ) ) ;
#324 = CARTESIAN_POINT ( 'NONE',  ( 0.000000000000000000, 0.1562500000000000278, -0.1562500000000000000 ) ) ;
#325 = DIRECTION ( 'NONE',  ( -0.000000000000000000, -1.000000000000000000, -0.000000000000000000 ) ) ;
#326 =( CONVERSION_BASED_UNIT ( 'INCH', #3 ) LENGTH_UNIT ( ) NAMED_UNIT ( #48 ) );
#327 = EDGE_LOOP ( 'NONE', ( #205, #339, #37, #156 ) ) ;
#328 = AXIS2_PLACEMENT_3D ( 'NONE', #85, #53, #52 ) ;
#329 = CIRCLE ( 'NONE', #310, 0.1562500000000000000 ) ;
#330 = DIRECTION ( 'NONE',  ( -1.000000000000000000, 0.000000000000000000, 0.000000000000000000 ) ) ;
#331 = EDGE_CURVE ( 'NONE', #90, #279, #329, .T. ) ;
#332 = CARTESIAN_POINT ( 'NONE',  ( 1.913510623667738539E-17, 0.000000000000000000, 0.1562499999999999445 ) ) ;
#333 =( NAMED_UNIT ( * ) SI_UNIT ( $, .STERADIAN. ) SOLID_ANGLE_UNIT ( ) );
#334 = SURFACE_STYLE_FILL_AREA ( #46 ) ;
#335 = CIRCLE ( 'NONE', #284, 0.1562500000000000000 ) ;
#336 = DIRECTION ( 'NONE',  ( -0.000000000000000000, -1.000000000000000000, -0.000000000000000000 ) ) ;
#337 = ORIENTED_EDGE ( 'NONE', *, *, #54, .F. ) ;
#338 = DIRECTION ( 'NONE',  ( 0.000000000000000000, 0.000000000000000000, -1.000000000000000000 ) ) ;
#339 = ORIENTED_EDGE ( 'NONE', *, *, #8, .T. ) ;
#340 = DIMENSIONAL_EXPONENTS ( 1.000000000000000000, 0.000000000000000000, 0.000000000000000000, 0.000000000000000000, 0.000000000000000000, 0.000000000000000000, 0.000000000000000000 ) ;
#341 = AXIS2_PLACEMENT_3D ( 'NONE', #196, #103, #137 ) ;
#342 = CARTESIAN_POINT ( 'NONE',  ( 0.000000000000000000, 0.1562500000000000278, 0.000000000000000000 ) ) ;
#343 = EDGE_CURVE ( 'NONE', #208, #291, #135, .T. ) ;
#344 = DIRECTION ( 'NONE',  ( -0.000000000000000000, -1.000000000000000000, -0.000000000000000000 ) ) ;
#345 = APPLICATION_PROTOCOL_DEFINITION ( 'draft international standard', 'automotive_design', 1998, #57 ) ;
#346 = DIRECTION ( 'NONE',  ( -0.000000000000000000, -1.000000000000000000, -0.000000000000000000 ) ) ;
#347 = CARTESIAN_POINT ( 'NONE',  ( -1.913510623667739463E-17, 0.1562500000000000000, 0.000000000000000000 ) ) ;
#348 = AXIS2_PLACEMENT_3D ( 'NONE', #274, #201, #313 ) ;
#349 = VECTOR ( 'NONE', #246, 39.37007874015748143 ) ;
#350 = ADVANCED_FACE ( 'NONE', ( #271 ), #167, .T. ) ;
#351 = ORIENTED_EDGE ( 'NONE', *, *, #272, .F. ) ;
#352 = ADVANCED_FACE ( 'NONE', ( #276 ), #77, .T. ) ;
#353 = ORIENTED_EDGE ( 'NONE', *, *, #54, .T. ) ;
#354 = PLANE ( 'NONE',  #322 ) ;
#355 = VERTEX_POINT ( 'NONE', #133 ) ;
#356 = MANIFOLD_SOLID_BREP ( 'Revolve - Tool Body (Straight Shanked)', #146 ) ;
#357 =( NAMED_UNIT ( * ) PLANE_ANGLE_UNIT ( ) SI_UNIT ( $, .RADIAN. ) );
#358 = SURFACE_SIDE_STYLE ('',( #47 ) ) ;
#359 = DIRECTION ( 'NONE',  ( -1.224646799147353454E-16, 1.000000000000000000, -0.000000000000000000 ) ) ;
#360 =( CONVERSION_BASED_UNIT ( 'INCH', #71 ) LENGTH_UNIT ( ) NAMED_UNIT ( #251 ) );
#361 = PRESENTATION_STYLE_ASSIGNMENT (( #142 ) ) ;
#362 =( LENGTH_UNIT ( ) NAMED_UNIT ( * ) SI_UNIT ( $, .METRE. ) );
#363 = PRESENTATION_LAYER_ASSIGNMENT (  '', '', ( #106 ) ) ;
#364 = SURFACE_STYLE_FILL_AREA ( #75 ) ;
#365 = COLOUR_RGB ( '',0.7921568627450980005, 0.8196078431372548767, 0.9333333333333333481 ) ;
#366 = CYLINDRICAL_SURFACE ( 'NONE', #134, 0.1562499999999999445 ) ;
#367 = DIRECTION ( 'NONE',  ( -0.000000000000000000, -1.000000000000000000, -0.000000000000000000 ) ) ;
#368 =( NAMED_UNIT ( * ) PLANE_ANGLE_UNIT ( ) SI_UNIT ( $, .RADIAN. ) );
#369 = CIRCLE ( 'NONE', #278, 0.1562499999999999167 ) ;
#370 = DIRECTION ( 'NONE',  ( 0.000000000000000000, 0.000000000000000000, -1.000000000000000000 ) ) ;
#371 =( CONVERSION_BASED_UNIT ( 'INCH', #24 ) LENGTH_UNIT ( ) NAMED_UNIT ( #51 ) );
#372 = CARTESIAN_POINT ( 'NONE',  ( -6.123233995736772199E-17, 3.000000000000000444, 0.000000000000000000 ) ) ;
#373 = DIRECTION ( 'NONE',  ( 1.224646799147353207E-16, -0.000000000000000000, 1.000000000000000000 ) ) ;
ENDSEC;
END-ISO-10303-21;
