ISO-10303-21;
HEADER;
FILE_DESCRIPTION (( 'STEP AP214' ),
    '1' );
FILE_NAME ('Micro_RTC-250-1X.STEP',
    '2021-09-03T18:10:04',
    ( '' ),
    ( '' ),
    'SwSTEP 2.0',
    'SolidWorks 2020',
    '' );
FILE_SCHEMA (( 'AUTOMOTIVE_DESIGN' ));
ENDSEC;

DATA;
#1 = FACE_OUTER_BOUND ( 'NONE', #154, .T. ) ;
#2 = ORIENTED_EDGE ( 'NONE', *, *, #22, .F. ) ;
#3 = AXIS2_PLACEMENT_3D ( 'NONE', #184, #226, #48 ) ;
#4 = LINE ( 'NONE', #84, #83 ) ;
#5 = VERTEX_POINT ( 'NONE', #94 ) ;
#6 = DIRECTION ( 'NONE',  ( -0.0000000000000000000, -0.0000000000000000000, -1.000000000000000000 ) ) ;
#7 = ORIENTED_EDGE ( 'NONE', *, *, #195, .T. ) ;
#8 = DIRECTION ( 'NONE',  ( 0.2588190451025216832, 0.0000000000000000000, 0.9659258262890679791 ) ) ;
#9 = EDGE_LOOP ( 'NONE', ( #198, #213, #24, #137 ) ) ;
#10 = VECTOR ( 'NONE', #122, 39.37007874015748143 ) ;
#11 = VECTOR ( 'NONE', #176, 39.37007874015748143 ) ;
#12 = CARTESIAN_POINT ( 'NONE',  ( -0.1250000000000000000, 0.0000000000000000000, 2.500000000000000000 ) ) ;
#13 = SURFACE_STYLE_FILL_AREA ( #147 ) ;
#14 = FACE_OUTER_BOUND ( 'NONE', #88, .T. ) ;
#15 = EDGE_CURVE ( 'NONE', #110, #141, #175, .T. ) ;
#16 = DIRECTION ( 'NONE',  ( 0.0000000000000000000, 0.0000000000000000000, -1.000000000000000000 ) ) ;
#17 = CONICAL_SURFACE ( 'NONE', #172, 0.003999999999999999216, 0.2617993877991502960 ) ;
#18 = UNCERTAINTY_MEASURE_WITH_UNIT (LENGTH_MEASURE( 1.000000000000000082E-05 ), #185, 'distance_accuracy_value', 'NONE');
#19 = APPLICATION_PROTOCOL_DEFINITION ( 'draft international standard', 'automotive_design', 1998, #70 ) ;
#20 = VECTOR ( 'NONE', #170, 39.37007874015748143 ) ;
#21 = AXIS2_PLACEMENT_3D ( 'NONE', #204, #221, #111 ) ;
#22 = EDGE_CURVE ( 'NONE', #124, #235, #150, .T. ) ;
#23 = CARTESIAN_POINT ( 'NONE',  ( 0.0000000000000000000, 0.0000000000000000000, 2.500000000000000000 ) ) ;
#24 = ORIENTED_EDGE ( 'NONE', *, *, #232, .F. ) ;
#25 = DIRECTION ( 'NONE',  ( -1.000000000000000000, 0.0000000000000000000, 0.0000000000000000000 ) ) ;
#26 = AXIS2_PLACEMENT_3D ( 'NONE', #161, #68, #47 ) ;
#27 = DIRECTION ( 'NONE',  ( 0.0000000000000000000, 0.0000000000000000000, -1.000000000000000000 ) ) ;
#28 = CYLINDRICAL_SURFACE ( 'NONE', #182, 0.1250000000000000000 ) ;
#29 = CARTESIAN_POINT ( 'NONE',  ( 0.0000000000000000000, 0.0000000000000000000, 0.0000000000000000000 ) ) ;
#30 = CARTESIAN_POINT ( 'NONE',  ( 0.0000000000000000000, 0.0000000000000000000, 0.0000000000000000000 ) ) ;
#31 = DIRECTION ( 'NONE',  ( 1.000000000000000000, 0.0000000000000000000, 0.0000000000000000000 ) ) ;
#32 =( NAMED_UNIT ( * ) PLANE_ANGLE_UNIT ( ) SI_UNIT ( $, .RADIAN. ) );
#33 = DIRECTION ( 'NONE',  ( -1.000000000000000000, 0.0000000000000000000, 0.0000000000000000000 ) ) ;
#34 = AXIS2_PLACEMENT_3D ( 'NONE', #91, #73, #145 ) ;
#35 = MANIFOLD_SOLID_BREP ( 'Cut-Revolve1', #135 ) ;
#36 = MECHANICAL_DESIGN_GEOMETRIC_PRESENTATION_REPRESENTATION (  '', ( #130 ), #223 ) ;
#37 = UNCERTAINTY_MEASURE_WITH_UNIT (LENGTH_MEASURE( 1.000000000000000082E-05 ), #149, 'distance_accuracy_value', 'NONE');
#38 = ORIENTED_EDGE ( 'NONE', *, *, #244, .F. ) ;
#39 = ORIENTED_EDGE ( 'NONE', *, *, #156, .T. ) ;
#40 = DIRECTION ( 'NONE',  ( 1.000000000000000000, 0.0000000000000000000, 0.0000000000000000000 ) ) ;
#41 = ORIENTED_EDGE ( 'NONE', *, *, #225, .T. ) ;
#42 = EDGE_CURVE ( 'NONE', #126, #110, #148, .T. ) ;
#43 = PLANE ( 'NONE',  #96 ) ;
#44 = DIRECTION ( 'NONE',  ( 0.0000000000000000000, 0.0000000000000000000, -1.000000000000000000 ) ) ;
#45 = EDGE_CURVE ( 'NONE', #110, #235, #205, .T. ) ;
#46 = ORIENTED_EDGE ( 'NONE', *, *, #156, .F. ) ;
#47 = DIRECTION ( 'NONE',  ( -1.000000000000000000, 0.0000000000000000000, 0.0000000000000000000 ) ) ;
#48 = DIRECTION ( 'NONE',  ( -1.000000000000000000, 0.0000000000000000000, 0.0000000000000000000 ) ) ;
#49 =( CONVERSION_BASED_UNIT ( 'INCH', #164 ) LENGTH_UNIT ( ) NAMED_UNIT ( #112 ) );
#50 = DIRECTION ( 'NONE',  ( 1.000000000000000000, 0.0000000000000000000, 0.0000000000000000000 ) ) ;
#51 = APPLICATION_CONTEXT ( 'automotive_design' ) ;
#52 = COLOUR_RGB ( '',0.7921568627450980005, 0.8196078431372548767, 0.9333333333333333481 ) ;
#53 = FACE_OUTER_BOUND ( 'NONE', #202, .T. ) ;
#54 = EDGE_CURVE ( 'NONE', #126, #5, #229, .T. ) ;
#55 = CYLINDRICAL_SURFACE ( 'NONE', #3, 0.1250000000000000000 ) ;
#56 = VECTOR ( 'NONE', #167, 39.37007874015748143 ) ;
#57 = CONICAL_SURFACE ( 'NONE', #119, 0.003999999999999999216, 0.2617993877991502960 ) ;
#58 = AXIS2_PLACEMENT_3D ( 'NONE', #189, #209, #33 ) ;
#59 = ORIENTED_EDGE ( 'NONE', *, *, #232, .T. ) ;
#60 = CONICAL_SURFACE ( 'NONE', #26, 0.1100000000000001948, 0.7853981633974517207 ) ;
#61 = CARTESIAN_POINT ( 'NONE',  ( -0.1250000000000000000, 0.0000000000000000000, 0.4515781477158323787 ) ) ;
#62 = EDGE_LOOP ( 'NONE', ( #240, #39 ) ) ;
#63 = ADVANCED_FACE ( 'NONE', ( #14 ), #57, .T. ) ;
#64 = DIRECTION ( 'NONE',  ( 1.000000000000000000, 0.0000000000000000000, 0.0000000000000000000 ) ) ;
#65 = ORIENTED_EDGE ( 'NONE', *, *, #236, .T. ) ;
#66 = AXIS2_PLACEMENT_3D ( 'NONE', #129, #131, #31 ) ;
#67 = PRODUCT_DEFINITION_SHAPE ( 'NONE', 'NONE',  #171 ) ;
#68 = DIRECTION ( 'NONE',  ( 0.0000000000000000000, 0.0000000000000000000, -1.000000000000000000 ) ) ;
#69 = ORIENTED_EDGE ( 'NONE', *, *, #22, .T. ) ;
#70 = APPLICATION_CONTEXT ( 'automotive_design' ) ;
#71 = CARTESIAN_POINT ( 'NONE',  ( -0.003999999999999999216, 7.898971854500426103E-18, 0.0000000000000000000 ) ) ;
#72 = ADVANCED_FACE ( 'NONE', ( #208 ), #55, .T. ) ;
#73 = DIRECTION ( 'NONE',  ( 0.0000000000000000000, 0.0000000000000000000, 1.000000000000000000 ) ) ;
#74 = PRODUCT_CONTEXT ( 'NONE', #51, 'mechanical' ) ;
#75 = DIRECTION ( 'NONE',  ( 1.000000000000000000, 0.0000000000000000000, 0.0000000000000000000 ) ) ;
#76 = STYLED_ITEM ( 'NONE', ( #222 ), #35 ) ;
#77 = CARTESIAN_POINT ( 'NONE',  ( 0.0000000000000000000, 0.0000000000000000000, 2.485000000000000320 ) ) ;
#78 = CARTESIAN_POINT ( 'NONE',  ( 0.0000000000000000000, 0.0000000000000000000, 0.0000000000000000000 ) ) ;
#79 = ADVANCED_FACE ( 'NONE', ( #53 ), #133, .T. ) ;
#80 = VECTOR ( 'NONE', #8, 39.37007874015748143 ) ;
#81 = CONICAL_SURFACE ( 'NONE', #103, 0.1100000000000001948, 0.7853981633974517207 ) ;
#82 = FACE_OUTER_BOUND ( 'NONE', #9, .T. ) ;
#83 = VECTOR ( 'NONE', #237, 39.37007874015748143 ) ;
#84 = CARTESIAN_POINT ( 'NONE',  ( 0.1100000000000001948, 1.347111479062090784E-17, 2.500000000000000000 ) ) ;
#85 = DIRECTION ( 'NONE',  ( -1.000000000000000000, 0.0000000000000000000, 0.0000000000000000000 ) ) ;
#86 = ORIENTED_EDGE ( 'NONE', *, *, #42, .F. ) ;
#87 = FACE_OUTER_BOUND ( 'NONE', #193, .T. ) ;
#88 = EDGE_LOOP ( 'NONE', ( #38, #180, #41, #69 ) ) ;
#89 = CIRCLE ( 'NONE', #188, 0.1250000000000000000 ) ;
#90 = DIMENSIONAL_EXPONENTS ( 1.000000000000000000, 0.0000000000000000000, 0.0000000000000000000, 0.0000000000000000000, 0.0000000000000000000, 0.0000000000000000000, 0.0000000000000000000 ) ;
#91 = CARTESIAN_POINT ( 'NONE',  ( 0.0000000000000000000, 0.0000000000000000000, 2.500000000000000000 ) ) ;
#92 =( LENGTH_UNIT ( ) NAMED_UNIT ( * ) SI_UNIT ( $, .METRE. ) );
#93 = PRODUCT ( 'Micro_RTC-250-1X', 'Micro_RTC-250-1X', '', ( #74 ) ) ;
#94 = CARTESIAN_POINT ( 'NONE',  ( 0.1100000000000001948, 1.438959988998141146E-17, 2.500000000000000000 ) ) ;
#95 = SURFACE_STYLE_USAGE ( .BOTH. , #114 ) ;
#96 = AXIS2_PLACEMENT_3D ( 'NONE', #243, #241, #108 ) ;
#97 = COLOUR_RGB ( '',0.7921568627450980005, 0.8196078431372548767, 0.9333333333333333481 ) ;
#98 = LENGTH_MEASURE_WITH_UNIT ( LENGTH_MEASURE( 0.02539999999999999897 ), #92 );
#99 = ADVANCED_BREP_SHAPE_REPRESENTATION ( 'Micro_RTC-250-1X', ( #35, #136 ), #201 ) ;
#100 = CIRCLE ( 'NONE', #116, 0.1250000000000000000 ) ;
#101 = UNCERTAINTY_MEASURE_WITH_UNIT (LENGTH_MEASURE( 1.000000000000000082E-05 ), #49, 'distance_accuracy_value', 'NONE');
#102 = EDGE_CURVE ( 'NONE', #120, #178, #199, .T. ) ;
#103 = AXIS2_PLACEMENT_3D ( 'NONE', #23, #44, #214 ) ;
#104 = ORIENTED_EDGE ( 'NONE', *, *, #15, .F. ) ;
#105 = DIRECTION ( 'NONE',  ( -1.000000000000000000, 0.0000000000000000000, 0.0000000000000000000 ) ) ;
#106 = AXIS2_PLACEMENT_3D ( 'NONE', #77, #16, #50 ) ;
#107 = ORIENTED_EDGE ( 'NONE', *, *, #54, .T. ) ;
#108 = DIRECTION ( 'NONE',  ( 1.000000000000000000, 0.0000000000000000000, -0.0000000000000000000 ) ) ;
#109 = CARTESIAN_POINT ( 'NONE',  ( 0.003999999999999999216, 0.0000000000000000000, 0.0000000000000000000 ) ) ;
#110 = VERTEX_POINT ( 'NONE', #138 ) ;
#111 = DIRECTION ( 'NONE',  ( 1.000000000000000000, 0.0000000000000000000, 0.0000000000000000000 ) ) ;
#112 = DIMENSIONAL_EXPONENTS ( 1.000000000000000000, 0.0000000000000000000, 0.0000000000000000000, 0.0000000000000000000, 0.0000000000000000000, 0.0000000000000000000, 0.0000000000000000000 ) ;
#113 =( LENGTH_UNIT ( ) NAMED_UNIT ( * ) SI_UNIT ( $, .METRE. ) );
#114 = SURFACE_SIDE_STYLE ('',( #115 ) ) ;
#115 = SURFACE_STYLE_FILL_AREA ( #224 ) ;
#116 = AXIS2_PLACEMENT_3D ( 'NONE', #142, #127, #105 ) ;
#117 =( NAMED_UNIT ( * ) SI_UNIT ( $, .STERADIAN. ) SOLID_ANGLE_UNIT ( ) );
#118 = ADVANCED_FACE ( 'NONE', ( #159 ), #43, .F. ) ;
#119 = AXIS2_PLACEMENT_3D ( 'NONE', #30, #228, #75 ) ;
#120 = VERTEX_POINT ( 'NONE', #109 ) ;
#121 = ORIENTED_EDGE ( 'NONE', *, *, #246, .F. ) ;
#122 = DIRECTION ( 'NONE',  ( -0.0000000000000000000, -0.0000000000000000000, -1.000000000000000000 ) ) ;
#123 = MECHANICAL_DESIGN_GEOMETRIC_PRESENTATION_REPRESENTATION (  '', ( #76 ), #146 ) ;
#124 = VERTEX_POINT ( 'NONE', #197 ) ;
#125 = CARTESIAN_POINT ( 'NONE',  ( 0.1250000000000000000, 1.530808498934191509E-17, 2.500000000000000000 ) ) ;
#126 = VERTEX_POINT ( 'NONE', #194 ) ;
#127 = DIRECTION ( 'NONE',  ( -0.0000000000000000000, -0.0000000000000000000, -1.000000000000000000 ) ) ;
#128 = SURFACE_SIDE_STYLE ('',( #13 ) ) ;
#129 = CARTESIAN_POINT ( 'NONE',  ( 0.0000000000000000000, 0.0000000000000000000, 2.500000000000000000 ) ) ;
#130 = STYLED_ITEM ( 'NONE', ( #206 ), #99 ) ;
#131 = DIRECTION ( 'NONE',  ( 0.0000000000000000000, 0.0000000000000000000, 1.000000000000000000 ) ) ;
#132 = PRODUCT_RELATED_PRODUCT_CATEGORY ( 'part', '', ( #93 ) ) ;
#133 = PLANE ( 'NONE',  #34 ) ;
#134 = SURFACE_STYLE_USAGE ( .BOTH. , #128 ) ;
#135 = CLOSED_SHELL ( 'NONE', ( #152, #230, #210, #72, #79, #191, #63, #118 ) ) ;
#136 = AXIS2_PLACEMENT_3D ( 'NONE', #78, #190, #187 ) ;
#137 = ORIENTED_EDGE ( 'NONE', *, *, #45, .F. ) ;
#138 = CARTESIAN_POINT ( 'NONE',  ( -0.1250000000000000000, 0.0000000000000000000, 2.485000000000000320 ) ) ;
#139 = DIRECTION ( 'NONE',  ( -1.000000000000000000, 0.0000000000000000000, 0.0000000000000000000 ) ) ;
#140 = DIRECTION ( 'NONE',  ( -0.0000000000000000000, -0.0000000000000000000, -1.000000000000000000 ) ) ;
#141 = VERTEX_POINT ( 'NONE', #220 ) ;
#142 = CARTESIAN_POINT ( 'NONE',  ( 0.0000000000000000000, 0.0000000000000000000, 0.4515781477158323787 ) ) ;
#143 = ORIENTED_EDGE ( 'NONE', *, *, #45, .T. ) ;
#144 = LINE ( 'NONE', #157, #80 ) ;
#145 = DIRECTION ( 'NONE',  ( 1.000000000000000000, 0.0000000000000000000, -0.0000000000000000000 ) ) ;
#146 =( GEOMETRIC_REPRESENTATION_CONTEXT ( 3 ) GLOBAL_UNCERTAINTY_ASSIGNED_CONTEXT ( ( #37 ) ) GLOBAL_UNIT_ASSIGNED_CONTEXT ( ( #149, #32, #186 ) ) REPRESENTATION_CONTEXT ( 'NONE', 'WORKASPACE' ) );
#147 = FILL_AREA_STYLE ('',( #183 ) ) ;
#148 = LINE ( 'NONE', #247, #20 ) ;
#149 =( CONVERSION_BASED_UNIT ( 'INCH', #245 ) LENGTH_UNIT ( ) NAMED_UNIT ( #90 ) );
#150 = CIRCLE ( 'NONE', #58, 0.1250000000000000000 ) ;
#151 = SHAPE_DEFINITION_REPRESENTATION ( #67, #99 ) ;
#152 = ADVANCED_FACE ( 'NONE', ( #1 ), #17, .T. ) ;
#153 = AXIS2_PLACEMENT_3D ( 'NONE', #29, #6, #139 ) ;
#154 = EDGE_LOOP ( 'NONE', ( #46, #163, #59, #158 ) ) ;
#155 = DIRECTION ( 'NONE',  ( -0.0000000000000000000, -0.0000000000000000000, -1.000000000000000000 ) ) ;
#156 = EDGE_CURVE ( 'NONE', #178, #120, #211, .T. ) ;
#157 = CARTESIAN_POINT ( 'NONE',  ( 0.003999999999999999216, 0.0000000000000000000, 0.0000000000000000000 ) ) ;
#158 = ORIENTED_EDGE ( 'NONE', *, *, #225, .F. ) ;
#159 = FACE_OUTER_BOUND ( 'NONE', #62, .T. ) ;
#160 = ORIENTED_EDGE ( 'NONE', *, *, #246, .T. ) ;
#161 = CARTESIAN_POINT ( 'NONE',  ( 0.0000000000000000000, 0.0000000000000000000, 2.500000000000000000 ) ) ;
#162 = PRESENTATION_LAYER_ASSIGNMENT (  '', '', ( #76 ) ) ;
#163 = ORIENTED_EDGE ( 'NONE', *, *, #244, .T. ) ;
#164 = LENGTH_MEASURE_WITH_UNIT ( LENGTH_MEASURE( 0.02539999999999999897 ), #216 );
#165 = FILL_AREA_STYLE_COLOUR ( '', #52 ) ;
#166 =( NAMED_UNIT ( * ) PLANE_ANGLE_UNIT ( ) SI_UNIT ( $, .RADIAN. ) );
#167 = DIRECTION ( 'NONE',  ( -0.0000000000000000000, -0.0000000000000000000, -1.000000000000000000 ) ) ;
#168 = CIRCLE ( 'NONE', #21, 0.1100000000000001948 ) ;
#169 = PRODUCT_DEFINITION_CONTEXT ( 'detailed design', #70, 'design' ) ;
#170 = DIRECTION ( 'NONE',  ( -0.7071067811865499042, 0.0000000000000000000, -0.7071067811865451302 ) ) ;
#171 = PRODUCT_DEFINITION ( 'UNKNOWN', '', #231, #169 ) ;
#172 = AXIS2_PLACEMENT_3D ( 'NONE', #239, #177, #40 ) ;
#173 = CARTESIAN_POINT ( 'NONE',  ( 0.0000000000000000000, 0.0000000000000000000, 2.485000000000000320 ) ) ;
#174 = EDGE_LOOP ( 'NONE', ( #238, #7, #143, #2 ) ) ;
#175 = CIRCLE ( 'NONE', #106, 0.1250000000000000000 ) ;
#176 = DIRECTION ( 'NONE',  ( -0.2588190451025216832, 3.169619151431776035E-17, 0.9659258262890679791 ) ) ;
#177 = DIRECTION ( 'NONE',  ( 0.0000000000000000000, 0.0000000000000000000, 1.000000000000000000 ) ) ;
#178 = VERTEX_POINT ( 'NONE', #71 ) ;
#179 = FACE_OUTER_BOUND ( 'NONE', #203, .T. ) ;
#180 = ORIENTED_EDGE ( 'NONE', *, *, #102, .F. ) ;
#181 = CARTESIAN_POINT ( 'NONE',  ( -0.003999999999999999216, 4.898587196589411612E-19, 0.0000000000000000000 ) ) ;
#182 = AXIS2_PLACEMENT_3D ( 'NONE', #234, #140, #25 ) ;
#183 = FILL_AREA_STYLE_COLOUR ( '', #97 ) ;
#184 = CARTESIAN_POINT ( 'NONE',  ( 0.0000000000000000000, 0.0000000000000000000, 2.500000000000000000 ) ) ;
#185 =( CONVERSION_BASED_UNIT ( 'INCH', #98 ) LENGTH_UNIT ( ) NAMED_UNIT ( #196 ) );
#186 =( NAMED_UNIT ( * ) SI_UNIT ( $, .STERADIAN. ) SOLID_ANGLE_UNIT ( ) );
#187 = DIRECTION ( 'NONE',  ( 1.000000000000000000, 0.0000000000000000000, 0.0000000000000000000 ) ) ;
#188 = AXIS2_PLACEMENT_3D ( 'NONE', #173, #27, #64 ) ;
#189 = CARTESIAN_POINT ( 'NONE',  ( 0.0000000000000000000, 0.0000000000000000000, 0.4515781477158323787 ) ) ;
#190 = DIRECTION ( 'NONE',  ( 0.0000000000000000000, 0.0000000000000000000, 1.000000000000000000 ) ) ;
#191 = ADVANCED_FACE ( 'NONE', ( #179 ), #81, .T. ) ;
#192 =( NAMED_UNIT ( * ) PLANE_ANGLE_UNIT ( ) SI_UNIT ( $, .RADIAN. ) );
#193 = EDGE_LOOP ( 'NONE', ( #242, #160, #104, #86 ) ) ;
#194 = CARTESIAN_POINT ( 'NONE',  ( -0.1100000000000001948, 0.0000000000000000000, 2.500000000000000000 ) ) ;
#195 = EDGE_CURVE ( 'NONE', #141, #110, #89, .T. ) ;
#196 = DIMENSIONAL_EXPONENTS ( 1.000000000000000000, 0.0000000000000000000, 0.0000000000000000000, 0.0000000000000000000, 0.0000000000000000000, 0.0000000000000000000, 0.0000000000000000000 ) ;
#197 = CARTESIAN_POINT ( 'NONE',  ( 0.1250000000000000000, 1.530808498934191509E-17, 0.4515781477158323787 ) ) ;
#198 = ORIENTED_EDGE ( 'NONE', *, *, #15, .T. ) ;
#199 = CIRCLE ( 'NONE', #212, 0.003999999999999999216 ) ;
#200 = LINE ( 'NONE', #181, #11 ) ;
#201 =( GEOMETRIC_REPRESENTATION_CONTEXT ( 3 ) GLOBAL_UNCERTAINTY_ASSIGNED_CONTEXT ( ( #101 ) ) GLOBAL_UNIT_ASSIGNED_CONTEXT ( ( #49, #166, #117 ) ) REPRESENTATION_CONTEXT ( 'NONE', 'WORKASPACE' ) );
#202 = EDGE_LOOP ( 'NONE', ( #107, #65 ) ) ;
#203 = EDGE_LOOP ( 'NONE', ( #121, #219, #217, #233 ) ) ;
#204 = CARTESIAN_POINT ( 'NONE',  ( 0.0000000000000000000, 0.0000000000000000000, 2.500000000000000000 ) ) ;
#205 = LINE ( 'NONE', #12, #56 ) ;
#206 = PRESENTATION_STYLE_ASSIGNMENT (( #134 ) ) ;
#207 = CARTESIAN_POINT ( 'NONE',  ( 0.0000000000000000000, 0.0000000000000000000, 0.0000000000000000000 ) ) ;
#208 = FACE_OUTER_BOUND ( 'NONE', #174, .T. ) ;
#209 = DIRECTION ( 'NONE',  ( -0.0000000000000000000, -0.0000000000000000000, -1.000000000000000000 ) ) ;
#210 = ADVANCED_FACE ( 'NONE', ( #82 ), #28, .T. ) ;
#211 = CIRCLE ( 'NONE', #153, 0.003999999999999999216 ) ;
#212 = AXIS2_PLACEMENT_3D ( 'NONE', #207, #155, #85 ) ;
#213 = ORIENTED_EDGE ( 'NONE', *, *, #215, .T. ) ;
#214 = DIRECTION ( 'NONE',  ( -1.000000000000000000, 0.0000000000000000000, 0.0000000000000000000 ) ) ;
#215 = EDGE_CURVE ( 'NONE', #141, #124, #218, .T. ) ;
#216 =( LENGTH_UNIT ( ) NAMED_UNIT ( * ) SI_UNIT ( $, .METRE. ) );
#217 = ORIENTED_EDGE ( 'NONE', *, *, #42, .T. ) ;
#218 = LINE ( 'NONE', #125, #10 ) ;
#219 = ORIENTED_EDGE ( 'NONE', *, *, #54, .F. ) ;
#220 = CARTESIAN_POINT ( 'NONE',  ( 0.1250000000000000000, 1.530808498934191509E-17, 2.485000000000000320 ) ) ;
#221 = DIRECTION ( 'NONE',  ( 0.0000000000000000000, 0.0000000000000000000, 1.000000000000000000 ) ) ;
#222 = PRESENTATION_STYLE_ASSIGNMENT (( #95 ) ) ;
#223 =( GEOMETRIC_REPRESENTATION_CONTEXT ( 3 ) GLOBAL_UNCERTAINTY_ASSIGNED_CONTEXT ( ( #18 ) ) GLOBAL_UNIT_ASSIGNED_CONTEXT ( ( #185, #192, #248 ) ) REPRESENTATION_CONTEXT ( 'NONE', 'WORKASPACE' ) );
#224 = FILL_AREA_STYLE ('',( #165 ) ) ;
#225 = EDGE_CURVE ( 'NONE', #120, #124, #144, .T. ) ;
#226 = DIRECTION ( 'NONE',  ( -0.0000000000000000000, -0.0000000000000000000, -1.000000000000000000 ) ) ;
#227 = APPLICATION_PROTOCOL_DEFINITION ( 'draft international standard', 'automotive_design', 1998, #51 ) ;
#228 = DIRECTION ( 'NONE',  ( 0.0000000000000000000, 0.0000000000000000000, 1.000000000000000000 ) ) ;
#229 = CIRCLE ( 'NONE', #66, 0.1100000000000001948 ) ;
#230 = ADVANCED_FACE ( 'NONE', ( #87 ), #60, .T. ) ;
#231 = PRODUCT_DEFINITION_FORMATION_WITH_SPECIFIED_SOURCE ( 'ANY', '', #93, .NOT_KNOWN. ) ;
#232 = EDGE_CURVE ( 'NONE', #235, #124, #100, .T. ) ;
#233 = ORIENTED_EDGE ( 'NONE', *, *, #195, .F. ) ;
#234 = CARTESIAN_POINT ( 'NONE',  ( 0.0000000000000000000, 0.0000000000000000000, 2.500000000000000000 ) ) ;
#235 = VERTEX_POINT ( 'NONE', #61 ) ;
#236 = EDGE_CURVE ( 'NONE', #5, #126, #168, .T. ) ;
#237 = DIRECTION ( 'NONE',  ( 0.7071067811865499042, 8.659560562354961208E-17, -0.7071067811865451302 ) ) ;
#238 = ORIENTED_EDGE ( 'NONE', *, *, #215, .F. ) ;
#239 = CARTESIAN_POINT ( 'NONE',  ( 0.0000000000000000000, 0.0000000000000000000, 0.0000000000000000000 ) ) ;
#240 = ORIENTED_EDGE ( 'NONE', *, *, #102, .T. ) ;
#241 = DIRECTION ( 'NONE',  ( 0.0000000000000000000, 0.0000000000000000000, 1.000000000000000000 ) ) ;
#242 = ORIENTED_EDGE ( 'NONE', *, *, #236, .F. ) ;
#243 = CARTESIAN_POINT ( 'NONE',  ( 0.0000000000000000000, 0.0000000000000000000, 0.0000000000000000000 ) ) ;
#244 = EDGE_CURVE ( 'NONE', #178, #235, #200, .T. ) ;
#245 = LENGTH_MEASURE_WITH_UNIT ( LENGTH_MEASURE( 0.02539999999999999897 ), #113 );
#246 = EDGE_CURVE ( 'NONE', #5, #141, #4, .T. ) ;
#247 = CARTESIAN_POINT ( 'NONE',  ( -0.1100000000000001948, 0.0000000000000000000, 2.500000000000000000 ) ) ;
#248 =( NAMED_UNIT ( * ) SI_UNIT ( $, .STERADIAN. ) SOLID_ANGLE_UNIT ( ) );
#249 = PRESENTATION_LAYER_ASSIGNMENT (  '', '', ( #130 ) ) ;
ENDSEC;
END-ISO-10303-21;
