ISO-10303-21;
HEADER;
FILE_DESCRIPTION (( 'STEP AP214' ),
    '1' );
FILE_NAME ('Micro_BEM-156-03.STEP',
    '2021-09-03T13:03:13',
    ( '' ),
    ( '' ),
    'SwSTEP 2.0',
    'SolidWorks 2020',
    '' );
FILE_SCHEMA (( 'AUTOMOTIVE_DESIGN' ));
ENDSEC;

DATA;
#1 = AXIS2_PLACEMENT_3D ( 'NONE', #57, #161, #265 ) ;
#2 = ADVANCED_FACE ( 'NONE', ( #135 ), #12, .T. ) ;
#3 = AXIS2_PLACEMENT_3D ( 'NONE', #259, #180, #150 ) ;
#4 = AXIS2_PLACEMENT_3D ( 'NONE', #308, #81, #183 ) ;
#5 = DIRECTION ( 'NONE',  ( 1.000000000000000000, 0.0000000000000000000, 0.0000000000000000000 ) ) ;
#6 = ADVANCED_FACE ( 'NONE', ( #242 ), #315, .T. ) ;
#7 = DIRECTION ( 'NONE',  ( 0.0000000000000000000, 0.0000000000000000000, -1.000000000000000000 ) ) ;
#8 = DIRECTION ( 'NONE',  ( -1.224646799147353207E-16, -0.0000000000000000000, -1.000000000000000000 ) ) ;
#9 = DIRECTION ( 'NONE',  ( -1.000000000000000000, 1.224646799147353207E-16, 0.0000000000000000000 ) ) ;
#10 = ORIENTED_EDGE ( 'NONE', *, *, #226, .T. ) ;
#11 = DIRECTION ( 'NONE',  ( 0.0000000000000000000, 1.000000000000000000, 0.0000000000000000000 ) ) ;
#12 = PLANE ( 'NONE',  #228 ) ;
#13 = SURFACE_STYLE_FILL_AREA ( #115 ) ;
#14 = ORIENTED_EDGE ( 'NONE', *, *, #247, .T. ) ;
#15 = PRESENTATION_STYLE_ASSIGNMENT (( #68 ) ) ;
#16 = CIRCLE ( 'NONE', #89, 0.07802190000000000514 ) ;
#17 = LENGTH_MEASURE_WITH_UNIT ( LENGTH_MEASURE( 0.02539999999999999897 ), #324 );
#18 = DIRECTION ( 'NONE',  ( 1.000000000000000000, 0.0000000000000000000, 0.0000000000000000000 ) ) ;
#19 = AXIS2_PLACEMENT_3D ( 'NONE', #193, #60, #312 ) ;
#20 =( CONVERSION_BASED_UNIT ( 'INCH', #252 ) LENGTH_UNIT ( ) NAMED_UNIT ( #168 ) );
#21 = CIRCLE ( 'NONE', #278, 0.07874999999999980627 ) ;
#22 = EDGE_CURVE ( 'NONE', #158, #269, #121, .T. ) ;
#23 = EDGE_CURVE ( 'NONE', #37, #194, #46, .T. ) ;
#24 = AXIS2_PLACEMENT_3D ( 'NONE', #127, #145, #256 ) ;
#25 = DIRECTION ( 'NONE',  ( 1.224646799147353207E-16, 1.000000000000000000, -0.0000000000000000000 ) ) ;
#26 = CARTESIAN_POINT ( 'NONE',  ( -0.07802189999999993575, 9.554927009839488851E-18, 0.5629999999999999449 ) ) ;
#27 = AXIS2_PLACEMENT_3D ( 'NONE', #311, #262, #264 ) ;
#28 = PRESENTATION_LAYER_ASSIGNMENT (  '', '', ( #271 ) ) ;
#29 = FACE_OUTER_BOUND ( 'NONE', #216, .T. ) ;
#30 = DIRECTION ( 'NONE',  ( -0.1736481776669311083, 2.126576849575782084E-17, 0.9848077530122080203 ) ) ;
#31 = LINE ( 'NONE', #205, #253 ) ;
#32 = AXIS2_PLACEMENT_3D ( 'NONE', #172, #120, #189 ) ;
#33 = ORIENTED_EDGE ( 'NONE', *, *, #44, .T. ) ;
#34 = DIRECTION ( 'NONE',  ( 1.000000000000000000, 0.0000000000000000000, 0.0000000000000000000 ) ) ;
#35 = VERTEX_POINT ( 'NONE', #83 ) ;
#36 =( NAMED_UNIT ( * ) SI_UNIT ( $, .STERADIAN. ) SOLID_ANGLE_UNIT ( ) );
#37 = VERTEX_POINT ( 'NONE', #303 ) ;
#38 = FILL_AREA_STYLE_COLOUR ( '', #41 ) ;
#39 = AXIS2_PLACEMENT_3D ( 'NONE', #290, #7, #160 ) ;
#40 = ORIENTED_EDGE ( 'NONE', *, *, #111, .T. ) ;
#41 = COLOUR_RGB ( '',0.7921568627450980005, 0.8196078431372548767, 0.9333333333333333481 ) ;
#42 = CARTESIAN_POINT ( 'NONE',  ( 7.987127902323220081E-17, 0.0000000000000000000, 0.6521984875871288390 ) ) ;
#43 = CARTESIAN_POINT ( 'NONE',  ( 0.09375000000000001388, 1.148106374200643863E-17, 1.984999999999999654 ) ) ;
#44 = EDGE_CURVE ( 'NONE', #35, #58, #125, .T. ) ;
#45 = PRESENTATION_LAYER_ASSIGNMENT (  '', '', ( #98 ) ) ;
#46 = CIRCLE ( 'NONE', #138, 0.07802190000000000514 ) ;
#47 = CARTESIAN_POINT ( 'NONE',  ( 0.0000000000000000000, 0.0000000000000000000, 2.000000000000000000 ) ) ;
#48 = PRODUCT_DEFINITION_SHAPE ( 'NONE', 'NONE',  #159 ) ;
#49 = ADVANCED_FACE ( 'NONE', ( #175 ), #184, .T. ) ;
#50 = DIRECTION ( 'NONE',  ( -1.000000000000000000, 0.0000000000000000000, 2.188366338220633428E-16 ) ) ;
#51 = DIRECTION ( 'NONE',  ( 1.000000000000000000, 0.0000000000000000000, 0.0000000000000000000 ) ) ;
#52 = LINE ( 'NONE', #258, #142 ) ;
#53 = DIRECTION ( 'NONE',  ( 0.0000000000000000000, 0.0000000000000000000, -1.000000000000000000 ) ) ;
#54 = SPHERICAL_SURFACE ( 'NONE', #257, 0.07802190000000000514 ) ;
#55 = ADVANCED_FACE ( 'NONE', ( #156 ), #277, .T. ) ;
#56 = FACE_OUTER_BOUND ( 'NONE', #266, .T. ) ;
#57 = CARTESIAN_POINT ( 'NONE',  ( 0.0000000000000000000, 0.0000000000000000000, 2.000000000000000000 ) ) ;
#58 = VERTEX_POINT ( 'NONE', #260 ) ;
#59 = CARTESIAN_POINT ( 'NONE',  ( 0.07874999999999980627, 9.644093543285380530E-18, 2.000000000000000000 ) ) ;
#60 = DIRECTION ( 'NONE',  ( -0.0000000000000000000, -0.0000000000000000000, -1.000000000000000000 ) ) ;
#61 = AXIS2_PLACEMENT_3D ( 'NONE', #144, #202, #51 ) ;
#62 = AXIS2_PLACEMENT_3D ( 'NONE', #124, #314, #177 ) ;
#63 = ORIENTED_EDGE ( 'NONE', *, *, #275, .F. ) ;
#64 = CARTESIAN_POINT ( 'NONE',  ( -0.07874999999999980627, 0.0000000000000000000, 2.000000000000000000 ) ) ;
#65 = ORIENTED_EDGE ( 'NONE', *, *, #117, .T. ) ;
#66 = ADVANCED_FACE ( 'NONE', ( #178 ), #182, .T. ) ;
#67 = EDGE_LOOP ( 'NONE', ( #209, #112, #220, #297 ) ) ;
#68 = SURFACE_STYLE_USAGE ( .BOTH. , #267 ) ;
#69 = AXIS2_PLACEMENT_3D ( 'NONE', #325, #300, #99 ) ;
#70 = ADVANCED_FACE ( 'NONE', ( #230 ), #153, .T. ) ;
#71 = DIRECTION ( 'NONE',  ( -1.000000000000000000, 0.0000000000000000000, 0.0000000000000000000 ) ) ;
#72 = PRODUCT_CONTEXT ( 'NONE', #174, 'mechanical' ) ;
#73 = SPHERICAL_SURFACE ( 'NONE', #32, 0.07802190000000000514 ) ;
#74 = ADVANCED_FACE ( 'NONE', ( #307 ), #73, .T. ) ;
#75 = SHAPE_DEFINITION_REPRESENTATION ( #48, #251 ) ;
#76 =( NAMED_UNIT ( * ) SI_UNIT ( $, .STERADIAN. ) SOLID_ANGLE_UNIT ( ) );
#77 = AXIS2_PLACEMENT_3D ( 'NONE', #206, #146, #103 ) ;
#78 = CARTESIAN_POINT ( 'NONE',  ( 0.0000000000000000000, 0.0000000000000000000, 0.0000000000000000000 ) ) ;
#79 = FACE_OUTER_BOUND ( 'NONE', #196, .T. ) ;
#80 = ORIENTED_EDGE ( 'NONE', *, *, #214, .T. ) ;
#81 = DIRECTION ( 'NONE',  ( 1.224646799147353207E-16, 0.0000000000000000000, 1.000000000000000000 ) ) ;
#82 = EDGE_CURVE ( 'NONE', #239, #194, #31, .T. ) ;
#83 = CARTESIAN_POINT ( 'NONE',  ( -0.09375000000000001388, 0.0000000000000000000, 1.984999999999999654 ) ) ;
#84 = CARTESIAN_POINT ( 'NONE',  ( 0.09375000000000001388, 1.148106374200643863E-17, 2.000000000000000000 ) ) ;
#85 = ORIENTED_EDGE ( 'NONE', *, *, #82, .T. ) ;
#86 = DIRECTION ( 'NONE',  ( 1.000000000000000000, 0.0000000000000000000, 0.0000000000000000000 ) ) ;
#87 = ORIENTED_EDGE ( 'NONE', *, *, #226, .F. ) ;
#88 = SURFACE_STYLE_USAGE ( .BOTH. , #317 ) ;
#89 = AXIS2_PLACEMENT_3D ( 'NONE', #299, #321, #71 ) ;
#90 = ORIENTED_EDGE ( 'NONE', *, *, #23, .F. ) ;
#91 = ORIENTED_EDGE ( 'NONE', *, *, #195, .F. ) ;
#92 = CARTESIAN_POINT ( 'NONE',  ( 0.07802190000000001902, 9.554927009839488851E-18, 0.07802189999999999126 ) ) ;
#93 = CARTESIAN_POINT ( 'NONE',  ( 0.09375000000000009714, 1.148106374200644787E-17, 0.6521984875871288390 ) ) ;
#94 = EDGE_CURVE ( 'NONE', #263, #313, #157, .T. ) ;
#95 = AXIS2_PLACEMENT_3D ( 'NONE', #78, #107, #286 ) ;
#96 = CIRCLE ( 'NONE', #250, 0.09375000000000001388 ) ;
#97 = CARTESIAN_POINT ( 'NONE',  ( 0.07802190000000007453, 0.0000000000000000000, 0.5629999999999999449 ) ) ;
#98 = STYLED_ITEM ( 'NONE', ( #15 ), #318 ) ;
#99 = DIRECTION ( 'NONE',  ( 1.000000000000000000, 0.0000000000000000000, 0.0000000000000000000 ) ) ;
#100 = PRODUCT_RELATED_PRODUCT_CATEGORY ( 'part', '', ( #143 ) ) ;
#101 = LINE ( 'NONE', #108, #148 ) ;
#102 = DIRECTION ( 'NONE',  ( 0.7071067811865463515, 8.659560562354916834E-17, -0.7071067811865486830 ) ) ;
#103 = DIRECTION ( 'NONE',  ( -1.000000000000000000, 0.0000000000000000000, 1.224646799147353207E-16 ) ) ;
#104 = CARTESIAN_POINT ( 'NONE',  ( 0.07874999999999980627, 1.056257864264590573E-17, 2.000000000000000000 ) ) ;
#105 = EDGE_LOOP ( 'NONE', ( #305, #80, #10, #166 ) ) ;
#106 = CARTESIAN_POINT ( 'NONE',  ( 9.554927009839488851E-18, 0.0000000000000000000, 0.07802190000000000514 ) ) ;
#107 = DIRECTION ( 'NONE',  ( -1.224646799147353207E-16, -0.0000000000000000000, -1.000000000000000000 ) ) ;
#108 = CARTESIAN_POINT ( 'NONE',  ( -0.07874999999999980627, 0.0000000000000000000, 2.000000000000000000 ) ) ;
#109 = ORIENTED_EDGE ( 'NONE', *, *, #214, .F. ) ;
#110 = FILL_AREA_STYLE ('',( #38 ) ) ;
#111 = EDGE_CURVE ( 'NONE', #37, #316, #141, .T. ) ;
#112 = ORIENTED_EDGE ( 'NONE', *, *, #151, .T. ) ;
#113 = VECTOR ( 'NONE', #235, 39.37007874015748143 ) ;
#114 = ORIENTED_EDGE ( 'NONE', *, *, #111, .F. ) ;
#115 = FILL_AREA_STYLE ('',( #140 ) ) ;
#116 = DIMENSIONAL_EXPONENTS ( 1.000000000000000000, 0.0000000000000000000, 0.0000000000000000000, 0.0000000000000000000, 0.0000000000000000000, 0.0000000000000000000, 0.0000000000000000000 ) ;
#117 = EDGE_CURVE ( 'NONE', #158, #287, #288, .T. ) ;
#118 =( NAMED_UNIT ( * ) PLANE_ANGLE_UNIT ( ) SI_UNIT ( $, .RADIAN. ) );
#119 = UNCERTAINTY_MEASURE_WITH_UNIT (LENGTH_MEASURE( 1.000000000000000082E-05 ), #219, 'distance_accuracy_value', 'NONE');
#120 = DIRECTION ( 'NONE',  ( 0.0000000000000000000, 1.000000000000000000, 0.0000000000000000000 ) ) ;
#121 = CIRCLE ( 'NONE', #1, 0.07874999999999980627 ) ;
#122 = ADVANCED_FACE ( 'NONE', ( #56 ), #319, .T. ) ;
#123 = AXIS2_PLACEMENT_3D ( 'NONE', #128, #279, #50 ) ;
#124 = CARTESIAN_POINT ( 'NONE',  ( 0.0000000000000000000, 0.0000000000000000000, 2.000000000000000000 ) ) ;
#125 = LINE ( 'NONE', #309, #203 ) ;
#126 = EDGE_CURVE ( 'NONE', #58, #313, #231, .T. ) ;
#127 = CARTESIAN_POINT ( 'NONE',  ( 6.894761479199598081E-17, 0.0000000000000000000, 0.5629999999999999449 ) ) ;
#128 = CARTESIAN_POINT ( 'NONE',  ( 9.554927009839488851E-18, 0.0000000000000000000, 0.07802190000000000514 ) ) ;
#129 = ORIENTED_EDGE ( 'NONE', *, *, #195, .T. ) ;
#130 = CARTESIAN_POINT ( 'NONE',  ( -0.07802189999999999126, 0.0000000000000000000, 0.07802190000000001902 ) ) ;
#131 = AXIS2_PLACEMENT_3D ( 'NONE', #47, #53, #229 ) ;
#132 = ORIENTED_EDGE ( 'NONE', *, *, #207, .T. ) ;
#133 = APPLICATION_CONTEXT ( 'automotive_design' ) ;
#134 = DIRECTION ( 'NONE',  ( -1.224646799147353207E-16, -0.0000000000000000000, -1.000000000000000000 ) ) ;
#135 = FACE_OUTER_BOUND ( 'NONE', #261, .T. ) ;
#136 = CARTESIAN_POINT ( 'NONE',  ( 0.0000000000000000000, 0.0000000000000000000, 1.984999999999999654 ) ) ;
#137 = ORIENTED_EDGE ( 'NONE', *, *, #255, .F. ) ;
#138 = AXIS2_PLACEMENT_3D ( 'NONE', #295, #25, #9 ) ;
#139 = ORIENTED_EDGE ( 'NONE', *, *, #22, .F. ) ;
#140 = FILL_AREA_STYLE_COLOUR ( '', #149 ) ;
#141 = CIRCLE ( 'NONE', #3, 0.07802190000000000514 ) ;
#142 = VECTOR ( 'NONE', #134, 39.37007874015748143 ) ;
#143 = PRODUCT ( 'Micro_BEM-156-03', 'Micro_BEM-156-03', '', ( #72 ) ) ;
#144 = CARTESIAN_POINT ( 'NONE',  ( 6.894761479199598081E-17, 0.0000000000000000000, 0.5629999999999999449 ) ) ;
#145 = DIRECTION ( 'NONE',  ( 1.224646799147353207E-16, 0.0000000000000000000, 1.000000000000000000 ) ) ;
#146 = DIRECTION ( 'NONE',  ( -1.224646799147353207E-16, -0.0000000000000000000, -1.000000000000000000 ) ) ;
#147 = ORIENTED_EDGE ( 'NONE', *, *, #22, .T. ) ;
#148 = VECTOR ( 'NONE', #208, 39.37007874015748143 ) ;
#149 = COLOUR_RGB ( '',0.7921568627450980005, 0.8196078431372548767, 0.9333333333333333481 ) ;
#150 = DIRECTION ( 'NONE',  ( 0.0000000000000000000, 0.0000000000000000000, -1.000000000000000000 ) ) ;
#151 = EDGE_CURVE ( 'NONE', #239, #58, #241, .T. ) ;
#152 = UNCERTAINTY_MEASURE_WITH_UNIT (LENGTH_MEASURE( 1.000000000000000082E-05 ), #20, 'distance_accuracy_value', 'NONE');
#153 = CYLINDRICAL_SURFACE ( 'NONE', #77, 0.07802190000000000514 ) ;
#154 = ORIENTED_EDGE ( 'NONE', *, *, #275, .T. ) ;
#155 = CARTESIAN_POINT ( 'NONE',  ( 0.0000000000000000000, 0.0000000000000000000, 2.000000000000000000 ) ) ;
#156 = FACE_OUTER_BOUND ( 'NONE', #296, .T. ) ;
#157 = LINE ( 'NONE', #285, #292 ) ;
#158 = VERTEX_POINT ( 'NONE', #104 ) ;
#159 = PRODUCT_DEFINITION ( 'UNKNOWN', '', #200, #215 ) ;
#160 = DIRECTION ( 'NONE',  ( -1.000000000000000000, 0.0000000000000000000, 0.0000000000000000000 ) ) ;
#161 = DIRECTION ( 'NONE',  ( 0.0000000000000000000, 0.0000000000000000000, 1.000000000000000000 ) ) ;
#162 = CARTESIAN_POINT ( 'NONE',  ( 0.0000000000000000000, 0.0000000000000000000, 2.000000000000000000 ) ) ;
#163 = DIRECTION ( 'NONE',  ( -1.000000000000000000, 0.0000000000000000000, 0.0000000000000000000 ) ) ;
#164 = ORIENTED_EDGE ( 'NONE', *, *, #247, .F. ) ;
#165 =( NAMED_UNIT ( * ) SI_UNIT ( $, .STERADIAN. ) SOLID_ANGLE_UNIT ( ) );
#166 = ORIENTED_EDGE ( 'NONE', *, *, #82, .F. ) ;
#167 =( NAMED_UNIT ( * ) PLANE_ANGLE_UNIT ( ) SI_UNIT ( $, .RADIAN. ) );
#168 = DIMENSIONAL_EXPONENTS ( 1.000000000000000000, 0.0000000000000000000, 0.0000000000000000000, 0.0000000000000000000, 0.0000000000000000000, 0.0000000000000000000, 0.0000000000000000000 ) ;
#169 = DIRECTION ( 'NONE',  ( 0.0000000000000000000, 0.0000000000000000000, -1.000000000000000000 ) ) ;
#170 =( CONVERSION_BASED_UNIT ( 'INCH', #17 ) LENGTH_UNIT ( ) NAMED_UNIT ( #116 ) );
#171 = MECHANICAL_DESIGN_GEOMETRIC_PRESENTATION_REPRESENTATION (  '', ( #271 ), #223 ) ;
#172 = CARTESIAN_POINT ( 'NONE',  ( 9.554927009839488851E-18, 0.0000000000000000000, 0.07802190000000000514 ) ) ;
#173 = ADVANCED_FACE ( 'NONE', ( #281 ), #54, .T. ) ;
#174 = APPLICATION_CONTEXT ( 'automotive_design' ) ;
#175 = FACE_OUTER_BOUND ( 'NONE', #105, .T. ) ;
#176 = APPLICATION_PROTOCOL_DEFINITION ( 'draft international standard', 'automotive_design', 1998, #133 ) ;
#177 = DIRECTION ( 'NONE',  ( -1.000000000000000000, 0.0000000000000000000, 0.0000000000000000000 ) ) ;
#178 = FACE_OUTER_BOUND ( 'NONE', #67, .T. ) ;
#179 = ORIENTED_EDGE ( 'NONE', *, *, #187, .T. ) ;
#180 = DIRECTION ( 'NONE',  ( 0.0000000000000000000, -1.000000000000000000, 0.0000000000000000000 ) ) ;
#181 = ORIENTED_EDGE ( 'NONE', *, *, #199, .F. ) ;
#182 = CONICAL_SURFACE ( 'NONE', #61, 0.07802190000000000514, 0.1745329251994338082 ) ;
#183 = DIRECTION ( 'NONE',  ( -1.000000000000000000, 0.0000000000000000000, 2.188366338220633428E-16 ) ) ;
#184 = CYLINDRICAL_SURFACE ( 'NONE', #95, 0.07802190000000000514 ) ;
#185 = CARTESIAN_POINT ( 'NONE',  ( 0.0000000000000000000, 0.0000000000000000000, 1.984999999999999654 ) ) ;
#186 = DIRECTION ( 'NONE',  ( 1.000000000000000000, 0.0000000000000000000, -0.0000000000000000000 ) ) ;
#187 = EDGE_CURVE ( 'NONE', #287, #313, #213, .T. ) ;
#188 = ORIENTED_EDGE ( 'NONE', *, *, #255, .T. ) ;
#189 = DIRECTION ( 'NONE',  ( 1.000000000000000000, 0.0000000000000000000, 0.0000000000000000000 ) ) ;
#190 = ORIENTED_EDGE ( 'NONE', *, *, #23, .T. ) ;
#191 = PRESENTATION_STYLE_ASSIGNMENT (( #88 ) ) ;
#192 = VECTOR ( 'NONE', #102, 39.37007874015748143 ) ;
#193 = CARTESIAN_POINT ( 'NONE',  ( 0.0000000000000000000, 0.0000000000000000000, 2.000000000000000000 ) ) ;
#194 = VERTEX_POINT ( 'NONE', #130 ) ;
#195 = EDGE_CURVE ( 'NONE', #269, #35, #101, .T. ) ;
#196 = EDGE_LOOP ( 'NONE', ( #291, #179, #234, #218 ) ) ;
#197 = DIRECTION ( 'NONE',  ( -1.224646799147353207E-16, -0.0000000000000000000, -1.000000000000000000 ) ) ;
#198 =( LENGTH_UNIT ( ) NAMED_UNIT ( * ) SI_UNIT ( $, .METRE. ) );
#199 = EDGE_CURVE ( 'NONE', #287, #35, #301, .T. ) ;
#200 = PRODUCT_DEFINITION_FORMATION_WITH_SPECIFIED_SOURCE ( 'ANY', '', #143, .NOT_KNOWN. ) ;
#201 = CIRCLE ( 'NONE', #232, 0.07802190000000000514 ) ;
#202 = DIRECTION ( 'NONE',  ( 1.224646799147353207E-16, 0.0000000000000000000, 1.000000000000000000 ) ) ;
#203 = VECTOR ( 'NONE', #283, 39.37007874015748143 ) ;
#204 =( GEOMETRIC_REPRESENTATION_CONTEXT ( 3 ) GLOBAL_UNCERTAINTY_ASSIGNED_CONTEXT ( ( #119 ) ) GLOBAL_UNIT_ASSIGNED_CONTEXT ( ( #219, #167, #36 ) ) REPRESENTATION_CONTEXT ( 'NONE', 'WORKASPACE' ) );
#205 = CARTESIAN_POINT ( 'NONE',  ( -0.07802190000000000514, 0.0000000000000000000, 9.554927009839488851E-18 ) ) ;
#206 = CARTESIAN_POINT ( 'NONE',  ( 0.0000000000000000000, 0.0000000000000000000, 0.0000000000000000000 ) ) ;
#207 = EDGE_CURVE ( 'NONE', #269, #158, #21, .T. ) ;
#208 = DIRECTION ( 'NONE',  ( -0.7071067811865463515, 0.0000000000000000000, -0.7071067811865486830 ) ) ;
#209 = ORIENTED_EDGE ( 'NONE', *, *, #323, .F. ) ;
#210 = CARTESIAN_POINT ( 'NONE',  ( -0.07802189999999993575, 1.051799537592296220E-17, 0.5629999999999999449 ) ) ;
#211 = ORIENTED_EDGE ( 'NONE', *, *, #94, .T. ) ;
#212 = CIRCLE ( 'NONE', #320, 0.09375000000000001388 ) ;
#213 = LINE ( 'NONE', #84, #113 ) ;
#214 = EDGE_CURVE ( 'NONE', #263, #316, #52, .T. ) ;
#215 = PRODUCT_DEFINITION_CONTEXT ( 'detailed design', #133, 'design' ) ;
#216 = EDGE_LOOP ( 'NONE', ( #322, #137, #211, #154 ) ) ;
#217 = DIRECTION ( 'NONE',  ( 0.0000000000000000000, 0.0000000000000000000, -1.000000000000000000 ) ) ;
#218 = ORIENTED_EDGE ( 'NONE', *, *, #44, .F. ) ;
#219 =( CONVERSION_BASED_UNIT ( 'INCH', #298 ) LENGTH_UNIT ( ) NAMED_UNIT ( #272 ) );
#220 = ORIENTED_EDGE ( 'NONE', *, *, #126, .T. ) ;
#221 = DIRECTION ( 'NONE',  ( 1.000000000000000000, 0.0000000000000000000, 0.0000000000000000000 ) ) ;
#222 = VECTOR ( 'NONE', #30, 39.37007874015747433 ) ;
#223 =( GEOMETRIC_REPRESENTATION_CONTEXT ( 3 ) GLOBAL_UNCERTAINTY_ASSIGNED_CONTEXT ( ( #152 ) ) GLOBAL_UNIT_ASSIGNED_CONTEXT ( ( #20, #118, #76 ) ) REPRESENTATION_CONTEXT ( 'NONE', 'WORKASPACE' ) );
#224 = EDGE_LOOP ( 'NONE', ( #270, #243, #33, #63 ) ) ;
#225 = ADVANCED_FACE ( 'NONE', ( #79 ), #306, .T. ) ;
#226 = EDGE_CURVE ( 'NONE', #316, #194, #302, .T. ) ;
#227 = MECHANICAL_DESIGN_GEOMETRIC_PRESENTATION_REPRESENTATION (  '', ( #98 ), #204 ) ;
#228 = AXIS2_PLACEMENT_3D ( 'NONE', #162, #245, #186 ) ;
#229 = DIRECTION ( 'NONE',  ( -1.000000000000000000, 0.0000000000000000000, 0.0000000000000000000 ) ) ;
#230 = FACE_OUTER_BOUND ( 'NONE', #289, .T. ) ;
#231 = CIRCLE ( 'NONE', #27, 0.09375000000000001388 ) ;
#232 = AXIS2_PLACEMENT_3D ( 'NONE', #238, #8, #163 ) ;
#233 = DIRECTION ( 'NONE',  ( 0.0000000000000000000, 0.0000000000000000000, 1.000000000000000000 ) ) ;
#234 = ORIENTED_EDGE ( 'NONE', *, *, #126, .F. ) ;
#235 = DIRECTION ( 'NONE',  ( -0.0000000000000000000, -0.0000000000000000000, -1.000000000000000000 ) ) ;
#236 = EDGE_LOOP ( 'NONE', ( #90, #40, #164 ) ) ;
#237 = ADVANCED_FACE ( 'NONE', ( #29 ), #293, .T. ) ;
#238 = CARTESIAN_POINT ( 'NONE',  ( 6.894761479199598081E-17, 0.0000000000000000000, 0.5629999999999999449 ) ) ;
#239 = VERTEX_POINT ( 'NONE', #210 ) ;
#240 = CIRCLE ( 'NONE', #4, 0.07802190000000000514 ) ;
#241 = LINE ( 'NONE', #26, #222 ) ;
#242 = FACE_OUTER_BOUND ( 'NONE', #224, .T. ) ;
#243 = ORIENTED_EDGE ( 'NONE', *, *, #199, .T. ) ;
#244 = DIRECTION ( 'NONE',  ( -1.224646799147353207E-16, -0.0000000000000000000, -1.000000000000000000 ) ) ;
#245 = DIRECTION ( 'NONE',  ( 0.0000000000000000000, 0.0000000000000000000, 1.000000000000000000 ) ) ;
#246 = SURFACE_STYLE_FILL_AREA ( #110 ) ;
#247 = EDGE_CURVE ( 'NONE', #194, #316, #240, .T. ) ;
#248 = ORIENTED_EDGE ( 'NONE', *, *, #268, .F. ) ;
#249 = AXIS2_PLACEMENT_3D ( 'NONE', #185, #217, #34 ) ;
#250 = AXIS2_PLACEMENT_3D ( 'NONE', #136, #169, #221 ) ;
#251 = ADVANCED_BREP_SHAPE_REPRESENTATION ( 'Micro_BEM-156-03', ( #318, #69 ), #274 ) ;
#252 = LENGTH_MEASURE_WITH_UNIT ( LENGTH_MEASURE( 0.02539999999999999897 ), #254 );
#253 = VECTOR ( 'NONE', #244, 39.37007874015748143 ) ;
#254 =( LENGTH_UNIT ( ) NAMED_UNIT ( * ) SI_UNIT ( $, .METRE. ) );
#255 = EDGE_CURVE ( 'NONE', #263, #239, #201, .T. ) ;
#256 = DIRECTION ( 'NONE',  ( 1.000000000000000000, 0.0000000000000000000, 0.0000000000000000000 ) ) ;
#257 = AXIS2_PLACEMENT_3D ( 'NONE', #106, #11, #86 ) ;
#258 = CARTESIAN_POINT ( 'NONE',  ( 0.07802190000000000514, 9.554927009839488851E-18, -9.554927009839488851E-18 ) ) ;
#259 = CARTESIAN_POINT ( 'NONE',  ( 9.554927009839488851E-18, 0.0000000000000000000, 0.07802190000000000514 ) ) ;
#260 = CARTESIAN_POINT ( 'NONE',  ( -0.09374999999999991673, 0.0000000000000000000, 0.6521984875871288390 ) ) ;
#261 = EDGE_LOOP ( 'NONE', ( #132, #147 ) ) ;
#262 = DIRECTION ( 'NONE',  ( -1.224646799147353207E-16, -0.0000000000000000000, -1.000000000000000000 ) ) ;
#263 = VERTEX_POINT ( 'NONE', #97 ) ;
#264 = DIRECTION ( 'NONE',  ( 1.000000000000000000, 0.0000000000000000000, 0.0000000000000000000 ) ) ;
#265 = DIRECTION ( 'NONE',  ( 1.000000000000000000, 0.0000000000000000000, 0.0000000000000000000 ) ) ;
#266 = EDGE_LOOP ( 'NONE', ( #139, #65, #248, #91 ) ) ;
#267 = SURFACE_SIDE_STYLE ('',( #246 ) ) ;
#268 = EDGE_CURVE ( 'NONE', #35, #287, #96, .T. ) ;
#269 = VERTEX_POINT ( 'NONE', #64 ) ;
#270 = ORIENTED_EDGE ( 'NONE', *, *, #187, .F. ) ;
#271 = STYLED_ITEM ( 'NONE', ( #191 ), #251 ) ;
#272 = DIMENSIONAL_EXPONENTS ( 1.000000000000000000, 0.0000000000000000000, 0.0000000000000000000, 0.0000000000000000000, 0.0000000000000000000, 0.0000000000000000000, 0.0000000000000000000 ) ;
#273 =( NAMED_UNIT ( * ) PLANE_ANGLE_UNIT ( ) SI_UNIT ( $, .RADIAN. ) );
#274 =( GEOMETRIC_REPRESENTATION_CONTEXT ( 3 ) GLOBAL_UNCERTAINTY_ASSIGNED_CONTEXT ( ( #282 ) ) GLOBAL_UNIT_ASSIGNED_CONTEXT ( ( #170, #273, #165 ) ) REPRESENTATION_CONTEXT ( 'NONE', 'WORKASPACE' ) );
#275 = EDGE_CURVE ( 'NONE', #313, #58, #212, .T. ) ;
#276 = CLOSED_SHELL ( 'NONE', ( #74, #49, #66, #122, #225, #6, #2, #55, #237, #70, #173 ) ) ;
#277 = CONICAL_SURFACE ( 'NONE', #131, 0.07874999999999980627, 0.7853981633974466137 ) ;
#278 = AXIS2_PLACEMENT_3D ( 'NONE', #155, #233, #5 ) ;
#279 = DIRECTION ( 'NONE',  ( 1.224646799147353207E-16, 0.0000000000000000000, 1.000000000000000000 ) ) ;
#280 = ORIENTED_EDGE ( 'NONE', *, *, #117, .F. ) ;
#281 = FACE_OUTER_BOUND ( 'NONE', #236, .T. ) ;
#282 = UNCERTAINTY_MEASURE_WITH_UNIT (LENGTH_MEASURE( 1.000000000000000082E-05 ), #170, 'distance_accuracy_value', 'NONE');
#283 = DIRECTION ( 'NONE',  ( -0.0000000000000000000, -0.0000000000000000000, -1.000000000000000000 ) ) ;
#284 = ORIENTED_EDGE ( 'NONE', *, *, #207, .F. ) ;
#285 = CARTESIAN_POINT ( 'NONE',  ( 0.07802190000000007453, 0.0000000000000000000, 0.5629999999999999449 ) ) ;
#286 = DIRECTION ( 'NONE',  ( -1.000000000000000000, 0.0000000000000000000, 1.224646799147353207E-16 ) ) ;
#287 = VERTEX_POINT ( 'NONE', #43 ) ;
#288 = LINE ( 'NONE', #59, #192 ) ;
#289 = EDGE_LOOP ( 'NONE', ( #109, #188, #85, #14 ) ) ;
#290 = CARTESIAN_POINT ( 'NONE',  ( 0.0000000000000000000, 0.0000000000000000000, 2.000000000000000000 ) ) ;
#291 = ORIENTED_EDGE ( 'NONE', *, *, #268, .T. ) ;
#292 = VECTOR ( 'NONE', #304, 39.37007874015748143 ) ;
#293 = CONICAL_SURFACE ( 'NONE', #24, 0.07802190000000000514, 0.1745329251994338082 ) ;
#294 = APPLICATION_PROTOCOL_DEFINITION ( 'draft international standard', 'automotive_design', 1998, #174 ) ;
#295 = CARTESIAN_POINT ( 'NONE',  ( 9.554927009839488851E-18, 0.0000000000000000000, 0.07802190000000000514 ) ) ;
#296 = EDGE_LOOP ( 'NONE', ( #280, #284, #129, #181 ) ) ;
#297 = ORIENTED_EDGE ( 'NONE', *, *, #94, .F. ) ;
#298 = LENGTH_MEASURE_WITH_UNIT ( LENGTH_MEASURE( 0.02539999999999999897 ), #198 );
#299 = CARTESIAN_POINT ( 'NONE',  ( 6.894761479199598081E-17, 0.0000000000000000000, 0.5629999999999999449 ) ) ;
#300 = DIRECTION ( 'NONE',  ( 0.0000000000000000000, 0.0000000000000000000, 1.000000000000000000 ) ) ;
#301 = CIRCLE ( 'NONE', #249, 0.09375000000000001388 ) ;
#302 = CIRCLE ( 'NONE', #123, 0.07802190000000000514 ) ;
#303 = CARTESIAN_POINT ( 'NONE',  ( 1.433239051475923482E-17, 0.0000000000000000000, 0.0000000000000000000 ) ) ;
#304 = DIRECTION ( 'NONE',  ( 0.1736481776669313026, 0.0000000000000000000, 0.9848077530122077983 ) ) ;
#305 = ORIENTED_EDGE ( 'NONE', *, *, #323, .T. ) ;
#306 = CYLINDRICAL_SURFACE ( 'NONE', #62, 0.09375000000000001388 ) ;
#307 = FACE_OUTER_BOUND ( 'NONE', #310, .T. ) ;
#308 = CARTESIAN_POINT ( 'NONE',  ( 9.554927009839488851E-18, 0.0000000000000000000, 0.07802190000000000514 ) ) ;
#309 = CARTESIAN_POINT ( 'NONE',  ( -0.09375000000000001388, 0.0000000000000000000, 2.000000000000000000 ) ) ;
#310 = EDGE_LOOP ( 'NONE', ( #114, #190, #87 ) ) ;
#311 = CARTESIAN_POINT ( 'NONE',  ( 7.987127902323220081E-17, 0.0000000000000000000, 0.6521984875871288390 ) ) ;
#312 = DIRECTION ( 'NONE',  ( -1.000000000000000000, 0.0000000000000000000, 0.0000000000000000000 ) ) ;
#313 = VERTEX_POINT ( 'NONE', #93 ) ;
#314 = DIRECTION ( 'NONE',  ( -0.0000000000000000000, -0.0000000000000000000, -1.000000000000000000 ) ) ;
#315 = CYLINDRICAL_SURFACE ( 'NONE', #19, 0.09375000000000001388 ) ;
#316 = VERTEX_POINT ( 'NONE', #92 ) ;
#317 = SURFACE_SIDE_STYLE ('',( #13 ) ) ;
#318 = MANIFOLD_SOLID_BREP ( 'Fillet1', #276 ) ;
#319 = CONICAL_SURFACE ( 'NONE', #39, 0.07874999999999980627, 0.7853981633974466137 ) ;
#320 = AXIS2_PLACEMENT_3D ( 'NONE', #42, #197, #18 ) ;
#321 = DIRECTION ( 'NONE',  ( -1.224646799147353207E-16, -0.0000000000000000000, -1.000000000000000000 ) ) ;
#322 = ORIENTED_EDGE ( 'NONE', *, *, #151, .F. ) ;
#323 = EDGE_CURVE ( 'NONE', #239, #263, #16, .T. ) ;
#324 =( LENGTH_UNIT ( ) NAMED_UNIT ( * ) SI_UNIT ( $, .METRE. ) );
#325 = CARTESIAN_POINT ( 'NONE',  ( 0.0000000000000000000, 0.0000000000000000000, 0.0000000000000000000 ) ) ;
ENDSEC;
END-ISO-10303-21;
