ISO-10303-21;
HEADER;
FILE_DESCRIPTION (( 'STEP AP214' ),
    '1' );
FILE_NAME ('Micro_SME-040-2.STEP',
    '2021-09-02T11:53:32',
    ( '' ),
    ( '' ),
    'SwSTEP 2.0',
    'SolidWorks 2020',
    '' );
FILE_SCHEMA (( 'AUTOMOTIVE_DESIGN' ));
ENDSEC;

DATA;
#1 = ORIENTED_EDGE ( 'NONE', *, *, #166, .T. ) ;
#2 = ORIENTED_EDGE ( 'NONE', *, *, #12, .F. ) ;
#3 = ORIENTED_EDGE ( 'NONE', *, *, #224, .F. ) ;
#4 = ORIENTED_EDGE ( 'NONE', *, *, #88, .F. ) ;
#5 = DIRECTION ( 'NONE',  ( 0.0000000000000000000, 0.0000000000000000000, 1.000000000000000000 ) ) ;
#6 = DIRECTION ( 'NONE',  ( -1.224646799147353700E-16, -0.0000000000000000000, -1.000000000000000000 ) ) ;
#7 = EDGE_CURVE ( 'NONE', #249, #230, #85, .T. ) ;
#8 = CARTESIAN_POINT ( 'NONE',  ( -0.01998000000000000123, 0.0000000000000000000, 4.893688609392825306E-18 ) ) ;
#9 = CARTESIAN_POINT ( 'NONE',  ( 0.0000000000000000000, 0.0000000000000000000, 1.500000000000000222 ) ) ;
#10 = CYLINDRICAL_SURFACE ( 'NONE', #273, 0.06250000000000002776 ) ;
#11 = AXIS2_PLACEMENT_3D ( 'NONE', #13, #86, #128 ) ;
#12 = EDGE_CURVE ( 'NONE', #230, #249, #213, .T. ) ;
#13 = CARTESIAN_POINT ( 'NONE',  ( 0.0000000000000000000, 0.0000000000000000000, 1.500000000000000222 ) ) ;
#14 = VECTOR ( 'NONE', #145, 39.37007874015748854 ) ;
#15 = UNCERTAINTY_MEASURE_WITH_UNIT (LENGTH_MEASURE( 1.000000000000000082E-05 ), #83, 'distance_accuracy_value', 'NONE');
#16 = CYLINDRICAL_SURFACE ( 'NONE', #221, 0.01998000000000000123 ) ;
#17 = PRESENTATION_STYLE_ASSIGNMENT (( #60 ) ) ;
#18 = EDGE_CURVE ( 'NONE', #163, #158, #164, .T. ) ;
#19 = VECTOR ( 'NONE', #155, 39.37007874015747433 ) ;
#20 = UNCERTAINTY_MEASURE_WITH_UNIT (LENGTH_MEASURE( 1.000000000000000082E-05 ), #24, 'distance_accuracy_value', 'NONE');
#21 = AXIS2_PLACEMENT_3D ( 'NONE', #119, #247, #282 ) ;
#22 =( NAMED_UNIT ( * ) PLANE_ANGLE_UNIT ( ) SI_UNIT ( $, .RADIAN. ) );
#23 = FACE_OUTER_BOUND ( 'NONE', #227, .T. ) ;
#24 =( CONVERSION_BASED_UNIT ( 'INCH', #225 ) LENGTH_UNIT ( ) NAMED_UNIT ( #272 ) );
#25 = EDGE_LOOP ( 'NONE', ( #184, #206, #276, #78 ) ) ;
#26 = EDGE_LOOP ( 'NONE', ( #172, #73, #96, #146 ) ) ;
#27 = DIRECTION ( 'NONE',  ( 1.000000000000000000, 0.0000000000000000000, 0.0000000000000000000 ) ) ;
#28 = ORIENTED_EDGE ( 'NONE', *, *, #18, .T. ) ;
#29 = ADVANCED_FACE ( 'NONE', ( #23 ), #253, .T. ) ;
#30 = DIRECTION ( 'NONE',  ( -1.224646799147353700E-16, -0.0000000000000000000, -1.000000000000000000 ) ) ;
#31 = FACE_OUTER_BOUND ( 'NONE', #25, .T. ) ;
#32 = DIRECTION ( 'NONE',  ( 1.224646799147353700E-16, 0.0000000000000000000, 1.000000000000000000 ) ) ;
#33 = CARTESIAN_POINT ( 'NONE',  ( 0.01998000000000001511, 0.0000000000000000000, 0.05999999999999999778 ) ) ;
#34 = CIRCLE ( 'NONE', #133, 0.01998000000000000123 ) ;
#35 = PLANE ( 'NONE',  #248 ) ;
#36 = AXIS2_PLACEMENT_3D ( 'NONE', #274, #294, #265 ) ;
#37 = CARTESIAN_POINT ( 'NONE',  ( -0.06249999999999999306, 0.0000000000000000000, 0.3011429029701437887 ) ) ;
#38 = COLOUR_RGB ( '',0.7921568627450980005, 0.8196078431372548767, 0.9333333333333333481 ) ;
#39 = CARTESIAN_POINT ( 'NONE',  ( 0.01998000000000000123, 2.446844304696411883E-18, -2.446844304696412653E-18 ) ) ;
#40 = ORIENTED_EDGE ( 'NONE', *, *, #161, .T. ) ;
#41 = VECTOR ( 'NONE', #212, 39.37007874015748143 ) ;
#42 = SURFACE_STYLE_USAGE ( .BOTH. , #44 ) ;
#43 = ORIENTED_EDGE ( 'NONE', *, *, #228, .T. ) ;
#44 = SURFACE_SIDE_STYLE ('',( #222 ) ) ;
#45 = SHAPE_DEFINITION_REPRESENTATION ( #108, #255 ) ;
#46 = CARTESIAN_POINT ( 'NONE',  ( 3.687936922083287373E-17, 0.0000000000000000000, 0.3011429029701437887 ) ) ;
#47 = EDGE_CURVE ( 'NONE', #136, #163, #53, .T. ) ;
#48 = DIRECTION ( 'NONE',  ( -1.224646799147353700E-16, -0.0000000000000000000, -1.000000000000000000 ) ) ;
#49 = CARTESIAN_POINT ( 'NONE',  ( 0.0000000000000000000, 0.0000000000000000000, 1.500000000000000222 ) ) ;
#50 = AXIS2_PLACEMENT_3D ( 'NONE', #174, #130, #178 ) ;
#51 = DIRECTION ( 'NONE',  ( 1.224646799147353700E-16, 0.0000000000000000000, 1.000000000000000000 ) ) ;
#52 = PRODUCT_RELATED_PRODUCT_CATEGORY ( 'part', '', ( #291 ) ) ;
#53 = CIRCLE ( 'NONE', #232, 0.01998000000000000470 ) ;
#54 = CARTESIAN_POINT ( 'NONE',  ( 7.347880794884121462E-18, 0.0000000000000000000, 0.05999999999999999778 ) ) ;
#55 = DIRECTION ( 'NONE',  ( -1.000000000000000000, 0.0000000000000000000, 1.224646799147353700E-16 ) ) ;
#56 = VECTOR ( 'NONE', #105, 39.37007874015748143 ) ;
#57 = DIRECTION ( 'NONE',  ( -0.0000000000000000000, -0.0000000000000000000, -1.000000000000000000 ) ) ;
#58 = ADVANCED_FACE ( 'NONE', ( #31 ), #266, .T. ) ;
#59 = DIRECTION ( 'NONE',  ( -1.224646799147353700E-16, -0.0000000000000000000, -1.000000000000000000 ) ) ;
#60 = SURFACE_STYLE_USAGE ( .BOTH. , #131 ) ;
#61 = AXIS2_PLACEMENT_3D ( 'NONE', #234, #124, #236 ) ;
#62 = LINE ( 'NONE', #271, #19 ) ;
#63 = APPLICATION_CONTEXT ( 'automotive_design' ) ;
#64 = EDGE_LOOP ( 'NONE', ( #92, #202, #223, #278 ) ) ;
#65 =( GEOMETRIC_REPRESENTATION_CONTEXT ( 3 ) GLOBAL_UNCERTAINTY_ASSIGNED_CONTEXT ( ( #196 ) ) GLOBAL_UNIT_ASSIGNED_CONTEXT ( ( #281, #22, #112 ) ) REPRESENTATION_CONTEXT ( 'NONE', 'WORKASPACE' ) );
#66 = CARTESIAN_POINT ( 'NONE',  ( 0.0000000000000000000, 0.0000000000000000000, 0.0000000000000000000 ) ) ;
#67 = ADVANCED_FACE ( 'NONE', ( #143 ), #125, .F. ) ;
#68 = ORIENTED_EDGE ( 'NONE', *, *, #269, .F. ) ;
#69 = AXIS2_PLACEMENT_3D ( 'NONE', #46, #48, #27 ) ;
#70 = VERTEX_POINT ( 'NONE', #189 ) ;
#71 = PRODUCT_CONTEXT ( 'NONE', #298, 'mechanical' ) ;
#72 = VERTEX_POINT ( 'NONE', #286 ) ;
#73 = ORIENTED_EDGE ( 'NONE', *, *, #47, .F. ) ;
#74 = FACE_OUTER_BOUND ( 'NONE', #26, .T. ) ;
#75 = DIRECTION ( 'NONE',  ( 1.000000000000000000, 0.0000000000000000000, 0.0000000000000000000 ) ) ;
#76 = CIRCLE ( 'NONE', #218, 0.01998000000000000123 ) ;
#77 = CARTESIAN_POINT ( 'NONE',  ( 0.0000000000000000000, 0.0000000000000000000, 1.500000000000000222 ) ) ;
#78 = ORIENTED_EDGE ( 'NONE', *, *, #111, .F. ) ;
#79 = CARTESIAN_POINT ( 'NONE',  ( 2.996520045758394024E-34, 0.0000000000000000000, 2.446844304696412653E-18 ) ) ;
#80 = ADVANCED_FACE ( 'NONE', ( #74 ), #150, .T. ) ;
#81 = LENGTH_MEASURE_WITH_UNIT ( LENGTH_MEASURE( 0.02539999999999999897 ), #238 );
#82 = AXIS2_PLACEMENT_3D ( 'NONE', #233, #123, #99 ) ;
#83 =( CONVERSION_BASED_UNIT ( 'INCH', #81 ) LENGTH_UNIT ( ) NAMED_UNIT ( #242 ) );
#84 = DIRECTION ( 'NONE',  ( -1.000000000000000000, 0.0000000000000000000, 1.224646799147353700E-16 ) ) ;
#85 = CIRCLE ( 'NONE', #69, 0.06250000000000002776 ) ;
#86 = DIRECTION ( 'NONE',  ( -0.0000000000000000000, -0.0000000000000000000, -1.000000000000000000 ) ) ;
#87 =( NAMED_UNIT ( * ) SI_UNIT ( $, .STERADIAN. ) SOLID_ANGLE_UNIT ( ) );
#88 = EDGE_CURVE ( 'NONE', #72, #158, #76, .T. ) ;
#89 =( NAMED_UNIT ( * ) PLANE_ANGLE_UNIT ( ) SI_UNIT ( $, .RADIAN. ) );
#90 = ORIENTED_EDGE ( 'NONE', *, *, #219, .T. ) ;
#91 =( NAMED_UNIT ( * ) SI_UNIT ( $, .STERADIAN. ) SOLID_ANGLE_UNIT ( ) );
#92 = ORIENTED_EDGE ( 'NONE', *, *, #228, .F. ) ;
#93 = VECTOR ( 'NONE', #142, 39.37007874015748143 ) ;
#94 = ORIENTED_EDGE ( 'NONE', *, *, #122, .T. ) ;
#95 = ORIENTED_EDGE ( 'NONE', *, *, #147, .F. ) ;
#96 = ORIENTED_EDGE ( 'NONE', *, *, #176, .T. ) ;
#97 = CARTESIAN_POINT ( 'NONE',  ( 0.01998000000000001511, 0.0000000000000000000, 0.05999999999999999778 ) ) ;
#98 = DIRECTION ( 'NONE',  ( 1.000000000000000000, 0.0000000000000000000, -0.0000000000000000000 ) ) ;
#99 = DIRECTION ( 'NONE',  ( -1.000000000000000000, 0.0000000000000000000, 0.0000000000000000000 ) ) ;
#100 = DIRECTION ( 'NONE',  ( 0.0000000000000000000, 0.0000000000000000000, 1.000000000000000000 ) ) ;
#101 = AXIS2_PLACEMENT_3D ( 'NONE', #154, #197, #84 ) ;
#102 = EDGE_CURVE ( 'NONE', #279, #138, #129, .T. ) ;
#103 = CARTESIAN_POINT ( 'NONE',  ( 0.06250000000000002776, 7.654042494670959086E-18, 1.500000000000000222 ) ) ;
#104 = AXIS2_PLACEMENT_3D ( 'NONE', #66, #114, #139 ) ;
#105 = DIRECTION ( 'NONE',  ( -0.0000000000000000000, -0.0000000000000000000, -1.000000000000000000 ) ) ;
#106 = PRODUCT_DEFINITION ( 'UNKNOWN', '', #245, #157 ) ;
#107 = LINE ( 'NONE', #109, #156 ) ;
#108 = PRODUCT_DEFINITION_SHAPE ( 'NONE', 'NONE',  #106 ) ;
#109 = CARTESIAN_POINT ( 'NONE',  ( 0.04750000000000064587, 5.817072295950006528E-18, 1.500000000000000222 ) ) ;
#110 = FILL_AREA_STYLE ('',( #159 ) ) ;
#111 = EDGE_CURVE ( 'NONE', #117, #279, #167, .T. ) ;
#112 =( NAMED_UNIT ( * ) SI_UNIT ( $, .STERADIAN. ) SOLID_ANGLE_UNIT ( ) );
#113 = DIRECTION ( 'NONE',  ( 0.0000000000000000000, 0.0000000000000000000, -1.000000000000000000 ) ) ;
#114 = DIRECTION ( 'NONE',  ( 0.0000000000000000000, 0.0000000000000000000, 1.000000000000000000 ) ) ;
#115 = ORIENTED_EDGE ( 'NONE', *, *, #147, .T. ) ;
#116 =( LENGTH_UNIT ( ) NAMED_UNIT ( * ) SI_UNIT ( $, .METRE. ) );
#117 = VERTEX_POINT ( 'NONE', #231 ) ;
#118 = AXIS2_PLACEMENT_3D ( 'NONE', #259, #287, #148 ) ;
#119 = CARTESIAN_POINT ( 'NONE',  ( 3.687936922083287373E-17, 0.0000000000000000000, 0.3011429029701437887 ) ) ;
#120 = CARTESIAN_POINT ( 'NONE',  ( 0.0000000000000000000, 0.0000000000000000000, 1.500000000000000222 ) ) ;
#121 = FACE_OUTER_BOUND ( 'NONE', #64, .T. ) ;
#122 = EDGE_CURVE ( 'NONE', #138, #279, #283, .T. ) ;
#123 = DIRECTION ( 'NONE',  ( 0.0000000000000000000, 0.0000000000000000000, -1.000000000000000000 ) ) ;
#124 = DIRECTION ( 'NONE',  ( 0.0000000000000000000, 0.0000000000000000000, -1.000000000000000000 ) ) ;
#125 = PLANE ( 'NONE',  #141 ) ;
#126 = AXIS2_PLACEMENT_3D ( 'NONE', #256, #32, #285 ) ;
#127 = FACE_OUTER_BOUND ( 'NONE', #162, .T. ) ;
#128 = DIRECTION ( 'NONE',  ( -1.000000000000000000, 0.0000000000000000000, 0.0000000000000000000 ) ) ;
#129 = CIRCLE ( 'NONE', #118, 0.06250000000000002776 ) ;
#130 = DIRECTION ( 'NONE',  ( 0.0000000000000000000, 0.0000000000000000000, 1.000000000000000000 ) ) ;
#131 = SURFACE_SIDE_STYLE ('',( #295 ) ) ;
#132 = DIRECTION ( 'NONE',  ( -1.000000000000000000, 0.0000000000000000000, 1.224646799147353700E-16 ) ) ;
#133 = AXIS2_PLACEMENT_3D ( 'NONE', #79, #261, #55 ) ;
#134 =( LENGTH_UNIT ( ) NAMED_UNIT ( * ) SI_UNIT ( $, .METRE. ) );
#135 = ORIENTED_EDGE ( 'NONE', *, *, #166, .F. ) ;
#136 = VERTEX_POINT ( 'NONE', #97 ) ;
#137 = LENGTH_MEASURE_WITH_UNIT ( LENGTH_MEASURE( 0.02539999999999999897 ), #134 );
#138 = VERTEX_POINT ( 'NONE', #188 ) ;
#139 = DIRECTION ( 'NONE',  ( 1.000000000000000000, 0.0000000000000000000, 0.0000000000000000000 ) ) ;
#140 = ORIENTED_EDGE ( 'NONE', *, *, #7, .F. ) ;
#141 = AXIS2_PLACEMENT_3D ( 'NONE', #210, #5, #98 ) ;
#142 = DIRECTION ( 'NONE',  ( -1.224646799147353700E-16, -0.0000000000000000000, -1.000000000000000000 ) ) ;
#143 = FACE_OUTER_BOUND ( 'NONE', #180, .T. ) ;
#144 = ADVANCED_FACE ( 'NONE', ( #121 ), #208, .T. ) ;
#145 = DIRECTION ( 'NONE',  ( -0.7071067811865462405, 0.0000000000000000000, -0.7071067811865486830 ) ) ;
#146 = ORIENTED_EDGE ( 'NONE', *, *, #12, .T. ) ;
#147 = EDGE_CURVE ( 'NONE', #138, #230, #211, .T. ) ;
#148 = DIRECTION ( 'NONE',  ( 1.000000000000000000, 0.0000000000000000000, 0.0000000000000000000 ) ) ;
#149 = CARTESIAN_POINT ( 'NONE',  ( -0.04750000000000064587, 0.0000000000000000000, 1.500000000000000222 ) ) ;
#150 = CONICAL_SURFACE ( 'NONE', #175, 0.01998000000000000470, 0.1745329251994338915 ) ;
#151 = LINE ( 'NONE', #220, #56 ) ;
#152 = STYLED_ITEM ( 'NONE', ( #17 ), #201 ) ;
#153 = FILL_AREA_STYLE_COLOUR ( '', #38 ) ;
#154 = CARTESIAN_POINT ( 'NONE',  ( 0.0000000000000000000, 0.0000000000000000000, 0.0000000000000000000 ) ) ;
#155 = DIRECTION ( 'NONE',  ( -0.1736481776669311916, 2.126576849575783316E-17, 0.9848077530122080203 ) ) ;
#156 = VECTOR ( 'NONE', #195, 39.37007874015748854 ) ;
#157 = PRODUCT_DEFINITION_CONTEXT ( 'detailed design', #63, 'design' ) ;
#158 = VERTEX_POINT ( 'NONE', #8 ) ;
#159 = FILL_AREA_STYLE_COLOUR ( '', #280 ) ;
#160 = ORIENTED_EDGE ( 'NONE', *, *, #219, .F. ) ;
#161 = EDGE_CURVE ( 'NONE', #70, #117, #186, .T. ) ;
#162 = EDGE_LOOP ( 'NONE', ( #199, #40 ) ) ;
#163 = VERTEX_POINT ( 'NONE', #290 ) ;
#164 = LINE ( 'NONE', #254, #93 ) ;
#165 = AXIS2_PLACEMENT_3D ( 'NONE', #77, #171, #235 ) ;
#166 = EDGE_CURVE ( 'NONE', #158, #72, #34, .T. ) ;
#167 = LINE ( 'NONE', #149, #14 ) ;
#168 = CARTESIAN_POINT ( 'NONE',  ( 7.347880794884121462E-18, 0.0000000000000000000, 0.05999999999999999778 ) ) ;
#169 = PRESENTATION_LAYER_ASSIGNMENT (  '', '', ( #258 ) ) ;
#170 = DIRECTION ( 'NONE',  ( -1.000000000000000000, 0.0000000000000000000, 1.224646799147353700E-16 ) ) ;
#171 = DIRECTION ( 'NONE',  ( 0.0000000000000000000, 0.0000000000000000000, 1.000000000000000000 ) ) ;
#172 = ORIENTED_EDGE ( 'NONE', *, *, #275, .F. ) ;
#173 = CARTESIAN_POINT ( 'NONE',  ( 2.996520045758394024E-34, 0.0000000000000000000, 2.446844304696412653E-18 ) ) ;
#174 = CARTESIAN_POINT ( 'NONE',  ( 0.0000000000000000000, 0.0000000000000000000, 1.500000000000000222 ) ) ;
#175 = AXIS2_PLACEMENT_3D ( 'NONE', #168, #51, #75 ) ;
#176 = EDGE_CURVE ( 'NONE', #136, #230, #214, .T. ) ;
#177 = CARTESIAN_POINT ( 'NONE',  ( -0.06250000000000002776, 0.0000000000000000000, 1.485000000000000764 ) ) ;
#178 = DIRECTION ( 'NONE',  ( 1.000000000000000000, 0.0000000000000000000, 0.0000000000000000000 ) ) ;
#179 = LINE ( 'NONE', #39, #244 ) ;
#180 = EDGE_LOOP ( 'NONE', ( #1, #187 ) ) ;
#181 = EDGE_LOOP ( 'NONE', ( #289, #115, #140, #68 ) ) ;
#182 = EDGE_LOOP ( 'NONE', ( #43, #90, #135, #277 ) ) ;
#183 = CIRCLE ( 'NONE', #36, 0.01998000000000000470 ) ;
#184 = ORIENTED_EDGE ( 'NONE', *, *, #161, .F. ) ;
#185 = ADVANCED_FACE ( 'NONE', ( #127 ), #35, .T. ) ;
#186 = CIRCLE ( 'NONE', #165, 0.04750000000000064587 ) ;
#187 = ORIENTED_EDGE ( 'NONE', *, *, #88, .T. ) ;
#188 = CARTESIAN_POINT ( 'NONE',  ( 0.06250000000000002776, 7.654042494670959086E-18, 1.485000000000000764 ) ) ;
#189 = CARTESIAN_POINT ( 'NONE',  ( 0.04750000000000064587, 6.735557395310483192E-18, 1.500000000000000222 ) ) ;
#190 = CIRCLE ( 'NONE', #50, 0.04750000000000064587 ) ;
#191 = DIRECTION ( 'NONE',  ( -1.000000000000000000, 0.0000000000000000000, 0.0000000000000000000 ) ) ;
#192 = DIRECTION ( 'NONE',  ( 1.000000000000000000, 0.0000000000000000000, -0.0000000000000000000 ) ) ;
#193 = ADVANCED_FACE ( 'NONE', ( #264 ), #10, .T. ) ;
#194 = FACE_OUTER_BOUND ( 'NONE', #181, .T. ) ;
#195 = DIRECTION ( 'NONE',  ( 0.7071067811865462405, 8.659560562354916834E-17, -0.7071067811865486830 ) ) ;
#196 = UNCERTAINTY_MEASURE_WITH_UNIT (LENGTH_MEASURE( 1.000000000000000082E-05 ), #281, 'distance_accuracy_value', 'NONE');
#197 = DIRECTION ( 'NONE',  ( -1.224646799147353700E-16, -0.0000000000000000000, -1.000000000000000000 ) ) ;
#198 = ADVANCED_FACE ( 'NONE', ( #217 ), #292, .T. ) ;
#199 = ORIENTED_EDGE ( 'NONE', *, *, #263, .T. ) ;
#200 = EDGE_LOOP ( 'NONE', ( #160, #226, #28, #4 ) ) ;
#201 = MANIFOLD_SOLID_BREP ( 'Cut-Revolve1', #257 ) ;
#202 = ORIENTED_EDGE ( 'NONE', *, *, #275, .T. ) ;
#203 = ORIENTED_EDGE ( 'NONE', *, *, #122, .F. ) ;
#204 = MECHANICAL_DESIGN_GEOMETRIC_PRESENTATION_REPRESENTATION (  '', ( #152 ), #216 ) ;
#205 = PRESENTATION_STYLE_ASSIGNMENT (( #42 ) ) ;
#206 = ORIENTED_EDGE ( 'NONE', *, *, #224, .T. ) ;
#207 = ORIENTED_EDGE ( 'NONE', *, *, #269, .T. ) ;
#208 = CONICAL_SURFACE ( 'NONE', #126, 0.01998000000000000470, 0.1745329251994338915 ) ;
#209 = DIRECTION ( 'NONE',  ( -0.0000000000000000000, -0.0000000000000000000, -1.000000000000000000 ) ) ;
#210 = CARTESIAN_POINT ( 'NONE',  ( 0.0000000000000000000, 0.0000000000000000000, 0.0000000000000000000 ) ) ;
#211 = LINE ( 'NONE', #103, #297 ) ;
#212 = DIRECTION ( 'NONE',  ( 0.1736481776669313859, 0.0000000000000000000, 0.9848077530122077983 ) ) ;
#213 = CIRCLE ( 'NONE', #21, 0.06250000000000002776 ) ;
#214 = LINE ( 'NONE', #33, #41 ) ;
#215 = ADVANCED_FACE ( 'NONE', ( #194 ), #240, .T. ) ;
#216 =( GEOMETRIC_REPRESENTATION_CONTEXT ( 3 ) GLOBAL_UNCERTAINTY_ASSIGNED_CONTEXT ( ( #15 ) ) GLOBAL_UNIT_ASSIGNED_CONTEXT ( ( #83, #270, #87 ) ) REPRESENTATION_CONTEXT ( 'NONE', 'WORKASPACE' ) );
#217 = FACE_OUTER_BOUND ( 'NONE', #182, .T. ) ;
#218 = AXIS2_PLACEMENT_3D ( 'NONE', #173, #30, #170 ) ;
#219 = EDGE_CURVE ( 'NONE', #136, #72, #179, .T. ) ;
#220 = CARTESIAN_POINT ( 'NONE',  ( -0.06250000000000002776, 0.0000000000000000000, 1.500000000000000222 ) ) ;
#221 = AXIS2_PLACEMENT_3D ( 'NONE', #268, #243, #132 ) ;
#222 = SURFACE_STYLE_FILL_AREA ( #110 ) ;
#223 = ORIENTED_EDGE ( 'NONE', *, *, #7, .T. ) ;
#224 = EDGE_CURVE ( 'NONE', #70, #138, #107, .T. ) ;
#225 = LENGTH_MEASURE_WITH_UNIT ( LENGTH_MEASURE( 0.02539999999999999897 ), #116 );
#226 = ORIENTED_EDGE ( 'NONE', *, *, #47, .T. ) ;
#227 = EDGE_LOOP ( 'NONE', ( #3, #262, #229, #203 ) ) ;
#228 = EDGE_CURVE ( 'NONE', #163, #136, #183, .T. ) ;
#229 = ORIENTED_EDGE ( 'NONE', *, *, #111, .T. ) ;
#230 = VERTEX_POINT ( 'NONE', #293 ) ;
#231 = CARTESIAN_POINT ( 'NONE',  ( -0.04750000000000064587, 0.0000000000000000000, 1.500000000000000222 ) ) ;
#232 = AXIS2_PLACEMENT_3D ( 'NONE', #54, #6, #191 ) ;
#233 = CARTESIAN_POINT ( 'NONE',  ( 0.0000000000000000000, 0.0000000000000000000, 1.500000000000000222 ) ) ;
#234 = CARTESIAN_POINT ( 'NONE',  ( 0.0000000000000000000, 0.0000000000000000000, 1.485000000000000764 ) ) ;
#235 = DIRECTION ( 'NONE',  ( 1.000000000000000000, 0.0000000000000000000, 0.0000000000000000000 ) ) ;
#236 = DIRECTION ( 'NONE',  ( 1.000000000000000000, 0.0000000000000000000, 0.0000000000000000000 ) ) ;
#237 = FACE_OUTER_BOUND ( 'NONE', #200, .T. ) ;
#238 =( LENGTH_UNIT ( ) NAMED_UNIT ( * ) SI_UNIT ( $, .METRE. ) );
#239 =( GEOMETRIC_REPRESENTATION_CONTEXT ( 3 ) GLOBAL_UNCERTAINTY_ASSIGNED_CONTEXT ( ( #20 ) ) GLOBAL_UNIT_ASSIGNED_CONTEXT ( ( #24, #89, #91 ) ) REPRESENTATION_CONTEXT ( 'NONE', 'WORKASPACE' ) );
#240 = CYLINDRICAL_SURFACE ( 'NONE', #11, 0.06250000000000002776 ) ;
#241 = AXIS2_PLACEMENT_3D ( 'NONE', #120, #113, #299 ) ;
#242 = DIMENSIONAL_EXPONENTS ( 1.000000000000000000, 0.0000000000000000000, 0.0000000000000000000, 0.0000000000000000000, 0.0000000000000000000, 0.0000000000000000000, 0.0000000000000000000 ) ;
#243 = DIRECTION ( 'NONE',  ( -1.224646799147353700E-16, -0.0000000000000000000, -1.000000000000000000 ) ) ;
#244 = VECTOR ( 'NONE', #59, 39.37007874015748143 ) ;
#245 = PRODUCT_DEFINITION_FORMATION_WITH_SPECIFIED_SOURCE ( 'ANY', '', #291, .NOT_KNOWN. ) ;
#246 = APPLICATION_PROTOCOL_DEFINITION ( 'draft international standard', 'automotive_design', 1998, #63 ) ;
#247 = DIRECTION ( 'NONE',  ( -1.224646799147353700E-16, -0.0000000000000000000, -1.000000000000000000 ) ) ;
#248 = AXIS2_PLACEMENT_3D ( 'NONE', #9, #100, #192 ) ;
#249 = VERTEX_POINT ( 'NONE', #37 ) ;
#250 = APPLICATION_PROTOCOL_DEFINITION ( 'draft international standard', 'automotive_design', 1998, #298 ) ;
#251 = MECHANICAL_DESIGN_GEOMETRIC_PRESENTATION_REPRESENTATION (  '', ( #258 ), #239 ) ;
#252 = EDGE_LOOP ( 'NONE', ( #95, #94, #207, #2 ) ) ;
#253 = CONICAL_SURFACE ( 'NONE', #241, 0.04750000000000064587, 0.7853981633974466137 ) ;
#254 = CARTESIAN_POINT ( 'NONE',  ( -0.01998000000000000123, 0.0000000000000000000, 2.446844304696412653E-18 ) ) ;
#255 = ADVANCED_BREP_SHAPE_REPRESENTATION ( 'Micro_SME-040-2', ( #201, #104 ), #65 ) ;
#256 = CARTESIAN_POINT ( 'NONE',  ( 7.347880794884121462E-18, 0.0000000000000000000, 0.05999999999999999778 ) ) ;
#257 = CLOSED_SHELL ( 'NONE', ( #198, #144, #58, #215, #193, #185, #29, #80, #288, #67 ) ) ;
#258 = STYLED_ITEM ( 'NONE', ( #205 ), #255 ) ;
#259 = CARTESIAN_POINT ( 'NONE',  ( 0.0000000000000000000, 0.0000000000000000000, 1.485000000000000764 ) ) ;
#260 = PRESENTATION_LAYER_ASSIGNMENT (  '', '', ( #152 ) ) ;
#261 = DIRECTION ( 'NONE',  ( -1.224646799147353700E-16, -0.0000000000000000000, -1.000000000000000000 ) ) ;
#262 = ORIENTED_EDGE ( 'NONE', *, *, #263, .F. ) ;
#263 = EDGE_CURVE ( 'NONE', #117, #70, #190, .T. ) ;
#264 = FACE_OUTER_BOUND ( 'NONE', #252, .T. ) ;
#265 = DIRECTION ( 'NONE',  ( -1.000000000000000000, 0.0000000000000000000, 0.0000000000000000000 ) ) ;
#266 = CONICAL_SURFACE ( 'NONE', #82, 0.04750000000000064587, 0.7853981633974466137 ) ;
#267 = DIMENSIONAL_EXPONENTS ( 1.000000000000000000, 0.0000000000000000000, 0.0000000000000000000, 0.0000000000000000000, 0.0000000000000000000, 0.0000000000000000000, 0.0000000000000000000 ) ;
#268 = CARTESIAN_POINT ( 'NONE',  ( 0.0000000000000000000, 0.0000000000000000000, 0.0000000000000000000 ) ) ;
#269 = EDGE_CURVE ( 'NONE', #279, #249, #151, .T. ) ;
#270 =( NAMED_UNIT ( * ) PLANE_ANGLE_UNIT ( ) SI_UNIT ( $, .RADIAN. ) );
#271 = CARTESIAN_POINT ( 'NONE',  ( -0.01997999999999999776, 2.446844304696412268E-18, 0.05999999999999999778 ) ) ;
#272 = DIMENSIONAL_EXPONENTS ( 1.000000000000000000, 0.0000000000000000000, 0.0000000000000000000, 0.0000000000000000000, 0.0000000000000000000, 0.0000000000000000000, 0.0000000000000000000 ) ;
#273 = AXIS2_PLACEMENT_3D ( 'NONE', #49, #57, #284 ) ;
#274 = CARTESIAN_POINT ( 'NONE',  ( 7.347880794884121462E-18, 0.0000000000000000000, 0.05999999999999999778 ) ) ;
#275 = EDGE_CURVE ( 'NONE', #163, #249, #62, .T. ) ;
#276 = ORIENTED_EDGE ( 'NONE', *, *, #102, .F. ) ;
#277 = ORIENTED_EDGE ( 'NONE', *, *, #18, .F. ) ;
#278 = ORIENTED_EDGE ( 'NONE', *, *, #176, .F. ) ;
#279 = VERTEX_POINT ( 'NONE', #177 ) ;
#280 = COLOUR_RGB ( '',0.7921568627450980005, 0.8196078431372548767, 0.9333333333333333481 ) ;
#281 =( CONVERSION_BASED_UNIT ( 'INCH', #137 ) LENGTH_UNIT ( ) NAMED_UNIT ( #267 ) );
#282 = DIRECTION ( 'NONE',  ( 1.000000000000000000, 0.0000000000000000000, 0.0000000000000000000 ) ) ;
#283 = CIRCLE ( 'NONE', #61, 0.06250000000000002776 ) ;
#284 = DIRECTION ( 'NONE',  ( -1.000000000000000000, 0.0000000000000000000, 0.0000000000000000000 ) ) ;
#285 = DIRECTION ( 'NONE',  ( 1.000000000000000000, 0.0000000000000000000, 0.0000000000000000000 ) ) ;
#286 = CARTESIAN_POINT ( 'NONE',  ( 0.01998000000000000123, 2.446844304696411883E-18, 0.0000000000000000000 ) ) ;
#287 = DIRECTION ( 'NONE',  ( 0.0000000000000000000, 0.0000000000000000000, -1.000000000000000000 ) ) ;
#288 = ADVANCED_FACE ( 'NONE', ( #237 ), #16, .T. ) ;
#289 = ORIENTED_EDGE ( 'NONE', *, *, #102, .T. ) ;
#290 = CARTESIAN_POINT ( 'NONE',  ( -0.01997999999999999776, 5.050443399683685677E-18, 0.05999999999999999778 ) ) ;
#291 = PRODUCT ( 'Micro_SME-040-2', 'Micro_SME-040-2', '', ( #71 ) ) ;
#292 = CYLINDRICAL_SURFACE ( 'NONE', #101, 0.01998000000000000123 ) ;
#293 = CARTESIAN_POINT ( 'NONE',  ( 0.06250000000000005551, 7.654042494670963708E-18, 0.3011429029701437887 ) ) ;
#294 = DIRECTION ( 'NONE',  ( -1.224646799147353700E-16, -0.0000000000000000000, -1.000000000000000000 ) ) ;
#295 = SURFACE_STYLE_FILL_AREA ( #296 ) ;
#296 = FILL_AREA_STYLE ('',( #153 ) ) ;
#297 = VECTOR ( 'NONE', #209, 39.37007874015748143 ) ;
#298 = APPLICATION_CONTEXT ( 'automotive_design' ) ;
#299 = DIRECTION ( 'NONE',  ( -1.000000000000000000, 0.0000000000000000000, 0.0000000000000000000 ) ) ;
ENDSEC;
END-ISO-10303-21;
