ISO-10303-21;
HEADER;
FILE_DESCRIPTION (( 'STEP AP214' ),
    '1' );
FILE_NAME ('83772.STEP',
    '2023-07-05T19:24:45',
    ( '' ),
    ( '' ),
    'SwSTEP 2.0',
    'SolidWorks 2023',
    '' );
FILE_SCHEMA (( 'AUTOMOTIVE_DESIGN' ));
ENDSEC;

DATA;
#1 = DIRECTION ( 'NONE',  ( 0.000000000000000000, 0.000000000000000000, -1.000000000000000000 ) ) ;
#2 = FILL_AREA_STYLE ('',( #320 ) ) ;
#3 = DIRECTION ( 'NONE',  ( -1.221419288799112129E-16, 1.000000000000000000, -0.000000000000000000 ) ) ;
#4 = EDGE_CURVE ( 'NONE', #10, #97, #128, .T. ) ;
#5 = FACE_OUTER_BOUND ( 'NONE', #49, .T. ) ;
#6 = LINE ( 'NONE', #117, #9 ) ;
#7 = VECTOR ( 'NONE', #85, 39.37007874015748143 ) ;
#8 = FILL_AREA_STYLE ('',( #260 ) ) ;
#9 = VECTOR ( 'NONE', #65, 39.37007874015748854 ) ;
#10 = VERTEX_POINT ( 'NONE', #139 ) ;
#11 = EDGE_CURVE ( 'NONE', #339, #108, #155, .T. ) ;
#12 = EDGE_LOOP ( 'NONE', ( #132, #314, #72, #242 ) ) ;
#13 = DIMENSIONAL_EXPONENTS ( 1.000000000000000000, 0.000000000000000000, 0.000000000000000000, 0.000000000000000000, 0.000000000000000000, 0.000000000000000000, 0.000000000000000000 ) ;
#14 = LINE ( 'NONE', #227, #305 ) ;
#15 = MECHANICAL_DESIGN_GEOMETRIC_PRESENTATION_REPRESENTATION (  '', ( #100 ), #315 ) ;
#16 = ORIENTED_EDGE ( 'NONE', *, *, #172, .F. ) ;
#17 = CYLINDRICAL_SURFACE ( 'NONE', #347, 0.09374999999999997224 ) ;
#18 = ORIENTED_EDGE ( 'NONE', *, *, #42, .F. ) ;
#19 =( NAMED_UNIT ( * ) SI_UNIT ( $, .STERADIAN. ) SOLID_ANGLE_UNIT ( ) );
#20 = ORIENTED_EDGE ( 'NONE', *, *, #109, .T. ) ;
#21 = ADVANCED_FACE ( 'NONE', ( #28 ), #168, .F. ) ;
#22 = DIRECTION ( 'NONE',  ( -0.000000000000000000, -1.000000000000000000, -0.000000000000000000 ) ) ;
#23 = CARTESIAN_POINT ( 'NONE',  ( -6.123233995736763571E-17, 2.000000000000000000, 0.000000000000000000 ) ) ;
#24 = SURFACE_SIDE_STYLE ('',( #56 ) ) ;
#25 = SURFACE_SIDE_STYLE ('',( #217 ) ) ;
#26 =( NAMED_UNIT ( * ) PLANE_ANGLE_UNIT ( ) SI_UNIT ( $, .RADIAN. ) );
#27 =( NAMED_UNIT ( * ) PLANE_ANGLE_UNIT ( ) SI_UNIT ( $, .RADIAN. ) );
#28 = FACE_OUTER_BOUND ( 'NONE', #180, .T. ) ;
#29 = PRESENTATION_STYLE_ASSIGNMENT (( #119 ) ) ;
#30 = UNCERTAINTY_MEASURE_WITH_UNIT (LENGTH_MEASURE( 1.000000000000000082E-05 ), #191, 'distance_accuracy_value', 'NONE');
#31 = DIRECTION ( 'NONE',  ( -1.221419288799112129E-16, 1.000000000000000000, -0.000000000000000000 ) ) ;
#32 = SURFACE_SIDE_STYLE ('',( #138 ) ) ;
#33 =( NAMED_UNIT ( * ) SI_UNIT ( $, .STERADIAN. ) SOLID_ANGLE_UNIT ( ) );
#34 = LENGTH_MEASURE_WITH_UNIT ( LENGTH_MEASURE( 0.02539999999999999897 ), #174 );
#35 = DIRECTION ( 'NONE',  ( 1.000000000000000000, 0.000000000000000000, 0.000000000000000000 ) ) ;
#36 = PRESENTATION_LAYER_ASSIGNMENT (  '', '', ( #192 ) ) ;
#37 = PRESENTATION_LAYER_ASSIGNMENT (  '', '', ( #228 ) ) ;
#38 = FILL_AREA_STYLE ('',( #304 ) ) ;
#39 = CONICAL_SURFACE ( 'NONE', #73, 68.19097667594041923, 1.047197551196600074 ) ;
#40 =( NAMED_UNIT ( * ) PLANE_ANGLE_UNIT ( ) SI_UNIT ( $, .RADIAN. ) );
#41 = CIRCLE ( 'NONE', #92, 0.09374999999999998612 ) ;
#42 = EDGE_CURVE ( 'NONE', #97, #183, #114, .T. ) ;
#43 = ORIENTED_EDGE ( 'NONE', *, *, #189, .T. ) ;
#44 = LENGTH_MEASURE_WITH_UNIT ( LENGTH_MEASURE( 0.02539999999999999897 ), #148 );
#45 = DIMENSIONAL_EXPONENTS ( 1.000000000000000000, 0.000000000000000000, 0.000000000000000000, 0.000000000000000000, 0.000000000000000000, 0.000000000000000000, 0.000000000000000000 ) ;
#46 = APPLICATION_CONTEXT ( 'automotive_design' ) ;
#47 = DIRECTION ( 'NONE',  ( 0.000000000000000000, -0.000000000000000000, 1.000000000000000000 ) ) ;
#48 = COLOUR_RGB ( '',1.000000000000000000, 0.000000000000000000, 0.000000000000000000 ) ;
#49 = EDGE_LOOP ( 'NONE', ( #106, #131 ) ) ;
#50 = AXIS2_PLACEMENT_3D ( 'NONE', #112, #195, #197 ) ;
#51 = MECHANICAL_DESIGN_GEOMETRIC_PRESENTATION_REPRESENTATION (  '', ( #266 ), #321 ) ;
#52 = CARTESIAN_POINT ( 'NONE',  ( 0.000000000000000000, 0.05412658773652713473, 0.000000000000000000 ) ) ;
#53 = DIRECTION ( 'NONE',  ( -1.000000000000000000, 0.000000000000000000, 0.000000000000000000 ) ) ;
#54 = LENGTH_MEASURE_WITH_UNIT ( LENGTH_MEASURE( 0.02539999999999999897 ), #280 );
#55 = COLOUR_RGB ( '',1.000000000000000000, 0.000000000000000000, 0.000000000000000000 ) ;
#56 = SURFACE_STYLE_FILL_AREA ( #343 ) ;
#57 = PRESENTATION_STYLE_ASSIGNMENT (( #89 ) ) ;
#58 =( NAMED_UNIT ( * ) SI_UNIT ( $, .STERADIAN. ) SOLID_ANGLE_UNIT ( ) );
#59 = MANIFOLD_SOLID_BREP ( 'Revolve - Cutting Edge', #209 ) ;
#60 = DIRECTION ( 'NONE',  ( -1.000000000000000000, 0.000000000000000000, 0.000000000000000000 ) ) ;
#61 = MANIFOLD_SOLID_BREP ( 'Revolve - Tool Body (Straight Shanked)', #95 ) ;
#62 = ADVANCED_FACE ( 'NONE', ( #193 ), #220, .T. ) ;
#63 = DIRECTION ( 'NONE',  ( 1.221419288799112129E-16, -1.000000000000000000, 0.000000000000000000 ) ) ;
#64 = SURFACE_SIDE_STYLE ('',( #284 ) ) ;
#65 = DIRECTION ( 'NONE',  ( 0.000000000000000000, 0.4999999999999979461, 0.8660254037844397068 ) ) ;
#66 = CARTESIAN_POINT ( 'NONE',  ( 0.000000000000000000, 0.6250000000000000000, -0.09374999999999998612 ) ) ;
#67 = COLOUR_RGB ( '',0.7921568627450980005, 0.8196078431372548767, 0.9333333333333333481 ) ;
#68 = DIRECTION ( 'NONE',  ( 1.060575238724908024E-16, 0.4999999999999979461, -0.8660254037844397068 ) ) ;
#69 =( CONVERSION_BASED_UNIT ( 'INCH', #167 ) LENGTH_UNIT ( ) NAMED_UNIT ( #152 ) );
#70 = PRODUCT_DEFINITION_CONTEXT ( 'detailed design', #46, 'design' ) ;
#71 = MECHANICAL_DESIGN_GEOMETRIC_PRESENTATION_REPRESENTATION (  '', ( #228 ), #120 ) ;
#72 = ORIENTED_EDGE ( 'NONE', *, *, #226, .F. ) ;
#73 = AXIS2_PLACEMENT_3D ( 'NONE', #254, #202, #287 ) ;
#74 = PRODUCT_CONTEXT ( 'NONE', #257, 'mechanical' ) ;
#75 = SURFACE_STYLE_USAGE ( .BOTH. , #64 ) ;
#76 = DIRECTION ( 'NONE',  ( -0.000000000000000000, -1.000000000000000000, -0.000000000000000000 ) ) ;
#77 = ORIENTED_EDGE ( 'NONE', *, *, #342, .F. ) ;
#78 = CARTESIAN_POINT ( 'NONE',  ( -6.123233995736763571E-17, 2.000000000000000000, 0.000000000000000000 ) ) ;
#79 = AXIS2_PLACEMENT_3D ( 'NONE', #253, #63, #325 ) ;
#80 = CARTESIAN_POINT ( 'NONE',  ( 0.000000000000000000, 39.37007874015748143, 0.000000000000000000 ) ) ;
#81 = PRESENTATION_STYLE_ASSIGNMENT (( #318 ) ) ;
#82 = PRODUCT ( '83772', '83772', '', ( #74 ) ) ;
#83 = LENGTH_MEASURE_WITH_UNIT ( LENGTH_MEASURE( 0.02539999999999999897 ), #190 );
#84 = AXIS2_PLACEMENT_3D ( 'NONE', #316, #214, #47 ) ;
#85 = DIRECTION ( 'NONE',  ( -0.000000000000000000, -1.000000000000000000, -0.000000000000000000 ) ) ;
#86 = CIRCLE ( 'NONE', #207, 0.09375000000000005551 ) ;
#87 = SURFACE_SIDE_STYLE ('',( #323 ) ) ;
#88 =( CONVERSION_BASED_UNIT ( 'INCH', #251 ) LENGTH_UNIT ( ) NAMED_UNIT ( #291 ) );
#89 = SURFACE_STYLE_USAGE ( .BOTH. , #224 ) ;
#90 = CARTESIAN_POINT ( 'NONE',  ( -0.09375000000000012490, 2.000000000000000000, 0.000000000000000000 ) ) ;
#91 = CARTESIAN_POINT ( 'NONE',  ( 1.067128122525102851E-16, 0.6250000000000000000, 0.000000000000000000 ) ) ;
#92 = AXIS2_PLACEMENT_3D ( 'NONE', #310, #255, #301 ) ;
#93 = DIRECTION ( 'NONE',  ( -1.000000000000000000, 0.000000000000000000, 0.000000000000000000 ) ) ;
#94 = EDGE_CURVE ( 'NONE', #108, #339, #41, .T. ) ;
#95 = CLOSED_SHELL ( 'NONE', ( #162, #21, #149, #289 ) ) ;
#96 =( NAMED_UNIT ( * ) PLANE_ANGLE_UNIT ( ) SI_UNIT ( $, .RADIAN. ) );
#97 = VERTEX_POINT ( 'NONE', #330 ) ;
#98 = DIMENSIONAL_EXPONENTS ( 1.000000000000000000, 0.000000000000000000, 0.000000000000000000, 0.000000000000000000, 0.000000000000000000, 0.000000000000000000, 0.000000000000000000 ) ;
#99 = DIRECTION ( 'NONE',  ( 0.000000000000000000, 0.000000000000000000, 1.000000000000000000 ) ) ;
#100 = STYLED_ITEM ( 'NONE', ( #29 ), #259 ) ;
#101 = ORIENTED_EDGE ( 'NONE', *, *, #42, .T. ) ;
#102 = COLOUR_RGB ( '',1.000000000000000000, 0.000000000000000000, 0.000000000000000000 ) ;
#103 = CYLINDRICAL_SURFACE ( 'NONE', #133, 0.09374999999999997224 ) ;
#104 = VERTEX_POINT ( 'NONE', #326 ) ;
#105 = FACE_OUTER_BOUND ( 'NONE', #288, .T. ) ;
#106 = ORIENTED_EDGE ( 'NONE', *, *, #94, .F. ) ;
#107 = LENGTH_MEASURE_WITH_UNIT ( LENGTH_MEASURE( 0.02539999999999999897 ), #273 );
#108 = VERTEX_POINT ( 'NONE', #66 ) ;
#109 = EDGE_CURVE ( 'NONE', #124, #331, #201, .T. ) ;
#110 =( CONVERSION_BASED_UNIT ( 'INCH', #351 ) LENGTH_UNIT ( ) NAMED_UNIT ( #98 ) );
#111 = STYLED_ITEM ( 'NONE', ( #81 ), #232 ) ;
#112 = CARTESIAN_POINT ( 'NONE',  ( 0.000000000000000000, 0.05412658773652713473, 0.000000000000000000 ) ) ;
#113 =( GEOMETRIC_REPRESENTATION_CONTEXT ( 3 ) GLOBAL_UNCERTAINTY_ASSIGNED_CONTEXT ( ( #30 ) ) GLOBAL_UNIT_ASSIGNED_CONTEXT ( ( #191, #153, #278 ) ) REPRESENTATION_CONTEXT ( 'NONE', 'WORKASPACE' ) );
#114 = LINE ( 'NONE', #250, #199 ) ;
#115 = CARTESIAN_POINT ( 'NONE',  ( 1.148106374200643401E-17, 0.000000000000000000, 0.09374999999999998612 ) ) ;
#116 = SURFACE_STYLE_FILL_AREA ( #2 ) ;
#117 = CARTESIAN_POINT ( 'NONE',  ( 0.000000000000000000, 0.000000000000000000, 0.000000000000000000 ) ) ;
#118 = PRESENTATION_STYLE_ASSIGNMENT (( #75 ) ) ;
#119 = SURFACE_STYLE_USAGE ( .BOTH. , #32 ) ;
#120 =( GEOMETRIC_REPRESENTATION_CONTEXT ( 3 ) GLOBAL_UNCERTAINTY_ASSIGNED_CONTEXT ( ( #271 ) ) GLOBAL_UNIT_ASSIGNED_CONTEXT ( ( #110, #246, #188 ) ) REPRESENTATION_CONTEXT ( 'NONE', 'WORKASPACE' ) );
#121 =( CONVERSION_BASED_UNIT ( 'INCH', #44 ) LENGTH_UNIT ( ) NAMED_UNIT ( #334 ) );
#122 = SURFACE_SIDE_STYLE ('',( #258 ) ) ;
#123 = EDGE_CURVE ( 'NONE', #10, #290, #14, .T. ) ;
#124 = VERTEX_POINT ( 'NONE', #203 ) ;
#125 = ORIENTED_EDGE ( 'NONE', *, *, #342, .T. ) ;
#126 = PRESENTATION_LAYER_ASSIGNMENT (  '', '', ( #100 ) ) ;
#127 = DIMENSIONAL_EXPONENTS ( 1.000000000000000000, 0.000000000000000000, 0.000000000000000000, 0.000000000000000000, 0.000000000000000000, 0.000000000000000000, 0.000000000000000000 ) ;
#128 = CIRCLE ( 'NONE', #186, 0.09374999999999988898 ) ;
#129 = ADVANCED_FACE ( 'NONE', ( #145 ), #39, .T. ) ;
#130 = MECHANICAL_DESIGN_GEOMETRIC_PRESENTATION_REPRESENTATION (  '', ( #111 ), #113 ) ;
#131 = ORIENTED_EDGE ( 'NONE', *, *, #11, .F. ) ;
#132 = ORIENTED_EDGE ( 'NONE', *, *, #94, .T. ) ;
#133 = AXIS2_PLACEMENT_3D ( 'NONE', #23, #269, #212 ) ;
#134 = CYLINDRICAL_SURFACE ( 'NONE', #157, 0.09374999999999998612 ) ;
#135 = FILL_AREA_STYLE_COLOUR ( '', #102 ) ;
#136 = DIRECTION ( 'NONE',  ( -1.221419288799112129E-16, 1.000000000000000000, 0.000000000000000000 ) ) ;
#137 = AXIS2_PLACEMENT_3D ( 'NONE', #204, #235, #35 ) ;
#138 = SURFACE_STYLE_FILL_AREA ( #222 ) ;
#139 = CARTESIAN_POINT ( 'NONE',  ( -0.09374999999999979183, 0.6250000000000000000, 0.000000000000000000 ) ) ;
#140 = PRODUCT_DEFINITION ( 'UNKNOWN', '', #179, #70 ) ;
#141 =( NAMED_UNIT ( * ) PLANE_ANGLE_UNIT ( ) SI_UNIT ( $, .RADIAN. ) );
#142 = COLOUR_RGB ( '',1.000000000000000000, 0.000000000000000000, 0.000000000000000000 ) ;
#143 = APPLICATION_PROTOCOL_DEFINITION ( 'draft international standard', 'automotive_design', 1998, #257 ) ;
#144 = COLOUR_RGB ( '',1.000000000000000000, 0.000000000000000000, 0.000000000000000000 ) ;
#145 = FACE_OUTER_BOUND ( 'NONE', #263, .T. ) ;
#146 = ADVANCED_FACE ( 'NONE', ( #5 ), #175, .T. ) ;
#147 = ORIENTED_EDGE ( 'NONE', *, *, #302, .T. ) ;
#148 =( LENGTH_UNIT ( ) NAMED_UNIT ( * ) SI_UNIT ( $, .METRE. ) );
#149 = ADVANCED_FACE ( 'NONE', ( #276 ), #17, .T. ) ;
#150 = UNCERTAINTY_MEASURE_WITH_UNIT (LENGTH_MEASURE( 1.000000000000000082E-05 ), #88, 'distance_accuracy_value', 'NONE');
#151 = ORIENTED_EDGE ( 'NONE', *, *, #11, .T. ) ;
#152 = DIMENSIONAL_EXPONENTS ( 1.000000000000000000, 0.000000000000000000, 0.000000000000000000, 0.000000000000000000, 0.000000000000000000, 0.000000000000000000, 0.000000000000000000 ) ;
#153 =( NAMED_UNIT ( * ) PLANE_ANGLE_UNIT ( ) SI_UNIT ( $, .RADIAN. ) );
#154 = AXIS2_PLACEMENT_3D ( 'NONE', #348, #281, #1 ) ;
#155 = CIRCLE ( 'NONE', #176, 0.09374999999999998612 ) ;
#156 = ORIENTED_EDGE ( 'NONE', *, *, #306, .T. ) ;
#157 = AXIS2_PLACEMENT_3D ( 'NONE', #200, #279, #171 ) ;
#158 = FACE_OUTER_BOUND ( 'NONE', #262, .T. ) ;
#159 = UNCERTAINTY_MEASURE_WITH_UNIT (LENGTH_MEASURE( 1.000000000000000082E-05 ), #69, 'distance_accuracy_value', 'NONE');
#160 = DIRECTION ( 'NONE',  ( -0.000000000000000000, -1.000000000000000000, -0.000000000000000000 ) ) ;
#161 = DIRECTION ( 'NONE',  ( 0.000000000000000000, 0.000000000000000000, -1.000000000000000000 ) ) ;
#162 = ADVANCED_FACE ( 'NONE', ( #158 ), #103, .T. ) ;
#163 = CARTESIAN_POINT ( 'NONE',  ( 0.09374999999999998612, 2.000000000000000000, 1.148106374200643863E-17 ) ) ;
#164 = VECTOR ( 'NONE', #76, 39.37007874015748143 ) ;
#165 =( NAMED_UNIT ( * ) PLANE_ANGLE_UNIT ( ) SI_UNIT ( $, .RADIAN. ) );
#166 = FILL_AREA_STYLE_COLOUR ( '', #67 ) ;
#167 = LENGTH_MEASURE_WITH_UNIT ( LENGTH_MEASURE( 0.02539999999999999897 ), #219 );
#168 = PLANE ( 'NONE',  #261 ) ;
#169 = FILL_AREA_STYLE ('',( #135 ) ) ;
#170 = CIRCLE ( 'NONE', #50, 0.09375000000000001388 ) ;
#171 = DIRECTION ( 'NONE',  ( 0.000000000000000000, 0.000000000000000000, -1.000000000000000000 ) ) ;
#172 = EDGE_CURVE ( 'NONE', #290, #183, #86, .T. ) ;
#173 = CARTESIAN_POINT ( 'NONE',  ( 0.000000000000000000, 0.05412658773652713473, -0.09375000000000001388 ) ) ;
#174 =( LENGTH_UNIT ( ) NAMED_UNIT ( * ) SI_UNIT ( $, .METRE. ) );
#175 = PLANE ( 'NONE',  #84 ) ;
#176 = AXIS2_PLACEMENT_3D ( 'NONE', #275, #22, #161 ) ;
#177 = ORIENTED_EDGE ( 'NONE', *, *, #4, .F. ) ;
#178 = APPLICATION_PROTOCOL_DEFINITION ( 'draft international standard', 'automotive_design', 1998, #46 ) ;
#179 = PRODUCT_DEFINITION_FORMATION_WITH_SPECIFIED_SOURCE ( 'ANY', '', #82, .NOT_KNOWN. ) ;
#180 = EDGE_LOOP ( 'NONE', ( #177, #77 ) ) ;
#181 = PRODUCT_RELATED_PRODUCT_CATEGORY ( 'part', '', ( #82 ) ) ;
#182 = DIRECTION ( 'NONE',  ( -1.221419288799112129E-16, 1.000000000000000000, -0.000000000000000000 ) ) ;
#183 = VERTEX_POINT ( 'NONE', #163 ) ;
#184 = ADVANCED_BREP_SHAPE_REPRESENTATION ( '83772', ( #59, #61, #137 ), #234 ) ;
#185 = FILL_AREA_STYLE_COLOUR ( '', #55 ) ;
#186 = AXIS2_PLACEMENT_3D ( 'NONE', #237, #210, #53 ) ;
#187 = PRESENTATION_STYLE_ASSIGNMENT (( #244 ) ) ;
#188 =( NAMED_UNIT ( * ) SI_UNIT ( $, .STERADIAN. ) SOLID_ANGLE_UNIT ( ) );
#189 = EDGE_CURVE ( 'NONE', #108, #331, #340, .T. ) ;
#190 =( LENGTH_UNIT ( ) NAMED_UNIT ( * ) SI_UNIT ( $, .METRE. ) );
#191 =( CONVERSION_BASED_UNIT ( 'INCH', #83 ) LENGTH_UNIT ( ) NAMED_UNIT ( #127 ) );
#192 = STYLED_ITEM ( 'NONE', ( #118 ), #129 ) ;
#193 = FACE_OUTER_BOUND ( 'NONE', #317, .T. ) ;
#194 = MECHANICAL_DESIGN_GEOMETRIC_PRESENTATION_REPRESENTATION (  '', ( #192 ), #245 ) ;
#195 = DIRECTION ( 'NONE',  ( -0.000000000000000000, -1.000000000000000000, -0.000000000000000000 ) ) ;
#196 = SURFACE_STYLE_USAGE ( .BOTH. , #87 ) ;
#197 = DIRECTION ( 'NONE',  ( 0.000000000000000000, 0.000000000000000000, -1.000000000000000000 ) ) ;
#198 =( CONVERSION_BASED_UNIT ( 'INCH', #34 ) LENGTH_UNIT ( ) NAMED_UNIT ( #265 ) );
#199 = VECTOR ( 'NONE', #31, 39.37007874015748143 ) ;
#200 = CARTESIAN_POINT ( 'NONE',  ( 0.000000000000000000, 0.000000000000000000, 0.000000000000000000 ) ) ;
#201 = LINE ( 'NONE', #285, #297 ) ;
#202 = DIRECTION ( 'NONE',  ( 0.000000000000000000, 1.000000000000000000, 0.000000000000000000 ) ) ;
#203 = CARTESIAN_POINT ( 'NONE',  ( 0.000000000000000000, 0.000000000000000000, 0.000000000000000000 ) ) ;
#204 = CARTESIAN_POINT ( 'NONE',  ( 0.000000000000000000, 0.000000000000000000, 0.000000000000000000 ) ) ;
#205 = UNCERTAINTY_MEASURE_WITH_UNIT (LENGTH_MEASURE( 1.000000000000000082E-05 ), #277, 'distance_accuracy_value', 'NONE');
#206 = ORIENTED_EDGE ( 'NONE', *, *, #306, .F. ) ;
#207 = AXIS2_PLACEMENT_3D ( 'NONE', #78, #294, #337 ) ;
#208 =( NAMED_UNIT ( * ) SI_UNIT ( $, .STERADIAN. ) SOLID_ANGLE_UNIT ( ) );
#209 = CLOSED_SHELL ( 'NONE', ( #62, #259, #146, #232, #129 ) ) ;
#210 = DIRECTION ( 'NONE',  ( -1.221419288799112129E-16, 1.000000000000000000, -0.000000000000000000 ) ) ;
#211 = ORIENTED_EDGE ( 'NONE', *, *, #226, .T. ) ;
#212 = DIRECTION ( 'NONE',  ( -1.000000000000000000, 0.000000000000000000, 0.000000000000000000 ) ) ;
#213 = ORIENTED_EDGE ( 'NONE', *, *, #109, .F. ) ;
#214 = DIRECTION ( 'NONE',  ( 0.000000000000000000, 1.000000000000000000, 0.000000000000000000 ) ) ;
#215 = CIRCLE ( 'NONE', #238, 0.09374999999999988898 ) ;
#216 = ORIENTED_EDGE ( 'NONE', *, *, #247, .F. ) ;
#217 = SURFACE_STYLE_FILL_AREA ( #344 ) ;
#218 = SURFACE_STYLE_USAGE ( .BOTH. , #24 ) ;
#219 =( LENGTH_UNIT ( ) NAMED_UNIT ( * ) SI_UNIT ( $, .METRE. ) );
#220 = CONICAL_SURFACE ( 'NONE', #229, 68.19097667594041923, 1.047197551196600074 ) ;
#221 = PRESENTATION_LAYER_ASSIGNMENT (  '', '', ( #111 ) ) ;
#222 = FILL_AREA_STYLE ('',( #298 ) ) ;
#223 = PLANE ( 'NONE',  #79 ) ;
#224 = SURFACE_SIDE_STYLE ('',( #116 ) ) ;
#225 = CARTESIAN_POINT ( 'NONE',  ( 1.148106374200643401E-17, 0.6250000000000000000, 0.09374999999999998612 ) ) ;
#226 = EDGE_CURVE ( 'NONE', #331, #104, #267, .T. ) ;
#227 = CARTESIAN_POINT ( 'NONE',  ( -0.09375000000000004163, 2.000000000000000000, 0.000000000000000000 ) ) ;
#228 = STYLED_ITEM ( 'NONE', ( #57 ), #59 ) ;
#229 = AXIS2_PLACEMENT_3D ( 'NONE', #80, #230, #99 ) ;
#230 = DIRECTION ( 'NONE',  ( 0.000000000000000000, 1.000000000000000000, 0.000000000000000000 ) ) ;
#231 = DIRECTION ( 'NONE',  ( -1.221419288799112129E-16, 1.000000000000000000, -0.000000000000000000 ) ) ;
#232 = ADVANCED_FACE ( 'NONE', ( #105 ), #134, .T. ) ;
#233 = PRESENTATION_STYLE_ASSIGNMENT (( #196 ) ) ;
#234 =( GEOMETRIC_REPRESENTATION_CONTEXT ( 3 ) GLOBAL_UNCERTAINTY_ASSIGNED_CONTEXT ( ( #159 ) ) GLOBAL_UNIT_ASSIGNED_CONTEXT ( ( #69, #96, #308 ) ) REPRESENTATION_CONTEXT ( 'NONE', 'WORKASPACE' ) );
#235 = DIRECTION ( 'NONE',  ( 0.000000000000000000, 0.000000000000000000, 1.000000000000000000 ) ) ;
#236 = ORIENTED_EDGE ( 'NONE', *, *, #123, .F. ) ;
#237 = CARTESIAN_POINT ( 'NONE',  ( 1.067128122525102851E-16, 0.6250000000000000000, 0.000000000000000000 ) ) ;
#238 = AXIS2_PLACEMENT_3D ( 'NONE', #91, #329, #93 ) ;
#239 = MECHANICAL_DESIGN_GEOMETRIC_PRESENTATION_REPRESENTATION (  '', ( #264 ), #328 ) ;
#240 = ORIENTED_EDGE ( 'NONE', *, *, #172, .T. ) ;
#241 = CARTESIAN_POINT ( 'NONE',  ( -6.123233995736763571E-17, 2.000000000000000000, 0.000000000000000000 ) ) ;
#242 = ORIENTED_EDGE ( 'NONE', *, *, #189, .F. ) ;
#243 = ORIENTED_EDGE ( 'NONE', *, *, #302, .F. ) ;
#244 = SURFACE_STYLE_USAGE ( .BOTH. , #122 ) ;
#245 =( GEOMETRIC_REPRESENTATION_CONTEXT ( 3 ) GLOBAL_UNCERTAINTY_ASSIGNED_CONTEXT ( ( #338 ) ) GLOBAL_UNIT_ASSIGNED_CONTEXT ( ( #198, #141, #33 ) ) REPRESENTATION_CONTEXT ( 'NONE', 'WORKASPACE' ) );
#246 =( NAMED_UNIT ( * ) PLANE_ANGLE_UNIT ( ) SI_UNIT ( $, .RADIAN. ) );
#247 = EDGE_CURVE ( 'NONE', #339, #104, #345, .T. ) ;
#248 =( NAMED_UNIT ( * ) SI_UNIT ( $, .STERADIAN. ) SOLID_ANGLE_UNIT ( ) );
#249 = FACE_OUTER_BOUND ( 'NONE', #333, .T. ) ;
#250 = CARTESIAN_POINT ( 'NONE',  ( 0.09374999999999990286, 2.000000000000000000, 1.148106374200643247E-17 ) ) ;
#251 = LENGTH_MEASURE_WITH_UNIT ( LENGTH_MEASURE( 0.02539999999999999897 ), #300 );
#252 = CARTESIAN_POINT ( 'NONE',  ( 1.067128122525102851E-16, 0.6250000000000000000, 0.000000000000000000 ) ) ;
#253 = CARTESIAN_POINT ( 'NONE',  ( 0.09374999999999998612, 2.000000000000000000, 0.000000000000000000 ) ) ;
#254 = CARTESIAN_POINT ( 'NONE',  ( 0.000000000000000000, 39.37007874015748143, 0.000000000000000000 ) ) ;
#255 = DIRECTION ( 'NONE',  ( -0.000000000000000000, -1.000000000000000000, -0.000000000000000000 ) ) ;
#256 = SHAPE_DEFINITION_REPRESENTATION ( #346, #184 ) ;
#257 = APPLICATION_CONTEXT ( 'automotive_design' ) ;
#258 = SURFACE_STYLE_FILL_AREA ( #38 ) ;
#259 = ADVANCED_FACE ( 'NONE', ( #303 ), #283, .T. ) ;
#260 = FILL_AREA_STYLE_COLOUR ( '', #142 ) ;
#261 = AXIS2_PLACEMENT_3D ( 'NONE', #252, #136, #324 ) ;
#262 = EDGE_LOOP ( 'NONE', ( #268, #101, #16, #236 ) ) ;
#263 = EDGE_LOOP ( 'NONE', ( #213, #270, #147 ) ) ;
#264 = STYLED_ITEM ( 'NONE', ( #187 ), #146 ) ;
#265 = DIMENSIONAL_EXPONENTS ( 1.000000000000000000, 0.000000000000000000, 0.000000000000000000, 0.000000000000000000, 0.000000000000000000, 0.000000000000000000, 0.000000000000000000 ) ;
#266 = STYLED_ITEM ( 'NONE', ( #319 ), #61 ) ;
#267 = CIRCLE ( 'NONE', #286, 0.09375000000000001388 ) ;
#268 = ORIENTED_EDGE ( 'NONE', *, *, #4, .T. ) ;
#269 = DIRECTION ( 'NONE',  ( -1.221419288799112129E-16, 1.000000000000000000, -0.000000000000000000 ) ) ;
#270 = ORIENTED_EDGE ( 'NONE', *, *, #327, .T. ) ;
#271 = UNCERTAINTY_MEASURE_WITH_UNIT (LENGTH_MEASURE( 1.000000000000000082E-05 ), #110, 'distance_accuracy_value', 'NONE');
#272 =( LENGTH_UNIT ( ) NAMED_UNIT ( * ) SI_UNIT ( $, .METRE. ) );
#273 =( LENGTH_UNIT ( ) NAMED_UNIT ( * ) SI_UNIT ( $, .METRE. ) );
#274 = STYLED_ITEM ( 'NONE', ( #233 ), #62 ) ;
#275 = CARTESIAN_POINT ( 'NONE',  ( 0.000000000000000000, 0.6250000000000000000, 0.000000000000000000 ) ) ;
#276 = FACE_OUTER_BOUND ( 'NONE', #336, .T. ) ;
#277 =( CONVERSION_BASED_UNIT ( 'INCH', #54 ) LENGTH_UNIT ( ) NAMED_UNIT ( #45 ) );
#278 =( NAMED_UNIT ( * ) SI_UNIT ( $, .STERADIAN. ) SOLID_ANGLE_UNIT ( ) );
#279 = DIRECTION ( 'NONE',  ( -0.000000000000000000, -1.000000000000000000, -0.000000000000000000 ) ) ;
#280 =( LENGTH_UNIT ( ) NAMED_UNIT ( * ) SI_UNIT ( $, .METRE. ) );
#281 = DIRECTION ( 'NONE',  ( -0.000000000000000000, -1.000000000000000000, -0.000000000000000000 ) ) ;
#282 = UNCERTAINTY_MEASURE_WITH_UNIT (LENGTH_MEASURE( 1.000000000000000082E-05 ), #293, 'distance_accuracy_value', 'NONE');
#283 = CYLINDRICAL_SURFACE ( 'NONE', #154, 0.09374999999999998612 ) ;
#284 = SURFACE_STYLE_FILL_AREA ( #8 ) ;
#285 = CARTESIAN_POINT ( 'NONE',  ( 0.000000000000000000, 0.000000000000000000, 0.000000000000000000 ) ) ;
#286 = AXIS2_PLACEMENT_3D ( 'NONE', #52, #160, #341 ) ;
#287 = DIRECTION ( 'NONE',  ( 0.000000000000000000, 0.000000000000000000, 1.000000000000000000 ) ) ;
#288 = EDGE_LOOP ( 'NONE', ( #216, #151, #43, #243 ) ) ;
#289 = ADVANCED_FACE ( 'NONE', ( #249 ), #223, .F. ) ;
#290 = VERTEX_POINT ( 'NONE', #90 ) ;
#291 = DIMENSIONAL_EXPONENTS ( 1.000000000000000000, 0.000000000000000000, 0.000000000000000000, 0.000000000000000000, 0.000000000000000000, 0.000000000000000000, 0.000000000000000000 ) ;
#292 = ORIENTED_EDGE ( 'NONE', *, *, #327, .F. ) ;
#293 =( CONVERSION_BASED_UNIT ( 'INCH', #107 ) LENGTH_UNIT ( ) NAMED_UNIT ( #13 ) );
#294 = DIRECTION ( 'NONE',  ( -1.221419288799112129E-16, 1.000000000000000000, -0.000000000000000000 ) ) ;
#295 = PRESENTATION_LAYER_ASSIGNMENT (  '', '', ( #274 ) ) ;
#296 = CARTESIAN_POINT ( 'NONE',  ( 0.000000000000000000, 0.000000000000000000, -0.09374999999999998612 ) ) ;
#297 = VECTOR ( 'NONE', #68, 39.37007874015748854 ) ;
#298 = FILL_AREA_STYLE_COLOUR ( '', #48 ) ;
#299 = CARTESIAN_POINT ( 'NONE',  ( -6.123233995736763571E-17, 2.000000000000000000, 0.000000000000000000 ) ) ;
#300 =( LENGTH_UNIT ( ) NAMED_UNIT ( * ) SI_UNIT ( $, .METRE. ) );
#301 = DIRECTION ( 'NONE',  ( 0.000000000000000000, 0.000000000000000000, -1.000000000000000000 ) ) ;
#302 = EDGE_CURVE ( 'NONE', #104, #331, #170, .T. ) ;
#303 = FACE_OUTER_BOUND ( 'NONE', #12, .T. ) ;
#304 = FILL_AREA_STYLE_COLOUR ( '', #144 ) ;
#305 = VECTOR ( 'NONE', #231, 39.37007874015748143 ) ;
#306 = EDGE_CURVE ( 'NONE', #183, #290, #322, .T. ) ;
#307 = COLOUR_RGB ( '',0.7921568627450980005, 0.8196078431372548767, 0.9333333333333333481 ) ;
#308 =( NAMED_UNIT ( * ) SI_UNIT ( $, .STERADIAN. ) SOLID_ANGLE_UNIT ( ) );
#309 = PRESENTATION_LAYER_ASSIGNMENT (  '', '', ( #264 ) ) ;
#310 = CARTESIAN_POINT ( 'NONE',  ( 0.000000000000000000, 0.6250000000000000000, 0.000000000000000000 ) ) ;
#311 = UNCERTAINTY_MEASURE_WITH_UNIT (LENGTH_MEASURE( 1.000000000000000082E-05 ), #121, 'distance_accuracy_value', 'NONE');
#312 = ORIENTED_EDGE ( 'NONE', *, *, #123, .T. ) ;
#313 = DIRECTION ( 'NONE',  ( -1.000000000000000000, 0.000000000000000000, 0.000000000000000000 ) ) ;
#314 = ORIENTED_EDGE ( 'NONE', *, *, #247, .T. ) ;
#315 =( GEOMETRIC_REPRESENTATION_CONTEXT ( 3 ) GLOBAL_UNCERTAINTY_ASSIGNED_CONTEXT ( ( #150 ) ) GLOBAL_UNIT_ASSIGNED_CONTEXT ( ( #88, #27, #58 ) ) REPRESENTATION_CONTEXT ( 'NONE', 'WORKASPACE' ) );
#316 = CARTESIAN_POINT ( 'NONE',  ( 0.000000000000000000, 0.6250000000000000000, 0.000000000000000000 ) ) ;
#317 = EDGE_LOOP ( 'NONE', ( #292, #20, #211 ) ) ;
#318 = SURFACE_STYLE_USAGE ( .BOTH. , #25 ) ;
#319 = PRESENTATION_STYLE_ASSIGNMENT (( #218 ) ) ;
#320 = FILL_AREA_STYLE_COLOUR ( '', #307 ) ;
#321 =( GEOMETRIC_REPRESENTATION_CONTEXT ( 3 ) GLOBAL_UNCERTAINTY_ASSIGNED_CONTEXT ( ( #205 ) ) GLOBAL_UNIT_ASSIGNED_CONTEXT ( ( #277, #26, #248 ) ) REPRESENTATION_CONTEXT ( 'NONE', 'WORKASPACE' ) );
#322 = CIRCLE ( 'NONE', #349, 0.09375000000000005551 ) ;
#323 = SURFACE_STYLE_FILL_AREA ( #169 ) ;
#324 = DIRECTION ( 'NONE',  ( -1.000000000000000000, -1.221419288799112129E-16, 0.000000000000000000 ) ) ;
#325 = DIRECTION ( 'NONE',  ( 1.000000000000000000, 1.221419288799112129E-16, 0.000000000000000000 ) ) ;
#326 = CARTESIAN_POINT ( 'NONE',  ( 1.148106374200643555E-17, 0.05412658773652713473, 0.09375000000000001388 ) ) ;
#327 = EDGE_CURVE ( 'NONE', #124, #104, #6, .T. ) ;
#328 =( GEOMETRIC_REPRESENTATION_CONTEXT ( 3 ) GLOBAL_UNCERTAINTY_ASSIGNED_CONTEXT ( ( #282 ) ) GLOBAL_UNIT_ASSIGNED_CONTEXT ( ( #293, #165, #19 ) ) REPRESENTATION_CONTEXT ( 'NONE', 'WORKASPACE' ) );
#329 = DIRECTION ( 'NONE',  ( -1.221419288799112129E-16, 1.000000000000000000, -0.000000000000000000 ) ) ;
#330 = CARTESIAN_POINT ( 'NONE',  ( 0.09374999999999998612, 0.6250000000000000000, 1.148106374200643863E-17 ) ) ;
#331 = VERTEX_POINT ( 'NONE', #173 ) ;
#332 = MECHANICAL_DESIGN_GEOMETRIC_PRESENTATION_REPRESENTATION (  '', ( #274 ), #335 ) ;
#333 = EDGE_LOOP ( 'NONE', ( #240, #156 ) ) ;
#334 = DIMENSIONAL_EXPONENTS ( 1.000000000000000000, 0.000000000000000000, 0.000000000000000000, 0.000000000000000000, 0.000000000000000000, 0.000000000000000000, 0.000000000000000000 ) ;
#335 =( GEOMETRIC_REPRESENTATION_CONTEXT ( 3 ) GLOBAL_UNCERTAINTY_ASSIGNED_CONTEXT ( ( #311 ) ) GLOBAL_UNIT_ASSIGNED_CONTEXT ( ( #121, #40, #208 ) ) REPRESENTATION_CONTEXT ( 'NONE', 'WORKASPACE' ) );
#336 = EDGE_LOOP ( 'NONE', ( #18, #125, #312, #206 ) ) ;
#337 = DIRECTION ( 'NONE',  ( -1.000000000000000000, 0.000000000000000000, 0.000000000000000000 ) ) ;
#338 = UNCERTAINTY_MEASURE_WITH_UNIT (LENGTH_MEASURE( 1.000000000000000082E-05 ), #198, 'distance_accuracy_value', 'NONE');
#339 = VERTEX_POINT ( 'NONE', #225 ) ;
#340 = LINE ( 'NONE', #296, #164 ) ;
#341 = DIRECTION ( 'NONE',  ( 0.000000000000000000, 0.000000000000000000, -1.000000000000000000 ) ) ;
#342 = EDGE_CURVE ( 'NONE', #97, #10, #215, .T. ) ;
#343 = FILL_AREA_STYLE ('',( #166 ) ) ;
#344 = FILL_AREA_STYLE ('',( #185 ) ) ;
#345 = LINE ( 'NONE', #115, #7 ) ;
#346 = PRODUCT_DEFINITION_SHAPE ( 'NONE', 'NONE',  #140 ) ;
#347 = AXIS2_PLACEMENT_3D ( 'NONE', #241, #182, #313 ) ;
#348 = CARTESIAN_POINT ( 'NONE',  ( 0.000000000000000000, 0.000000000000000000, 0.000000000000000000 ) ) ;
#349 = AXIS2_PLACEMENT_3D ( 'NONE', #299, #3, #60 ) ;
#350 = PRESENTATION_LAYER_ASSIGNMENT (  '', '', ( #266 ) ) ;
#351 = LENGTH_MEASURE_WITH_UNIT ( LENGTH_MEASURE( 0.02539999999999999897 ), #272 );
ENDSEC;
END-ISO-10303-21;
