ISO-10303-21;
HEADER;
FILE_DESCRIPTION (( 'STEP AP214' ),
    '1' );
FILE_NAME ('00015.STEP',
    '2023-06-22T14:02:03',
    ( '' ),
    ( '' ),
    'SwSTEP 2.0',
    'SolidWorks 2023',
    '' );
FILE_SCHEMA (( 'AUTOMOTIVE_DESIGN' ));
ENDSEC;

DATA;
#1 =( NAMED_UNIT ( * ) PLANE_ANGLE_UNIT ( ) SI_UNIT ( $, .RADIAN. ) );
#2 = MANIFOLD_SOLID_BREP ( 'Revolve - Tool Body (Straight Shanked)', #296 ) ;
#3 = ORIENTED_EDGE ( 'NONE', *, *, #204, .T. ) ;
#4 = DIRECTION ( 'NONE',  ( 0.000000000000000000, 0.000000000000000000, -1.000000000000000000 ) ) ;
#5 = EDGE_LOOP ( 'NONE', ( #270, #89 ) ) ;
#6 = COLOUR_RGB ( '',1.000000000000000000, 0.000000000000000000, 0.000000000000000000 ) ;
#7 = STYLED_ITEM ( 'NONE', ( #131 ), #234 ) ;
#8 =( NAMED_UNIT ( * ) SI_UNIT ( $, .STERADIAN. ) SOLID_ANGLE_UNIT ( ) );
#9 = SURFACE_STYLE_USAGE ( .BOTH. , #108 ) ;
#10 = EDGE_CURVE ( 'NONE', #39, #68, #144, .T. ) ;
#11 = ORIENTED_EDGE ( 'NONE', *, *, #204, .F. ) ;
#12 = CARTESIAN_POINT ( 'NONE',  ( 0.06250000000000000000, 1.500000000000000222, 0.000000000000000000 ) ) ;
#13 = DIRECTION ( 'NONE',  ( 1.000000000000000000, -9.797174393178824918E-17, 0.000000000000000000 ) ) ;
#14 = APPLICATION_CONTEXT ( 'automotive_design' ) ;
#15 = AXIS2_PLACEMENT_3D ( 'NONE', #302, #240, #22 ) ;
#16 = CIRCLE ( 'NONE', #244, 0.06250000000000000000 ) ;
#17 =( LENGTH_UNIT ( ) NAMED_UNIT ( * ) SI_UNIT ( $, .METRE. ) );
#18 = LENGTH_MEASURE_WITH_UNIT ( LENGTH_MEASURE( 0.02539999999999999897 ), #23 );
#19 = LENGTH_MEASURE_WITH_UNIT ( LENGTH_MEASURE( 0.02539999999999999897 ), #17 );
#20 = PRESENTATION_STYLE_ASSIGNMENT (( #236 ) ) ;
#21 =( CONVERSION_BASED_UNIT ( 'INCH', #284 ) LENGTH_UNIT ( ) NAMED_UNIT ( #259 ) );
#22 = DIRECTION ( 'NONE',  ( -1.000000000000000000, 0.000000000000000000, 0.000000000000000000 ) ) ;
#23 =( LENGTH_UNIT ( ) NAMED_UNIT ( * ) SI_UNIT ( $, .METRE. ) );
#24 = CARTESIAN_POINT ( 'NONE',  ( 0.000000000000000000, 0.2500000000000000000, 0.000000000000000000 ) ) ;
#25 = EDGE_CURVE ( 'NONE', #68, #39, #118, .T. ) ;
#26 = FACE_OUTER_BOUND ( 'NONE', #41, .T. ) ;
#27 = CIRCLE ( 'NONE', #106, 0.06250000000000000000 ) ;
#28 = UNCERTAINTY_MEASURE_WITH_UNIT (LENGTH_MEASURE( 1.000000000000000082E-05 ), #149, 'distance_accuracy_value', 'NONE');
#29 = VERTEX_POINT ( 'NONE', #202 ) ;
#30 = DIRECTION ( 'NONE',  ( 0.000000000000000000, 0.000000000000000000, -1.000000000000000000 ) ) ;
#31 = EDGE_LOOP ( 'NONE', ( #130, #35, #178, #62 ) ) ;
#32 = PRODUCT_CONTEXT ( 'NONE', #14, 'mechanical' ) ;
#33 = FILL_AREA_STYLE ('',( #228 ) ) ;
#34 = DIRECTION ( 'NONE',  ( -1.000000000000000000, 0.000000000000000000, 0.000000000000000000 ) ) ;
#35 = ORIENTED_EDGE ( 'NONE', *, *, #231, .T. ) ;
#36 = LENGTH_MEASURE_WITH_UNIT ( LENGTH_MEASURE( 0.02539999999999999897 ), #154 );
#37 = PRESENTATION_STYLE_ASSIGNMENT (( #250 ) ) ;
#38 = CARTESIAN_POINT ( 'NONE',  ( 1.224646799147353207E-16, 1.500000000000000222, 0.000000000000000000 ) ) ;
#39 = VERTEX_POINT ( 'NONE', #294 ) ;
#40 = COLOUR_RGB ( '',1.000000000000000000, 0.000000000000000000, 0.000000000000000000 ) ;
#41 = EDGE_LOOP ( 'NONE', ( #58, #11 ) ) ;
#42 = CARTESIAN_POINT ( 'NONE',  ( 0.06249999999999999306, 1.500000000000000222, 7.654042494670954463E-18 ) ) ;
#43 = ADVANCED_FACE ( 'NONE', ( #162 ), #232, .F. ) ;
#44 = CIRCLE ( 'NONE', #298, 0.06250000000000000000 ) ;
#45 = AXIS2_PLACEMENT_3D ( 'NONE', #105, #185, #210 ) ;
#46 = AXIS2_PLACEMENT_3D ( 'NONE', #60, #272, #4 ) ;
#47 = FACE_OUTER_BOUND ( 'NONE', #177, .T. ) ;
#48 = CYLINDRICAL_SURFACE ( 'NONE', #45, 0.06250000000000000000 ) ;
#49 = UNCERTAINTY_MEASURE_WITH_UNIT (LENGTH_MEASURE( 1.000000000000000082E-05 ), #142, 'distance_accuracy_value', 'NONE');
#50 = CYLINDRICAL_SURFACE ( 'NONE', #252, 0.06249999999999993755 ) ;
#51 = PRESENTATION_LAYER_ASSIGNMENT (  '', '', ( #180 ) ) ;
#52 = DIRECTION ( 'NONE',  ( 0.000000000000000000, 0.000000000000000000, -1.000000000000000000 ) ) ;
#53 =( GEOMETRIC_REPRESENTATION_CONTEXT ( 3 ) GLOBAL_UNCERTAINTY_ASSIGNED_CONTEXT ( ( #261 ) ) GLOBAL_UNIT_ASSIGNED_CONTEXT ( ( #83, #157, #8 ) ) REPRESENTATION_CONTEXT ( 'NONE', 'WORKASPACE' ) );
#54 = EDGE_CURVE ( 'NONE', #111, #65, #122, .T. ) ;
#55 = FILL_AREA_STYLE_COLOUR ( '', #139 ) ;
#56 = LINE ( 'NONE', #78, #92 ) ;
#57 =( NAMED_UNIT ( * ) SI_UNIT ( $, .STERADIAN. ) SOLID_ANGLE_UNIT ( ) );
#58 = ORIENTED_EDGE ( 'NONE', *, *, #70, .F. ) ;
#59 = CARTESIAN_POINT ( 'NONE',  ( 0.000000000000000000, 0.000000000000000000, 0.000000000000000000 ) ) ;
#60 = CARTESIAN_POINT ( 'NONE',  ( 0.000000000000000000, 0.000000000000000000, 0.000000000000000000 ) ) ;
#61 = AXIS2_PLACEMENT_3D ( 'NONE', #263, #242, #184 ) ;
#62 = ORIENTED_EDGE ( 'NONE', *, *, #121, .F. ) ;
#63 = CARTESIAN_POINT ( 'NONE',  ( 0.000000000000000000, 0.000000000000000000, 0.000000000000000000 ) ) ;
#64 = APPLICATION_CONTEXT ( 'automotive_design' ) ;
#65 = VERTEX_POINT ( 'NONE', #257 ) ;
#66 = SHAPE_DEFINITION_REPRESENTATION ( #255, #136 ) ;
#67 = DIRECTION ( 'NONE',  ( -0.000000000000000000, -1.000000000000000000, -0.000000000000000000 ) ) ;
#68 = VERTEX_POINT ( 'NONE', #42 ) ;
#69 = AXIS2_PLACEMENT_3D ( 'NONE', #213, #267, #241 ) ;
#70 = EDGE_CURVE ( 'NONE', #226, #84, #271, .T. ) ;
#71 = COLOUR_RGB ( '',0.7921568627450980005, 0.8196078431372548767, 0.9333333333333333481 ) ;
#72 = STYLED_ITEM ( 'NONE', ( #220 ), #269 ) ;
#73 =( GEOMETRIC_REPRESENTATION_CONTEXT ( 3 ) GLOBAL_UNCERTAINTY_ASSIGNED_CONTEXT ( ( #221 ) ) GLOBAL_UNIT_ASSIGNED_CONTEXT ( ( #21, #169, #303 ) ) REPRESENTATION_CONTEXT ( 'NONE', 'WORKASPACE' ) );
#74 = DIMENSIONAL_EXPONENTS ( 1.000000000000000000, 0.000000000000000000, 0.000000000000000000, 0.000000000000000000, 0.000000000000000000, 0.000000000000000000, 0.000000000000000000 ) ;
#75 = PRESENTATION_LAYER_ASSIGNMENT (  '', '', ( #7 ) ) ;
#76 =( NAMED_UNIT ( * ) SI_UNIT ( $, .STERADIAN. ) SOLID_ANGLE_UNIT ( ) );
#77 = SURFACE_STYLE_FILL_AREA ( #212 ) ;
#78 = CARTESIAN_POINT ( 'NONE',  ( -0.06249999999999981959, 1.500000000000000222, 0.000000000000000000 ) ) ;
#79 = UNCERTAINTY_MEASURE_WITH_UNIT (LENGTH_MEASURE( 1.000000000000000082E-05 ), #283, 'distance_accuracy_value', 'NONE');
#80 =( LENGTH_UNIT ( ) NAMED_UNIT ( * ) SI_UNIT ( $, .METRE. ) );
#81 = DIRECTION ( 'NONE',  ( -0.000000000000000000, -1.000000000000000000, -0.000000000000000000 ) ) ;
#82 = ADVANCED_FACE ( 'NONE', ( #113 ), #48, .T. ) ;
#83 =( CONVERSION_BASED_UNIT ( 'INCH', #36 ) LENGTH_UNIT ( ) NAMED_UNIT ( #233 ) );
#84 = VERTEX_POINT ( 'NONE', #211 ) ;
#85 = VECTOR ( 'NONE', #194, 39.37007874015748143 ) ;
#86 = LINE ( 'NONE', #247, #85 ) ;
#87 = FILL_AREA_STYLE ('',( #292 ) ) ;
#88 = DIRECTION ( 'NONE',  ( 9.797174393178826150E-17, 1.000000000000000000, -0.000000000000000000 ) ) ;
#89 = ORIENTED_EDGE ( 'NONE', *, *, #54, .F. ) ;
#90 = DIRECTION ( 'NONE',  ( 9.797174393178826150E-17, 1.000000000000000000, -0.000000000000000000 ) ) ;
#91 = ORIENTED_EDGE ( 'NONE', *, *, #137, .F. ) ;
#92 = VECTOR ( 'NONE', #99, 39.37007874015748143 ) ;
#93 = DIRECTION ( 'NONE',  ( -0.000000000000000000, -1.000000000000000000, -0.000000000000000000 ) ) ;
#94 = CARTESIAN_POINT ( 'NONE',  ( 0.000000000000000000, 0.2500000000000000000, 0.000000000000000000 ) ) ;
#95 = COLOUR_RGB ( '',0.7921568627450980005, 0.8196078431372548767, 0.9333333333333333481 ) ;
#96 =( GEOMETRIC_REPRESENTATION_CONTEXT ( 3 ) GLOBAL_UNCERTAINTY_ASSIGNED_CONTEXT ( ( #49 ) ) GLOBAL_UNIT_ASSIGNED_CONTEXT ( ( #142, #100, #76 ) ) REPRESENTATION_CONTEXT ( 'NONE', 'WORKASPACE' ) );
#97 = FILL_AREA_STYLE_COLOUR ( '', #71 ) ;
#98 = AXIS2_PLACEMENT_3D ( 'NONE', #117, #206, #300 ) ;
#99 = DIRECTION ( 'NONE',  ( 9.797174393178824918E-17, 1.000000000000000000, -0.000000000000000000 ) ) ;
#100 =( NAMED_UNIT ( * ) PLANE_ANGLE_UNIT ( ) SI_UNIT ( $, .RADIAN. ) );
#101 = DIRECTION ( 'NONE',  ( 9.797174393178826150E-17, 1.000000000000000000, -0.000000000000000000 ) ) ;
#102 = LINE ( 'NONE', #192, #217 ) ;
#103 = PRODUCT_DEFINITION_CONTEXT ( 'detailed design', #64, 'design' ) ;
#104 = MECHANICAL_DESIGN_GEOMETRIC_PRESENTATION_REPRESENTATION (  '', ( #132 ), #282 ) ;
#105 = CARTESIAN_POINT ( 'NONE',  ( 0.000000000000000000, 0.000000000000000000, 0.000000000000000000 ) ) ;
#106 = AXIS2_PLACEMENT_3D ( 'NONE', #24, #125, #216 ) ;
#107 = PRODUCT_RELATED_PRODUCT_CATEGORY ( 'part', '', ( #175 ) ) ;
#108 = SURFACE_SIDE_STYLE ('',( #225 ) ) ;
#109 =( LENGTH_UNIT ( ) NAMED_UNIT ( * ) SI_UNIT ( $, .METRE. ) );
#110 =( NAMED_UNIT ( * ) SI_UNIT ( $, .STERADIAN. ) SOLID_ANGLE_UNIT ( ) );
#111 = VERTEX_POINT ( 'NONE', #306 ) ;
#112 = ORIENTED_EDGE ( 'NONE', *, *, #239, .T. ) ;
#113 = FACE_OUTER_BOUND ( 'NONE', #153, .T. ) ;
#114 = PRODUCT_DEFINITION_FORMATION_WITH_SPECIFIED_SOURCE ( 'ANY', '', #175, .NOT_KNOWN. ) ;
#115 = EDGE_CURVE ( 'NONE', #226, #155, #102, .T. ) ;
#116 = MANIFOLD_SOLID_BREP ( 'Revolve - Cutting Edge', #179 ) ;
#117 = CARTESIAN_POINT ( 'NONE',  ( -1.516480271171051896E-32, 0.2500000000000000555, 0.000000000000000000 ) ) ;
#118 = CIRCLE ( 'NONE', #278, 0.06249999999999988204 ) ;
#119 = SURFACE_STYLE_FILL_AREA ( #208 ) ;
#120 = CYLINDRICAL_SURFACE ( 'NONE', #265, 0.06249999999999993755 ) ;
#121 = EDGE_CURVE ( 'NONE', #65, #39, #56, .T. ) ;
#122 = CIRCLE ( 'NONE', #98, 0.06250000000000000000 ) ;
#123 = MECHANICAL_DESIGN_GEOMETRIC_PRESENTATION_REPRESENTATION (  '', ( #72 ), #73 ) ;
#124 = PLANE ( 'NONE',  #69 ) ;
#125 = DIRECTION ( 'NONE',  ( -0.000000000000000000, -1.000000000000000000, -0.000000000000000000 ) ) ;
#126 = CYLINDRICAL_SURFACE ( 'NONE', #61, 0.06250000000000000000 ) ;
#127 = SURFACE_STYLE_USAGE ( .BOTH. , #171 ) ;
#128 = FILL_AREA_STYLE_COLOUR ( '', #95 ) ;
#129 = ORIENTED_EDGE ( 'NONE', *, *, #25, .F. ) ;
#130 = ORIENTED_EDGE ( 'NONE', *, *, #156, .T. ) ;
#131 = PRESENTATION_STYLE_ASSIGNMENT (( #249 ) ) ;
#132 = STYLED_ITEM ( 'NONE', ( #222 ), #2 ) ;
#133 = ORIENTED_EDGE ( 'NONE', *, *, #239, .F. ) ;
#134 = ORIENTED_EDGE ( 'NONE', *, *, #231, .F. ) ;
#135 =( GEOMETRIC_REPRESENTATION_CONTEXT ( 3 ) GLOBAL_UNCERTAINTY_ASSIGNED_CONTEXT ( ( #28 ) ) GLOBAL_UNIT_ASSIGNED_CONTEXT ( ( #149, #285, #57 ) ) REPRESENTATION_CONTEXT ( 'NONE', 'WORKASPACE' ) );
#136 = ADVANCED_BREP_SHAPE_REPRESENTATION ( '00015', ( #116, #2, #168 ), #218 ) ;
#137 = EDGE_CURVE ( 'NONE', #155, #29, #44, .T. ) ;
#138 = STYLED_ITEM ( 'NONE', ( #37 ), #82 ) ;
#139 = COLOUR_RGB ( '',1.000000000000000000, 0.000000000000000000, 0.000000000000000000 ) ;
#140 = DIMENSIONAL_EXPONENTS ( 1.000000000000000000, 0.000000000000000000, 0.000000000000000000, 0.000000000000000000, 0.000000000000000000, 0.000000000000000000, 0.000000000000000000 ) ;
#141 =( LENGTH_UNIT ( ) NAMED_UNIT ( * ) SI_UNIT ( $, .METRE. ) );
#142 =( CONVERSION_BASED_UNIT ( 'INCH', #170 ) LENGTH_UNIT ( ) NAMED_UNIT ( #183 ) );
#143 =( CONVERSION_BASED_UNIT ( 'INCH', #148 ) LENGTH_UNIT ( ) NAMED_UNIT ( #163 ) );
#144 = CIRCLE ( 'NONE', #254, 0.06249999999999988204 ) ;
#145 = DIRECTION ( 'NONE',  ( -1.000000000000000000, 0.000000000000000000, 0.000000000000000000 ) ) ;
#146 = CARTESIAN_POINT ( 'NONE',  ( 0.000000000000000000, 0.000000000000000000, -0.06250000000000000000 ) ) ;
#147 = FACE_OUTER_BOUND ( 'NONE', #5, .T. ) ;
#148 = LENGTH_MEASURE_WITH_UNIT ( LENGTH_MEASURE( 0.02539999999999999897 ), #141 );
#149 =( CONVERSION_BASED_UNIT ( 'INCH', #19 ) LENGTH_UNIT ( ) NAMED_UNIT ( #164 ) );
#150 = ORIENTED_EDGE ( 'NONE', *, *, #54, .T. ) ;
#151 = PRESENTATION_LAYER_ASSIGNMENT (  '', '', ( #138 ) ) ;
#152 = FACE_OUTER_BOUND ( 'NONE', #276, .T. ) ;
#153 = EDGE_LOOP ( 'NONE', ( #133, #3, #246, #201 ) ) ;
#154 =( LENGTH_UNIT ( ) NAMED_UNIT ( * ) SI_UNIT ( $, .METRE. ) );
#155 = VERTEX_POINT ( 'NONE', #146 ) ;
#156 = EDGE_CURVE ( 'NONE', #65, #111, #159, .T. ) ;
#157 =( NAMED_UNIT ( * ) PLANE_ANGLE_UNIT ( ) SI_UNIT ( $, .RADIAN. ) );
#158 =( LENGTH_UNIT ( ) NAMED_UNIT ( * ) SI_UNIT ( $, .METRE. ) );
#159 = CIRCLE ( 'NONE', #15, 0.06250000000000000000 ) ;
#160 = PRODUCT_DEFINITION ( 'UNKNOWN', '', #114, #103 ) ;
#161 = DIRECTION ( 'NONE',  ( -9.797174393178824918E-17, -1.000000000000000000, 0.000000000000000000 ) ) ;
#162 = FACE_OUTER_BOUND ( 'NONE', #203, .T. ) ;
#163 = DIMENSIONAL_EXPONENTS ( 1.000000000000000000, 0.000000000000000000, 0.000000000000000000, 0.000000000000000000, 0.000000000000000000, 0.000000000000000000, 0.000000000000000000 ) ;
#164 = DIMENSIONAL_EXPONENTS ( 1.000000000000000000, 0.000000000000000000, 0.000000000000000000, 0.000000000000000000, 0.000000000000000000, 0.000000000000000000, 0.000000000000000000 ) ;
#165 = AXIS2_PLACEMENT_3D ( 'NONE', #12, #161, #13 ) ;
#166 = SURFACE_SIDE_STYLE ('',( #281 ) ) ;
#167 = CARTESIAN_POINT ( 'NONE',  ( 0.000000000000000000, 0.000000000000000000, 0.000000000000000000 ) ) ;
#168 = AXIS2_PLACEMENT_3D ( 'NONE', #59, #223, #199 ) ;
#169 =( NAMED_UNIT ( * ) PLANE_ANGLE_UNIT ( ) SI_UNIT ( $, .RADIAN. ) );
#170 = LENGTH_MEASURE_WITH_UNIT ( LENGTH_MEASURE( 0.02539999999999999897 ), #80 );
#171 = SURFACE_SIDE_STYLE ('',( #243 ) ) ;
#172 = EDGE_LOOP ( 'NONE', ( #248, #112, #91, #195 ) ) ;
#173 = PLANE ( 'NONE',  #46 ) ;
#174 = LINE ( 'NONE', #224, #200 ) ;
#175 = PRODUCT ( '00015', '00015', '', ( #32 ) ) ;
#176 = CARTESIAN_POINT ( 'NONE',  ( 0.000000000000000000, 0.2500000000000000000, -0.06250000000000000000 ) ) ;
#177 = EDGE_LOOP ( 'NONE', ( #134, #150, #230, #129 ) ) ;
#178 = ORIENTED_EDGE ( 'NONE', *, *, #10, .F. ) ;
#179 = CLOSED_SHELL ( 'NONE', ( #286, #269, #82, #234 ) ) ;
#180 = STYLED_ITEM ( 'NONE', ( #187 ), #116 ) ;
#181 = ADVANCED_FACE ( 'NONE', ( #147 ), #124, .F. ) ;
#182 = STYLED_ITEM ( 'NONE', ( #20 ), #286 ) ;
#183 = DIMENSIONAL_EXPONENTS ( 1.000000000000000000, 0.000000000000000000, 0.000000000000000000, 0.000000000000000000, 0.000000000000000000, 0.000000000000000000, 0.000000000000000000 ) ;
#184 = DIRECTION ( 'NONE',  ( 0.000000000000000000, 0.000000000000000000, -1.000000000000000000 ) ) ;
#185 = DIRECTION ( 'NONE',  ( -0.000000000000000000, -1.000000000000000000, -0.000000000000000000 ) ) ;
#186 =( NAMED_UNIT ( * ) PLANE_ANGLE_UNIT ( ) SI_UNIT ( $, .RADIAN. ) );
#187 = PRESENTATION_STYLE_ASSIGNMENT (( #260 ) ) ;
#188 = CARTESIAN_POINT ( 'NONE',  ( 0.000000000000000000, 0.2500000000000000000, 0.000000000000000000 ) ) ;
#189 = UNCERTAINTY_MEASURE_WITH_UNIT (LENGTH_MEASURE( 1.000000000000000082E-05 ), #197, 'distance_accuracy_value', 'NONE');
#190 = DIRECTION ( 'NONE',  ( -1.000000000000000000, 0.000000000000000000, 0.000000000000000000 ) ) ;
#191 = DIRECTION ( 'NONE',  ( 9.797174393178826150E-17, 1.000000000000000000, -0.000000000000000000 ) ) ;
#192 = CARTESIAN_POINT ( 'NONE',  ( 0.000000000000000000, 0.000000000000000000, -0.06250000000000000000 ) ) ;
#193 = APPLICATION_PROTOCOL_DEFINITION ( 'draft international standard', 'automotive_design', 1998, #14 ) ;
#194 = DIRECTION ( 'NONE',  ( 9.797174393178824918E-17, 1.000000000000000000, -0.000000000000000000 ) ) ;
#195 = ORIENTED_EDGE ( 'NONE', *, *, #115, .F. ) ;
#196 = SURFACE_SIDE_STYLE ('',( #245 ) ) ;
#197 =( CONVERSION_BASED_UNIT ( 'INCH', #251 ) LENGTH_UNIT ( ) NAMED_UNIT ( #140 ) );
#198 = AXIS2_PLACEMENT_3D ( 'NONE', #94, #93, #256 ) ;
#199 = DIRECTION ( 'NONE',  ( 1.000000000000000000, 0.000000000000000000, 0.000000000000000000 ) ) ;
#200 = VECTOR ( 'NONE', #275, 39.37007874015748143 ) ;
#201 = ORIENTED_EDGE ( 'NONE', *, *, #207, .F. ) ;
#202 = CARTESIAN_POINT ( 'NONE',  ( 7.654042494670957545E-18, 0.000000000000000000, 0.06250000000000000000 ) ) ;
#203 = EDGE_LOOP ( 'NONE', ( #293, #229 ) ) ;
#204 = EDGE_CURVE ( 'NONE', #84, #226, #27, .T. ) ;
#205 = FILL_AREA_STYLE_COLOUR ( '', #6 ) ;
#206 = DIRECTION ( 'NONE',  ( 9.797174393178826150E-17, 1.000000000000000000, -0.000000000000000000 ) ) ;
#207 = EDGE_CURVE ( 'NONE', #29, #155, #16, .T. ) ;
#208 = FILL_AREA_STYLE ('',( #205 ) ) ;
#209 = SURFACE_SIDE_STYLE ('',( #119 ) ) ;
#210 = DIRECTION ( 'NONE',  ( 0.000000000000000000, 0.000000000000000000, -1.000000000000000000 ) ) ;
#211 = CARTESIAN_POINT ( 'NONE',  ( 7.654042494670957545E-18, 0.2500000000000000000, 0.06250000000000000000 ) ) ;
#212 = FILL_AREA_STYLE ('',( #55 ) ) ;
#213 = CARTESIAN_POINT ( 'NONE',  ( 2.999519565323715729E-34, 0.2500000000000000000, 0.000000000000000000 ) ) ;
#214 = UNCERTAINTY_MEASURE_WITH_UNIT (LENGTH_MEASURE( 1.000000000000000082E-05 ), #143, 'distance_accuracy_value', 'NONE');
#215 = DIRECTION ( 'NONE',  ( 0.000000000000000000, 1.000000000000000000, 0.000000000000000000 ) ) ;
#216 = DIRECTION ( 'NONE',  ( 0.000000000000000000, 0.000000000000000000, -1.000000000000000000 ) ) ;
#217 = VECTOR ( 'NONE', #81, 39.37007874015748143 ) ;
#218 =( GEOMETRIC_REPRESENTATION_CONTEXT ( 3 ) GLOBAL_UNCERTAINTY_ASSIGNED_CONTEXT ( ( #214 ) ) GLOBAL_UNIT_ASSIGNED_CONTEXT ( ( #143, #186, #110 ) ) REPRESENTATION_CONTEXT ( 'NONE', 'WORKASPACE' ) );
#219 = SURFACE_SIDE_STYLE ('',( #77 ) ) ;
#220 = PRESENTATION_STYLE_ASSIGNMENT (( #127 ) ) ;
#221 = UNCERTAINTY_MEASURE_WITH_UNIT (LENGTH_MEASURE( 1.000000000000000082E-05 ), #21, 'distance_accuracy_value', 'NONE');
#222 = PRESENTATION_STYLE_ASSIGNMENT (( #9 ) ) ;
#223 = DIRECTION ( 'NONE',  ( 0.000000000000000000, 0.000000000000000000, 1.000000000000000000 ) ) ;
#224 = CARTESIAN_POINT ( 'NONE',  ( 7.654042494670957545E-18, 0.000000000000000000, 0.06250000000000000000 ) ) ;
#225 = SURFACE_STYLE_FILL_AREA ( #277 ) ;
#226 = VERTEX_POINT ( 'NONE', #176 ) ;
#227 = PRESENTATION_LAYER_ASSIGNMENT (  '', '', ( #182 ) ) ;
#228 = FILL_AREA_STYLE_COLOUR ( '', #40 ) ;
#229 = ORIENTED_EDGE ( 'NONE', *, *, #25, .T. ) ;
#230 = ORIENTED_EDGE ( 'NONE', *, *, #121, .T. ) ;
#231 = EDGE_CURVE ( 'NONE', #111, #68, #86, .T. ) ;
#232 = PLANE ( 'NONE',  #165 ) ;
#233 = DIMENSIONAL_EXPONENTS ( 1.000000000000000000, 0.000000000000000000, 0.000000000000000000, 0.000000000000000000, 0.000000000000000000, 0.000000000000000000, 0.000000000000000000 ) ;
#234 = ADVANCED_FACE ( 'NONE', ( #152 ), #173, .T. ) ;
#235 = FACE_OUTER_BOUND ( 'NONE', #172, .T. ) ;
#236 = SURFACE_STYLE_USAGE ( .BOTH. , #219 ) ;
#237 = PRESENTATION_LAYER_ASSIGNMENT (  '', '', ( #132 ) ) ;
#238 = MECHANICAL_DESIGN_GEOMETRIC_PRESENTATION_REPRESENTATION (  '', ( #7 ), #53 ) ;
#239 = EDGE_CURVE ( 'NONE', #84, #29, #174, .T. ) ;
#240 = DIRECTION ( 'NONE',  ( 9.797174393178826150E-17, 1.000000000000000000, -0.000000000000000000 ) ) ;
#241 = DIRECTION ( 'NONE',  ( -1.000000000000000000, 9.797174393178824918E-17, 0.000000000000000000 ) ) ;
#242 = DIRECTION ( 'NONE',  ( -0.000000000000000000, -1.000000000000000000, -0.000000000000000000 ) ) ;
#243 = SURFACE_STYLE_FILL_AREA ( #87 ) ;
#244 = AXIS2_PLACEMENT_3D ( 'NONE', #63, #67, #30 ) ;
#245 = SURFACE_STYLE_FILL_AREA ( #33 ) ;
#246 = ORIENTED_EDGE ( 'NONE', *, *, #115, .T. ) ;
#247 = CARTESIAN_POINT ( 'NONE',  ( 0.06250000000000005551, 1.500000000000000222, 7.654042494670949841E-18 ) ) ;
#248 = ORIENTED_EDGE ( 'NONE', *, *, #70, .T. ) ;
#249 = SURFACE_STYLE_USAGE ( .BOTH. , #196 ) ;
#250 = SURFACE_STYLE_USAGE ( .BOTH. , #209 ) ;
#251 = LENGTH_MEASURE_WITH_UNIT ( LENGTH_MEASURE( 0.02539999999999999897 ), #158 );
#252 = AXIS2_PLACEMENT_3D ( 'NONE', #305, #191, #145 ) ;
#253 =( NAMED_UNIT ( * ) PLANE_ANGLE_UNIT ( ) SI_UNIT ( $, .RADIAN. ) );
#254 = AXIS2_PLACEMENT_3D ( 'NONE', #38, #88, #273 ) ;
#255 = PRODUCT_DEFINITION_SHAPE ( 'NONE', 'NONE',  #160 ) ;
#256 = DIRECTION ( 'NONE',  ( 0.000000000000000000, 0.000000000000000000, -1.000000000000000000 ) ) ;
#257 = CARTESIAN_POINT ( 'NONE',  ( -0.06250000000000000000, 0.2500000000000000555, 0.000000000000000000 ) ) ;
#258 = PRESENTATION_LAYER_ASSIGNMENT (  '', '', ( #72 ) ) ;
#259 = DIMENSIONAL_EXPONENTS ( 1.000000000000000000, 0.000000000000000000, 0.000000000000000000, 0.000000000000000000, 0.000000000000000000, 0.000000000000000000, 0.000000000000000000 ) ;
#260 = SURFACE_STYLE_USAGE ( .BOTH. , #166 ) ;
#261 = UNCERTAINTY_MEASURE_WITH_UNIT (LENGTH_MEASURE( 1.000000000000000082E-05 ), #83, 'distance_accuracy_value', 'NONE');
#262 = FILL_AREA_STYLE ('',( #97 ) ) ;
#263 = CARTESIAN_POINT ( 'NONE',  ( 0.000000000000000000, 0.000000000000000000, 0.000000000000000000 ) ) ;
#264 = DIRECTION ( 'NONE',  ( -0.000000000000000000, -1.000000000000000000, -0.000000000000000000 ) ) ;
#265 = AXIS2_PLACEMENT_3D ( 'NONE', #280, #101, #190 ) ;
#266 = DIRECTION ( 'NONE',  ( 0.000000000000000000, -0.000000000000000000, 1.000000000000000000 ) ) ;
#267 = DIRECTION ( 'NONE',  ( 9.797174393178824918E-17, 1.000000000000000000, -0.000000000000000000 ) ) ;
#268 =( NAMED_UNIT ( * ) SI_UNIT ( $, .STERADIAN. ) SOLID_ANGLE_UNIT ( ) );
#269 = ADVANCED_FACE ( 'NONE', ( #26 ), #304, .T. ) ;
#270 = ORIENTED_EDGE ( 'NONE', *, *, #156, .F. ) ;
#271 = CIRCLE ( 'NONE', #198, 0.06250000000000000000 ) ;
#272 = DIRECTION ( 'NONE',  ( 0.000000000000000000, -1.000000000000000000, -0.000000000000000000 ) ) ;
#273 = DIRECTION ( 'NONE',  ( -1.000000000000000000, 0.000000000000000000, 0.000000000000000000 ) ) ;
#274 = ORIENTED_EDGE ( 'NONE', *, *, #207, .T. ) ;
#275 = DIRECTION ( 'NONE',  ( -0.000000000000000000, -1.000000000000000000, -0.000000000000000000 ) ) ;
#276 = EDGE_LOOP ( 'NONE', ( #295, #274 ) ) ;
#277 = FILL_AREA_STYLE ('',( #128 ) ) ;
#278 = AXIS2_PLACEMENT_3D ( 'NONE', #291, #90, #34 ) ;
#279 = AXIS2_PLACEMENT_3D ( 'NONE', #188, #215, #266 ) ;
#280 = CARTESIAN_POINT ( 'NONE',  ( 1.224646799147353207E-16, 1.500000000000000222, 0.000000000000000000 ) ) ;
#281 = SURFACE_STYLE_FILL_AREA ( #262 ) ;
#282 =( GEOMETRIC_REPRESENTATION_CONTEXT ( 3 ) GLOBAL_UNCERTAINTY_ASSIGNED_CONTEXT ( ( #189 ) ) GLOBAL_UNIT_ASSIGNED_CONTEXT ( ( #197, #253, #288 ) ) REPRESENTATION_CONTEXT ( 'NONE', 'WORKASPACE' ) );
#283 =( CONVERSION_BASED_UNIT ( 'INCH', #18 ) LENGTH_UNIT ( ) NAMED_UNIT ( #74 ) );
#284 = LENGTH_MEASURE_WITH_UNIT ( LENGTH_MEASURE( 0.02539999999999999897 ), #109 );
#285 =( NAMED_UNIT ( * ) PLANE_ANGLE_UNIT ( ) SI_UNIT ( $, .RADIAN. ) );
#286 = ADVANCED_FACE ( 'NONE', ( #235 ), #126, .T. ) ;
#287 = APPLICATION_PROTOCOL_DEFINITION ( 'draft international standard', 'automotive_design', 1998, #64 ) ;
#288 =( NAMED_UNIT ( * ) SI_UNIT ( $, .STERADIAN. ) SOLID_ANGLE_UNIT ( ) );
#289 = MECHANICAL_DESIGN_GEOMETRIC_PRESENTATION_REPRESENTATION (  '', ( #180 ), #96 ) ;
#290 = MECHANICAL_DESIGN_GEOMETRIC_PRESENTATION_REPRESENTATION (  '', ( #182 ), #299 ) ;
#291 = CARTESIAN_POINT ( 'NONE',  ( 1.224646799147353207E-16, 1.500000000000000222, 0.000000000000000000 ) ) ;
#292 = FILL_AREA_STYLE_COLOUR ( '', #309 ) ;
#293 = ORIENTED_EDGE ( 'NONE', *, *, #10, .T. ) ;
#294 = CARTESIAN_POINT ( 'NONE',  ( -0.06249999999999975714, 1.500000000000000222, 0.000000000000000000 ) ) ;
#295 = ORIENTED_EDGE ( 'NONE', *, *, #137, .T. ) ;
#296 = CLOSED_SHELL ( 'NONE', ( #297, #181, #301, #43 ) ) ;
#297 = ADVANCED_FACE ( 'NONE', ( #307 ), #50, .T. ) ;
#298 = AXIS2_PLACEMENT_3D ( 'NONE', #167, #264, #52 ) ;
#299 =( GEOMETRIC_REPRESENTATION_CONTEXT ( 3 ) GLOBAL_UNCERTAINTY_ASSIGNED_CONTEXT ( ( #79 ) ) GLOBAL_UNIT_ASSIGNED_CONTEXT ( ( #283, #1, #268 ) ) REPRESENTATION_CONTEXT ( 'NONE', 'WORKASPACE' ) );
#300 = DIRECTION ( 'NONE',  ( -1.000000000000000000, 0.000000000000000000, 0.000000000000000000 ) ) ;
#301 = ADVANCED_FACE ( 'NONE', ( #47 ), #120, .T. ) ;
#302 = CARTESIAN_POINT ( 'NONE',  ( -1.516480271171051896E-32, 0.2500000000000000555, 0.000000000000000000 ) ) ;
#303 =( NAMED_UNIT ( * ) SI_UNIT ( $, .STERADIAN. ) SOLID_ANGLE_UNIT ( ) );
#304 = PLANE ( 'NONE',  #279 ) ;
#305 = CARTESIAN_POINT ( 'NONE',  ( 1.224646799147353207E-16, 1.500000000000000222, 0.000000000000000000 ) ) ;
#306 = CARTESIAN_POINT ( 'NONE',  ( 0.06249999999999999306, 0.2500000000000000555, 7.654042494670954463E-18 ) ) ;
#307 = FACE_OUTER_BOUND ( 'NONE', #31, .T. ) ;
#308 = MECHANICAL_DESIGN_GEOMETRIC_PRESENTATION_REPRESENTATION (  '', ( #138 ), #135 ) ;
#309 = COLOUR_RGB ( '',1.000000000000000000, 0.000000000000000000, 0.000000000000000000 ) ;
ENDSEC;
END-ISO-10303-21;
