ISO-10303-21;
HEADER;
FILE_DESCRIPTION (( 'STEP AP214' ),
    '1' );
FILE_NAME ('07010.STEP',
    '2023-07-12T13:04:55',
    ( '' ),
    ( '' ),
    'SwSTEP 2.0',
    'SolidWorks 2023',
    '' );
FILE_SCHEMA (( 'AUTOMOTIVE_DESIGN' ));
ENDSEC;

DATA;
#1 = DIRECTION ( 'NONE',  ( -1.229226395354819692E-16, 1.000000000000000000, -0.000000000000000000 ) ) ;
#2 = UNCERTAINTY_MEASURE_WITH_UNIT (LENGTH_MEASURE( 1.000000000000000082E-05 ), #156, 'distance_accuracy_value', 'NONE');
#3 = ORIENTED_EDGE ( 'NONE', *, *, #205, .F. ) ;
#4 = ADVANCED_FACE ( 'NONE', ( #295 ), #201, .T. ) ;
#5 =( NAMED_UNIT ( * ) SI_UNIT ( $, .STERADIAN. ) SOLID_ANGLE_UNIT ( ) );
#6 =( CONVERSION_BASED_UNIT ( 'INCH', #217 ) LENGTH_UNIT ( ) NAMED_UNIT ( #178 ) );
#7 = UNCERTAINTY_MEASURE_WITH_UNIT (LENGTH_MEASURE( 1.000000000000000082E-05 ), #6, 'distance_accuracy_value', 'NONE');
#8 = AXIS2_PLACEMENT_3D ( 'NONE', #204, #209, #38 ) ;
#9 =( GEOMETRIC_REPRESENTATION_CONTEXT ( 3 ) GLOBAL_UNCERTAINTY_ASSIGNED_CONTEXT ( ( #188 ) ) GLOBAL_UNIT_ASSIGNED_CONTEXT ( ( #77, #298, #176 ) ) REPRESENTATION_CONTEXT ( 'NONE', 'WORKASPACE' ) );
#10 = VERTEX_POINT ( 'NONE', #59 ) ;
#11 = EDGE_LOOP ( 'NONE', ( #3, #73, #293, #269 ) ) ;
#12 = CIRCLE ( 'NONE', #173, 0.04000000000000000083 ) ;
#13 = FILL_AREA_STYLE_COLOUR ( '', #221 ) ;
#14 = FILL_AREA_STYLE ('',( #103 ) ) ;
#15 = DIMENSIONAL_EXPONENTS ( 1.000000000000000000, 0.000000000000000000, 0.000000000000000000, 0.000000000000000000, 0.000000000000000000, 0.000000000000000000, 0.000000000000000000 ) ;
#16 = FACE_OUTER_BOUND ( 'NONE', #290, .T. ) ;
#17 =( NAMED_UNIT ( * ) SI_UNIT ( $, .STERADIAN. ) SOLID_ANGLE_UNIT ( ) );
#18 = DIRECTION ( 'NONE',  ( 0.000000000000000000, 0.000000000000000000, 1.000000000000000000 ) ) ;
#19 = CIRCLE ( 'NONE', #72, 0.2500000000000000555 ) ;
#20 = EDGE_CURVE ( 'NONE', #223, #292, #139, .T. ) ;
#21 = DIRECTION ( 'NONE',  ( 1.000000000000000000, -6.904657778739221357E-18, 0.000000000000000000 ) ) ;
#22 = LENGTH_MEASURE_WITH_UNIT ( LENGTH_MEASURE( 0.02539999999999999897 ), #279 );
#23 = PRODUCT_CONTEXT ( 'NONE', #274, 'mechanical' ) ;
#24 = DIRECTION ( 'NONE',  ( -6.904657778739222128E-18, -1.000000000000000000, -0.000000000000000000 ) ) ;
#25 = CARTESIAN_POINT ( 'NONE',  ( 0.04000000000000000083, 0.000000000000000000, 1.775737858763662224E-17 ) ) ;
#26 = SURFACE_STYLE_FILL_AREA ( #86 ) ;
#27 = CARTESIAN_POINT ( 'NONE',  ( -0.2499999999999999167, 0.2099999999999991873, 0.000000000000000000 ) ) ;
#28 = PLANE ( 'NONE',  #151 ) ;
#29 = VECTOR ( 'NONE', #281, 39.37007874015748143 ) ;
#30 = ORIENTED_EDGE ( 'NONE', *, *, #245, .T. ) ;
#31 = EDGE_CURVE ( 'NONE', #142, #138, #308, .T. ) ;
#32 = VERTEX_POINT ( 'NONE', #227 ) ;
#33 = ORIENTED_EDGE ( 'NONE', *, *, #20, .F. ) ;
#34 = ADVANCED_FACE ( 'NONE', ( #231 ), #198, .T. ) ;
#35 = MECHANICAL_DESIGN_GEOMETRIC_PRESENTATION_REPRESENTATION (  '', ( #164 ), #121 ) ;
#36 = CARTESIAN_POINT ( 'NONE',  ( 1.906971961660162066E-36, 2.761863111495688928E-19, 0.000000000000000000 ) ) ;
#37 = DIMENSIONAL_EXPONENTS ( 1.000000000000000000, 0.000000000000000000, 0.000000000000000000, 0.000000000000000000, 0.000000000000000000, 0.000000000000000000, 0.000000000000000000 ) ;
#38 = DIRECTION ( 'NONE',  ( -1.000000000000000000, -1.365923996832133335E-16, 0.000000000000000000 ) ) ;
#39 = SURFACE_STYLE_USAGE ( .BOTH. , #82 ) ;
#40 = MECHANICAL_DESIGN_GEOMETRIC_PRESENTATION_REPRESENTATION (  '', ( #189 ), #134 ) ;
#41 = DIRECTION ( 'NONE',  ( 1.000000000000000000, -6.904657778739222128E-18, 0.000000000000000000 ) ) ;
#42 = EDGE_CURVE ( 'NONE', #138, #142, #12, .T. ) ;
#43 = STYLED_ITEM ( 'NONE', ( #252 ), #4 ) ;
#44 = CARTESIAN_POINT ( 'NONE',  ( -6.123233995736772199E-17, 3.000000000000000444, 0.000000000000000000 ) ) ;
#45 = CIRCLE ( 'NONE', #257, 0.2499999999999999722 ) ;
#46 =( NAMED_UNIT ( * ) SI_UNIT ( $, .STERADIAN. ) SOLID_ANGLE_UNIT ( ) );
#47 =( NAMED_UNIT ( * ) PLANE_ANGLE_UNIT ( ) SI_UNIT ( $, .RADIAN. ) );
#48 = PRESENTATION_STYLE_ASSIGNMENT (( #70 ) ) ;
#49 = SURFACE_STYLE_FILL_AREA ( #309 ) ;
#50 = DIRECTION ( 'NONE',  ( 1.000000000000000000, 0.000000000000000000, 0.000000000000000000 ) ) ;
#51 = ORIENTED_EDGE ( 'NONE', *, *, #31, .T. ) ;
#52 = ORIENTED_EDGE ( 'NONE', *, *, #20, .T. ) ;
#53 = UNCERTAINTY_MEASURE_WITH_UNIT (LENGTH_MEASURE( 1.000000000000000082E-05 ), #236, 'distance_accuracy_value', 'NONE');
#54 = EDGE_LOOP ( 'NONE', ( #161, #30, #246, #95 ) ) ;
#55 = COLOUR_RGB ( '',0.7921568627450980005, 0.8196078431372548767, 0.9333333333333333481 ) ;
#56 = PRESENTATION_LAYER_ASSIGNMENT (  '', '', ( #190 ) ) ;
#57 = CARTESIAN_POINT ( 'NONE',  ( 0.000000000000000000, 0.000000000000000000, 0.000000000000000000 ) ) ;
#58 = CIRCLE ( 'NONE', #96, 0.2499999999999996947 ) ;
#59 = CARTESIAN_POINT ( 'NONE',  ( -0.2500000000000001110, 3.000000000000000444, 0.000000000000000000 ) ) ;
#60 = CARTESIAN_POINT ( 'NONE',  ( 9.534859808300810328E-37, 1.380931555747844464E-19, 0.000000000000000000 ) ) ;
#61 = SURFACE_STYLE_FILL_AREA ( #144 ) ;
#62 = DIRECTION ( 'NONE',  ( -6.904657778739221357E-18, -1.000000000000000000, 0.000000000000000000 ) ) ;
#63 = FACE_OUTER_BOUND ( 'NONE', #71, .T. ) ;
#64 = EDGE_CURVE ( 'NONE', #141, #32, #58, .T. ) ;
#65 = PLANE ( 'NONE',  #273 ) ;
#66 =( CONVERSION_BASED_UNIT ( 'INCH', #306 ) LENGTH_UNIT ( ) NAMED_UNIT ( #15 ) );
#67 = AXIS2_PLACEMENT_3D ( 'NONE', #235, #177, #299 ) ;
#68 = DIRECTION ( 'NONE',  ( -6.904657778739222128E-18, -1.000000000000000000, -0.000000000000000000 ) ) ;
#69 = FILL_AREA_STYLE_COLOUR ( '', #55 ) ;
#70 = SURFACE_STYLE_USAGE ( .BOTH. , #218 ) ;
#71 = EDGE_LOOP ( 'NONE', ( #197, #99 ) ) ;
#72 = AXIS2_PLACEMENT_3D ( 'NONE', #44, #133, #155 ) ;
#73 = ORIENTED_EDGE ( 'NONE', *, *, #42, .F. ) ;
#74 = ORIENTED_EDGE ( 'NONE', *, *, #64, .T. ) ;
#75 = EDGE_CURVE ( 'NONE', #166, #10, #19, .T. ) ;
#76 = PRESENTATION_STYLE_ASSIGNMENT (( #180 ) ) ;
#77 =( CONVERSION_BASED_UNIT ( 'INCH', #185 ) LENGTH_UNIT ( ) NAMED_UNIT ( #146 ) );
#78 = DIMENSIONAL_EXPONENTS ( 1.000000000000000000, 0.000000000000000000, 0.000000000000000000, 0.000000000000000000, 0.000000000000000000, 0.000000000000000000, 0.000000000000000000 ) ;
#79 =( LENGTH_UNIT ( ) NAMED_UNIT ( * ) SI_UNIT ( $, .METRE. ) );
#80 = FILL_AREA_STYLE ('',( #13 ) ) ;
#81 = PRESENTATION_STYLE_ASSIGNMENT (( #234 ) ) ;
#82 = SURFACE_SIDE_STYLE ('',( #61 ) ) ;
#83 = PRESENTATION_LAYER_ASSIGNMENT (  '', '', ( #254 ) ) ;
#84 =( LENGTH_UNIT ( ) NAMED_UNIT ( * ) SI_UNIT ( $, .METRE. ) );
#85 =( LENGTH_UNIT ( ) NAMED_UNIT ( * ) SI_UNIT ( $, .METRE. ) );
#86 = FILL_AREA_STYLE ('',( #186 ) ) ;
#87 = FACE_OUTER_BOUND ( 'NONE', #194, .T. ) ;
#88 = MANIFOLD_SOLID_BREP ( 'Revolve - Cutting Edge', #181 ) ;
#89 = COLOUR_RGB ( '',1.000000000000000000, 0.000000000000000000, 0.000000000000000000 ) ;
#90 = EDGE_CURVE ( 'NONE', #10, #166, #301, .T. ) ;
#91 = AXIS2_PLACEMENT_3D ( 'NONE', #191, #1, #94 ) ;
#92 = CYLINDRICAL_SURFACE ( 'NONE', #91, 0.2499999999999998612 ) ;
#93 = UNCERTAINTY_MEASURE_WITH_UNIT (LENGTH_MEASURE( 1.000000000000000082E-05 ), #66, 'distance_accuracy_value', 'NONE');
#94 = DIRECTION ( 'NONE',  ( -1.000000000000000000, 0.000000000000000000, 0.000000000000000000 ) ) ;
#95 = ORIENTED_EDGE ( 'NONE', *, *, #75, .F. ) ;
#96 = AXIS2_PLACEMENT_3D ( 'NONE', #260, #302, #304 ) ;
#97 = AXIS2_PLACEMENT_3D ( 'NONE', #130, #249, #125 ) ;
#98 = ORIENTED_EDGE ( 'NONE', *, *, #42, .T. ) ;
#99 = ORIENTED_EDGE ( 'NONE', *, *, #245, .F. ) ;
#100 = MANIFOLD_SOLID_BREP ( 'Revolve - Tool Body (Tipped Off)', #208 ) ;
#101 = ORIENTED_EDGE ( 'NONE', *, *, #230, .F. ) ;
#102 =( NAMED_UNIT ( * ) PLANE_ANGLE_UNIT ( ) SI_UNIT ( $, .RADIAN. ) );
#103 = FILL_AREA_STYLE_COLOUR ( '', #175 ) ;
#104 = CARTESIAN_POINT ( 'NONE',  ( 1.906971961660162066E-36, 2.761863111495688928E-19, 0.000000000000000000 ) ) ;
#105 = DIMENSIONAL_EXPONENTS ( 1.000000000000000000, 0.000000000000000000, 0.000000000000000000, 0.000000000000000000, 0.000000000000000000, 0.000000000000000000, 0.000000000000000000 ) ;
#106 = PRESENTATION_LAYER_ASSIGNMENT (  '', '', ( #114 ) ) ;
#107 = AXIS2_PLACEMENT_3D ( 'NONE', #57, #18, #199 ) ;
#108 = DIRECTION ( 'NONE',  ( 6.904657778739222128E-18, 1.000000000000000000, 0.000000000000000000 ) ) ;
#109 =( LENGTH_UNIT ( ) NAMED_UNIT ( * ) SI_UNIT ( $, .METRE. ) );
#110 =( CONVERSION_BASED_UNIT ( 'INCH', #228 ) LENGTH_UNIT ( ) NAMED_UNIT ( #78 ) );
#111 = CYLINDRICAL_SURFACE ( 'NONE', #239, 0.2499999999999998612 ) ;
#112 =( CONVERSION_BASED_UNIT ( 'INCH', #22 ) LENGTH_UNIT ( ) NAMED_UNIT ( #105 ) );
#113 = SHAPE_DEFINITION_REPRESENTATION ( #171, #219 ) ;
#114 = STYLED_ITEM ( 'NONE', ( #76 ), #34 ) ;
#115 = LINE ( 'NONE', #187, #127 ) ;
#116 = DIRECTION ( 'NONE',  ( -1.000000000000000000, 6.904657778739222128E-18, 0.000000000000000000 ) ) ;
#117 = CARTESIAN_POINT ( 'NONE',  ( -0.2499999999999994171, 0.2099999999999991041, 0.000000000000000000 ) ) ;
#118 = SURFACE_SIDE_STYLE ('',( #49 ) ) ;
#119 = CARTESIAN_POINT ( 'NONE',  ( -0.04000000000000000083, 5.523726222991377856E-19, 0.000000000000000000 ) ) ;
#120 = EDGE_CURVE ( 'NONE', #32, #166, #287, .T. ) ;
#121 =( GEOMETRIC_REPRESENTATION_CONTEXT ( 3 ) GLOBAL_UNCERTAINTY_ASSIGNED_CONTEXT ( ( #53 ) ) GLOBAL_UNIT_ASSIGNED_CONTEXT ( ( #236, #277, #259 ) ) REPRESENTATION_CONTEXT ( 'NONE', 'WORKASPACE' ) );
#122 = ORIENTED_EDGE ( 'NONE', *, *, #205, .T. ) ;
#123 = EDGE_LOOP ( 'NONE', ( #74, #220, #140, #101 ) ) ;
#124 = PRODUCT_RELATED_PRODUCT_CATEGORY ( 'part', '', ( #250 ) ) ;
#125 = DIRECTION ( 'NONE',  ( -1.000000000000000000, -1.229226395354819692E-16, 0.000000000000000000 ) ) ;
#126 = CARTESIAN_POINT ( 'NONE',  ( -0.04000000000000000083, 5.523726222991377856E-19, 0.000000000000000000 ) ) ;
#127 = VECTOR ( 'NONE', #283, 39.37007874015748854 ) ;
#128 = DIMENSIONAL_EXPONENTS ( 1.000000000000000000, 0.000000000000000000, 0.000000000000000000, 0.000000000000000000, 0.000000000000000000, 0.000000000000000000, 0.000000000000000000 ) ;
#129 = CARTESIAN_POINT ( 'NONE',  ( -0.2499999999999999167, 3.000000000000000444, 0.000000000000000000 ) ) ;
#130 = CARTESIAN_POINT ( 'NONE',  ( 2.817218243466271259E-16, 0.2099999999999991873, 0.000000000000000000 ) ) ;
#131 = SURFACE_STYLE_USAGE ( .BOTH. , #118 ) ;
#132 = LENGTH_MEASURE_WITH_UNIT ( LENGTH_MEASURE( 0.02539999999999999897 ), #85 );
#133 = DIRECTION ( 'NONE',  ( -1.229226395354819692E-16, 1.000000000000000000, -0.000000000000000000 ) ) ;
#134 =( GEOMETRIC_REPRESENTATION_CONTEXT ( 3 ) GLOBAL_UNCERTAINTY_ASSIGNED_CONTEXT ( ( #93 ) ) GLOBAL_UNIT_ASSIGNED_CONTEXT ( ( #66, #47, #242 ) ) REPRESENTATION_CONTEXT ( 'NONE', 'WORKASPACE' ) );
#135 = PRODUCT_DEFINITION_FORMATION_WITH_SPECIFIED_SOURCE ( 'ANY', '', #250, .NOT_KNOWN. ) ;
#136 =( LENGTH_UNIT ( ) NAMED_UNIT ( * ) SI_UNIT ( $, .METRE. ) );
#137 = DIRECTION ( 'NONE',  ( 1.000000000000000000, 1.229226395354819692E-16, 0.000000000000000000 ) ) ;
#138 = VERTEX_POINT ( 'NONE', #119 ) ;
#139 = CIRCLE ( 'NONE', #67, 0.2499999999999999722 ) ;
#140 = ORIENTED_EDGE ( 'NONE', *, *, #90, .F. ) ;
#141 = VERTEX_POINT ( 'NONE', #117 ) ;
#142 = VERTEX_POINT ( 'NONE', #25 ) ;
#143 = PRODUCT_DEFINITION_CONTEXT ( 'detailed design', #153, 'design' ) ;
#144 = FILL_AREA_STYLE ('',( #203 ) ) ;
#145 = DIRECTION ( 'NONE',  ( 6.904657778739221357E-18, 1.000000000000000000, 0.000000000000000000 ) ) ;
#146 = DIMENSIONAL_EXPONENTS ( 1.000000000000000000, 0.000000000000000000, 0.000000000000000000, 0.000000000000000000, 0.000000000000000000, 0.000000000000000000, 0.000000000000000000 ) ;
#147 = SURFACE_STYLE_FILL_AREA ( #80 ) ;
#148 = APPLICATION_PROTOCOL_DEFINITION ( 'draft international standard', 'automotive_design', 1998, #274 ) ;
#149 = SURFACE_SIDE_STYLE ('',( #150 ) ) ;
#150 = SURFACE_STYLE_FILL_AREA ( #14 ) ;
#151 = AXIS2_PLACEMENT_3D ( 'NONE', #202, #145, #229 ) ;
#152 =( NAMED_UNIT ( * ) PLANE_ANGLE_UNIT ( ) SI_UNIT ( $, .RADIAN. ) );
#153 = APPLICATION_CONTEXT ( 'automotive_design' ) ;
#154 = PLANE ( 'NONE',  #97 ) ;
#155 = DIRECTION ( 'NONE',  ( -1.000000000000000000, 0.000000000000000000, 0.000000000000000000 ) ) ;
#156 =( CONVERSION_BASED_UNIT ( 'INCH', #237 ) LENGTH_UNIT ( ) NAMED_UNIT ( #37 ) );
#157 = CARTESIAN_POINT ( 'NONE',  ( 1.906971961660162066E-36, 2.761863111495688928E-19, 0.000000000000000000 ) ) ;
#158 = MECHANICAL_DESIGN_GEOMETRIC_PRESENTATION_REPRESENTATION (  '', ( #190 ), #9 ) ;
#159 = DIRECTION ( 'NONE',  ( -1.229226395354819692E-16, 1.000000000000000000, -0.000000000000000000 ) ) ;
#160 = DIRECTION ( 'NONE',  ( 1.229226395354819692E-16, -1.000000000000000000, 0.000000000000000000 ) ) ;
#161 = ORIENTED_EDGE ( 'NONE', *, *, #120, .F. ) ;
#162 =( NAMED_UNIT ( * ) PLANE_ANGLE_UNIT ( ) SI_UNIT ( $, .RADIAN. ) );
#163 = SURFACE_STYLE_FILL_AREA ( #243 ) ;
#164 = STYLED_ITEM ( 'NONE', ( #48 ), #224 ) ;
#165 = PRESENTATION_LAYER_ASSIGNMENT (  '', '', ( #164 ) ) ;
#166 = VERTEX_POINT ( 'NONE', #214 ) ;
#167 = ORIENTED_EDGE ( 'NONE', *, *, #90, .T. ) ;
#168 = ADVANCED_FACE ( 'NONE', ( #307 ), #92, .T. ) ;
#169 = UNCERTAINTY_MEASURE_WITH_UNIT (LENGTH_MEASURE( 1.000000000000000082E-05 ), #110, 'distance_accuracy_value', 'NONE');
#170 = ORIENTED_EDGE ( 'NONE', *, *, #288, .F. ) ;
#171 = PRODUCT_DEFINITION_SHAPE ( 'NONE', 'NONE',  #232 ) ;
#172 = EDGE_CURVE ( 'NONE', #292, #223, #45, .T. ) ;
#173 = AXIS2_PLACEMENT_3D ( 'NONE', #157, #24, #213 ) ;
#174 = ADVANCED_FACE ( 'NONE', ( #87 ), #65, .F. ) ;
#175 = COLOUR_RGB ( '',1.000000000000000000, 0.000000000000000000, 0.000000000000000000 ) ;
#176 =( NAMED_UNIT ( * ) SI_UNIT ( $, .STERADIAN. ) SOLID_ANGLE_UNIT ( ) );
#177 = DIRECTION ( 'NONE',  ( -6.904657778739222128E-18, -1.000000000000000000, -0.000000000000000000 ) ) ;
#178 = DIMENSIONAL_EXPONENTS ( 1.000000000000000000, 0.000000000000000000, 0.000000000000000000, 0.000000000000000000, 0.000000000000000000, 0.000000000000000000, 0.000000000000000000 ) ;
#179 = FACE_OUTER_BOUND ( 'NONE', #54, .T. ) ;
#180 = SURFACE_STYLE_USAGE ( .BOTH. , #296 ) ;
#181 = CLOSED_SHELL ( 'NONE', ( #4, #224, #34, #266 ) ) ;
#182 = DIRECTION ( 'NONE',  ( -1.000000000000000000, 0.000000000000000000, 0.000000000000000000 ) ) ;
#183 = AXIS2_PLACEMENT_3D ( 'NONE', #104, #108, #258 ) ;
#184 = CARTESIAN_POINT ( 'NONE',  ( 1.906971961660162066E-36, 2.761863111495688928E-19, 0.000000000000000000 ) ) ;
#185 = LENGTH_MEASURE_WITH_UNIT ( LENGTH_MEASURE( 0.02539999999999999897 ), #109 );
#186 = FILL_AREA_STYLE_COLOUR ( '', #294 ) ;
#187 = CARTESIAN_POINT ( 'NONE',  ( 0.04000000000000000083, 0.000000000000000000, 4.898587196589413537E-18 ) ) ;
#188 = UNCERTAINTY_MEASURE_WITH_UNIT (LENGTH_MEASURE( 1.000000000000000082E-05 ), #77, 'distance_accuracy_value', 'NONE');
#189 = STYLED_ITEM ( 'NONE', ( #284 ), #88 ) ;
#190 = STYLED_ITEM ( 'NONE', ( #81 ), #266 ) ;
#191 = CARTESIAN_POINT ( 'NONE',  ( -6.123233995736772199E-17, 3.000000000000000444, 0.000000000000000000 ) ) ;
#192 = FILL_AREA_STYLE_COLOUR ( '', #297 ) ;
#193 = ORIENTED_EDGE ( 'NONE', *, *, #75, .T. ) ;
#194 = EDGE_LOOP ( 'NONE', ( #167, #193 ) ) ;
#195 = DIRECTION ( 'NONE',  ( -0.7071067811865486830, 0.7071067811865462405, 0.000000000000000000 ) ) ;
#196 = ORIENTED_EDGE ( 'NONE', *, *, #172, .F. ) ;
#197 = ORIENTED_EDGE ( 'NONE', *, *, #64, .F. ) ;
#198 = CONICAL_SURFACE ( 'NONE', #210, 0.04000000000000000083, 0.7853981633974500554 ) ;
#199 = DIRECTION ( 'NONE',  ( 1.000000000000000000, 0.000000000000000000, 0.000000000000000000 ) ) ;
#200 =( NAMED_UNIT ( * ) SI_UNIT ( $, .STERADIAN. ) SOLID_ANGLE_UNIT ( ) );
#201 = CONICAL_SURFACE ( 'NONE', #183, 0.04000000000000000083, 0.7853981633974500554 ) ;
#202 = CARTESIAN_POINT ( 'NONE',  ( 1.449978133535231054E-18, 0.2099999999999991873, 0.000000000000000000 ) ) ;
#203 = FILL_AREA_STYLE_COLOUR ( '', #89 ) ;
#204 = CARTESIAN_POINT ( 'NONE',  ( 2.817218243466270766E-16, 0.2099999999999991318, 0.000000000000000000 ) ) ;
#205 = EDGE_CURVE ( 'NONE', #142, #223, #115, .T. ) ;
#206 = DIRECTION ( 'NONE',  ( -6.904657778739222128E-18, -1.000000000000000000, -0.000000000000000000 ) ) ;
#207 = CARTESIAN_POINT ( 'NONE',  ( -6.123233995736772199E-17, 3.000000000000000444, 0.000000000000000000 ) ) ;
#208 = CLOSED_SHELL ( 'NONE', ( #168, #285, #276, #174 ) ) ;
#209 = DIRECTION ( 'NONE',  ( -1.229226395354819692E-16, 1.000000000000000000, -0.000000000000000000 ) ) ;
#210 = AXIS2_PLACEMENT_3D ( 'NONE', #184, #255, #116 ) ;
#211 = CARTESIAN_POINT ( 'NONE',  ( -6.123233995736772199E-17, 3.000000000000000444, 0.000000000000000000 ) ) ;
#212 = CARTESIAN_POINT ( 'NONE',  ( 0.2499999999999998057, 3.000000000000000444, 3.061616997868381785E-17 ) ) ;
#213 = DIRECTION ( 'NONE',  ( 1.000000000000000000, -6.904657778739222128E-18, 0.000000000000000000 ) ) ;
#214 = CARTESIAN_POINT ( 'NONE',  ( 0.2500000000000000000, 3.000000000000000444, 3.061616997868383018E-17 ) ) ;
#215 = DIRECTION ( 'NONE',  ( -1.000000000000000000, 0.000000000000000000, 0.000000000000000000 ) ) ;
#216 = PRESENTATION_LAYER_ASSIGNMENT (  '', '', ( #189 ) ) ;
#217 = LENGTH_MEASURE_WITH_UNIT ( LENGTH_MEASURE( 0.02539999999999999897 ), #272 );
#218 = SURFACE_SIDE_STYLE ('',( #163 ) ) ;
#219 = ADVANCED_BREP_SHAPE_REPRESENTATION ( '07010', ( #88, #100, #107 ), #263 ) ;
#220 = ORIENTED_EDGE ( 'NONE', *, *, #120, .T. ) ;
#221 = COLOUR_RGB ( '',1.000000000000000000, 0.000000000000000000, 0.000000000000000000 ) ;
#222 = EDGE_LOOP ( 'NONE', ( #196, #33 ) ) ;
#223 = VERTEX_POINT ( 'NONE', #244 ) ;
#224 = ADVANCED_FACE ( 'NONE', ( #303 ), #28, .T. ) ;
#225 =( GEOMETRIC_REPRESENTATION_CONTEXT ( 3 ) GLOBAL_UNCERTAINTY_ASSIGNED_CONTEXT ( ( #2 ) ) GLOBAL_UNIT_ASSIGNED_CONTEXT ( ( #156, #264, #46 ) ) REPRESENTATION_CONTEXT ( 'NONE', 'WORKASPACE' ) );
#226 = PRESENTATION_LAYER_ASSIGNMENT (  '', '', ( #43 ) ) ;
#227 = CARTESIAN_POINT ( 'NONE',  ( 0.2499999999999999722, 0.2099999999999991596, 3.061616997868383018E-17 ) ) ;
#228 = LENGTH_MEASURE_WITH_UNIT ( LENGTH_MEASURE( 0.02539999999999999897 ), #79 );
#229 = DIRECTION ( 'NONE',  ( -1.000000000000000000, 6.904657778739221357E-18, 0.000000000000000000 ) ) ;
#230 = EDGE_CURVE ( 'NONE', #141, #10, #256, .T. ) ;
#231 = FACE_OUTER_BOUND ( 'NONE', #11, .T. ) ;
#232 = PRODUCT_DEFINITION ( 'UNKNOWN', '', #135, #143 ) ;
#233 = MECHANICAL_DESIGN_GEOMETRIC_PRESENTATION_REPRESENTATION (  '', ( #254 ), #225 ) ;
#234 = SURFACE_STYLE_USAGE ( .BOTH. , #149 ) ;
#235 = CARTESIAN_POINT ( 'NONE',  ( 1.449978133535231054E-18, 0.2099999999999991873, 0.000000000000000000 ) ) ;
#236 =( CONVERSION_BASED_UNIT ( 'INCH', #132 ) LENGTH_UNIT ( ) NAMED_UNIT ( #128 ) );
#237 = LENGTH_MEASURE_WITH_UNIT ( LENGTH_MEASURE( 0.02539999999999999897 ), #136 );
#238 = AXIS2_PLACEMENT_3D ( 'NONE', #211, #159, #215 ) ;
#239 = AXIS2_PLACEMENT_3D ( 'NONE', #207, #300, #182 ) ;
#240 = PRESENTATION_STYLE_ASSIGNMENT (( #131 ) ) ;
#241 = DIRECTION ( 'NONE',  ( -1.229226395354819692E-16, 1.000000000000000000, -0.000000000000000000 ) ) ;
#242 =( NAMED_UNIT ( * ) SI_UNIT ( $, .STERADIAN. ) SOLID_ANGLE_UNIT ( ) );
#243 = FILL_AREA_STYLE ('',( #192 ) ) ;
#244 = CARTESIAN_POINT ( 'NONE',  ( 0.2499999999999999167, 0.2099999999999991873, 3.061616997868382402E-17 ) ) ;
#245 = EDGE_CURVE ( 'NONE', #32, #141, #247, .T. ) ;
#246 = ORIENTED_EDGE ( 'NONE', *, *, #230, .T. ) ;
#247 = CIRCLE ( 'NONE', #8, 0.2499999999999996947 ) ;
#248 = AXIS2_PLACEMENT_3D ( 'NONE', #60, #62, #21 ) ;
#249 = DIRECTION ( 'NONE',  ( -1.229226395354819692E-16, 1.000000000000000000, 0.000000000000000000 ) ) ;
#250 = PRODUCT ( '07010', '07010', '', ( #23 ) ) ;
#251 = VECTOR ( 'NONE', #195, 39.37007874015748854 ) ;
#252 = PRESENTATION_STYLE_ASSIGNMENT (( #39 ) ) ;
#253 = APPLICATION_PROTOCOL_DEFINITION ( 'draft international standard', 'automotive_design', 1998, #153 ) ;
#254 = STYLED_ITEM ( 'NONE', ( #240 ), #100 ) ;
#255 = DIRECTION ( 'NONE',  ( 6.904657778739222128E-18, 1.000000000000000000, 0.000000000000000000 ) ) ;
#256 = LINE ( 'NONE', #129, #29 ) ;
#257 = AXIS2_PLACEMENT_3D ( 'NONE', #261, #68, #50 ) ;
#258 = DIRECTION ( 'NONE',  ( -1.000000000000000000, 6.904657778739222128E-18, 0.000000000000000000 ) ) ;
#259 =( NAMED_UNIT ( * ) SI_UNIT ( $, .STERADIAN. ) SOLID_ANGLE_UNIT ( ) );
#260 = CARTESIAN_POINT ( 'NONE',  ( 2.817218243466270766E-16, 0.2099999999999991318, 0.000000000000000000 ) ) ;
#261 = CARTESIAN_POINT ( 'NONE',  ( 1.449978133535231054E-18, 0.2099999999999991873, 0.000000000000000000 ) ) ;
#262 =( GEOMETRIC_REPRESENTATION_CONTEXT ( 3 ) GLOBAL_UNCERTAINTY_ASSIGNED_CONTEXT ( ( #291 ) ) GLOBAL_UNIT_ASSIGNED_CONTEXT ( ( #112, #102, #17 ) ) REPRESENTATION_CONTEXT ( 'NONE', 'WORKASPACE' ) );
#263 =( GEOMETRIC_REPRESENTATION_CONTEXT ( 3 ) GLOBAL_UNCERTAINTY_ASSIGNED_CONTEXT ( ( #7 ) ) GLOBAL_UNIT_ASSIGNED_CONTEXT ( ( #6, #162, #5 ) ) REPRESENTATION_CONTEXT ( 'NONE', 'WORKASPACE' ) );
#264 =( NAMED_UNIT ( * ) PLANE_ANGLE_UNIT ( ) SI_UNIT ( $, .RADIAN. ) );
#265 = SURFACE_STYLE_USAGE ( .BOTH. , #286 ) ;
#266 = ADVANCED_FACE ( 'NONE', ( #16 ), #278, .T. ) ;
#267 = ORIENTED_EDGE ( 'NONE', *, *, #31, .F. ) ;
#268 = VECTOR ( 'NONE', #241, 39.37007874015748143 ) ;
#269 = ORIENTED_EDGE ( 'NONE', *, *, #172, .T. ) ;
#270 = LINE ( 'NONE', #126, #251 ) ;
#271 = EDGE_LOOP ( 'NONE', ( #267, #122, #52, #170 ) ) ;
#272 =( LENGTH_UNIT ( ) NAMED_UNIT ( * ) SI_UNIT ( $, .METRE. ) );
#273 = AXIS2_PLACEMENT_3D ( 'NONE', #305, #160, #137 ) ;
#274 = APPLICATION_CONTEXT ( 'automotive_design' ) ;
#275 = AXIS2_PLACEMENT_3D ( 'NONE', #36, #206, #41 ) ;
#276 = ADVANCED_FACE ( 'NONE', ( #179 ), #111, .T. ) ;
#277 =( NAMED_UNIT ( * ) PLANE_ANGLE_UNIT ( ) SI_UNIT ( $, .RADIAN. ) );
#278 = PLANE ( 'NONE',  #248 ) ;
#279 =( LENGTH_UNIT ( ) NAMED_UNIT ( * ) SI_UNIT ( $, .METRE. ) );
#280 =( GEOMETRIC_REPRESENTATION_CONTEXT ( 3 ) GLOBAL_UNCERTAINTY_ASSIGNED_CONTEXT ( ( #169 ) ) GLOBAL_UNIT_ASSIGNED_CONTEXT ( ( #110, #152, #200 ) ) REPRESENTATION_CONTEXT ( 'NONE', 'WORKASPACE' ) );
#281 = DIRECTION ( 'NONE',  ( -1.229226395354819692E-16, 1.000000000000000000, -0.000000000000000000 ) ) ;
#282 = MECHANICAL_DESIGN_GEOMETRIC_PRESENTATION_REPRESENTATION (  '', ( #43 ), #280 ) ;
#283 = DIRECTION ( 'NONE',  ( 0.7071067811865486830, 0.7071067811865462405, 8.659560562354947649E-17 ) ) ;
#284 = PRESENTATION_STYLE_ASSIGNMENT (( #265 ) ) ;
#285 = ADVANCED_FACE ( 'NONE', ( #63 ), #154, .F. ) ;
#286 = SURFACE_SIDE_STYLE ('',( #26 ) ) ;
#287 = LINE ( 'NONE', #212, #268 ) ;
#288 = EDGE_CURVE ( 'NONE', #138, #292, #270, .T. ) ;
#289 = MECHANICAL_DESIGN_GEOMETRIC_PRESENTATION_REPRESENTATION (  '', ( #114 ), #262 ) ;
#290 = EDGE_LOOP ( 'NONE', ( #98, #51 ) ) ;
#291 = UNCERTAINTY_MEASURE_WITH_UNIT (LENGTH_MEASURE( 1.000000000000000082E-05 ), #112, 'distance_accuracy_value', 'NONE');
#292 = VERTEX_POINT ( 'NONE', #27 ) ;
#293 = ORIENTED_EDGE ( 'NONE', *, *, #288, .T. ) ;
#294 = COLOUR_RGB ( '',0.7921568627450980005, 0.8196078431372548767, 0.9333333333333333481 ) ;
#295 = FACE_OUTER_BOUND ( 'NONE', #271, .T. ) ;
#296 = SURFACE_SIDE_STYLE ('',( #147 ) ) ;
#297 = COLOUR_RGB ( '',1.000000000000000000, 0.000000000000000000, 0.000000000000000000 ) ;
#298 =( NAMED_UNIT ( * ) PLANE_ANGLE_UNIT ( ) SI_UNIT ( $, .RADIAN. ) );
#299 = DIRECTION ( 'NONE',  ( 1.000000000000000000, 0.000000000000000000, 0.000000000000000000 ) ) ;
#300 = DIRECTION ( 'NONE',  ( -1.229226395354819692E-16, 1.000000000000000000, -0.000000000000000000 ) ) ;
#301 = CIRCLE ( 'NONE', #238, 0.2500000000000000555 ) ;
#302 = DIRECTION ( 'NONE',  ( -1.229226395354819692E-16, 1.000000000000000000, -0.000000000000000000 ) ) ;
#303 = FACE_OUTER_BOUND ( 'NONE', #222, .T. ) ;
#304 = DIRECTION ( 'NONE',  ( -1.000000000000000000, -1.365923996832133335E-16, 0.000000000000000000 ) ) ;
#305 = CARTESIAN_POINT ( 'NONE',  ( 0.2500000000000000000, 3.000000000000000444, 0.000000000000000000 ) ) ;
#306 = LENGTH_MEASURE_WITH_UNIT ( LENGTH_MEASURE( 0.02539999999999999897 ), #84 );
#307 = FACE_OUTER_BOUND ( 'NONE', #123, .T. ) ;
#308 = CIRCLE ( 'NONE', #275, 0.04000000000000000083 ) ;
#309 = FILL_AREA_STYLE ('',( #69 ) ) ;
ENDSEC;
END-ISO-10303-21;
