ISO-10303-21;
HEADER;
FILE_DESCRIPTION (( 'STEP AP214' ),
    '1' );
FILE_NAME ('59612.STEP',
    '2023-07-24T15:50:23',
    ( '' ),
    ( '' ),
    'SwSTEP 2.0',
    'SolidWorks 2023',
    '' );
FILE_SCHEMA (( 'AUTOMOTIVE_DESIGN' ));
ENDSEC;

DATA;
#1 = STYLED_ITEM ( 'NONE', ( #281 ), #106 ) ;
#2 =( LENGTH_UNIT ( ) NAMED_UNIT ( * ) SI_UNIT ( .MILLI., .METRE. ) );
#3 = ORIENTED_EDGE ( 'NONE', *, *, #98, .F. ) ;
#4 = MECHANICAL_DESIGN_GEOMETRIC_PRESENTATION_REPRESENTATION (  '', ( #88 ), #48 ) ;
#5 = DIRECTION ( 'NONE',  ( -1.000000000000000000, 0.000000000000000000, 0.000000000000000000 ) ) ;
#6 = ORIENTED_EDGE ( 'NONE', *, *, #7, .T. ) ;
#7 = EDGE_CURVE ( 'NONE', #50, #117, #163, .T. ) ;
#8 = CARTESIAN_POINT ( 'NONE',  ( 0.000000000000000000, 25.00000000000000000, -5.000000000000000000 ) ) ;
#9 = ORIENTED_EDGE ( 'NONE', *, *, #208, .F. ) ;
#10 = ORIENTED_EDGE ( 'NONE', *, *, #188, .F. ) ;
#11 = PRODUCT_DEFINITION_FORMATION_WITH_SPECIFIED_SOURCE ( 'ANY', '', #156, .NOT_KNOWN. ) ;
#12 = MECHANICAL_DESIGN_GEOMETRIC_PRESENTATION_REPRESENTATION (  '', ( #122 ), #211 ) ;
#13 = AXIS2_PLACEMENT_3D ( 'NONE', #35, #138, #31 ) ;
#14 = LINE ( 'NONE', #39, #195 ) ;
#15 = CYLINDRICAL_SURFACE ( 'NONE', #243, 5.000000000000000000 ) ;
#16 = COLOUR_RGB ( '',1.000000000000000000, 0.000000000000000000, 0.000000000000000000 ) ;
#17 = UNCERTAINTY_MEASURE_WITH_UNIT (LENGTH_MEASURE( 1.000000000000000082E-05 ), #190, 'distance_accuracy_value', 'NONE');
#18 = SURFACE_STYLE_USAGE ( .BOTH. , #261 ) ;
#19 = VECTOR ( 'NONE', #116, 1000.000000000000000 ) ;
#20 = SURFACE_SIDE_STYLE ('',( #219 ) ) ;
#21 = AXIS2_PLACEMENT_3D ( 'NONE', #154, #81, #150 ) ;
#22 = ORIENTED_EDGE ( 'NONE', *, *, #53, .T. ) ;
#23 = ADVANCED_BREP_SHAPE_REPRESENTATION ( '59612', ( #206, #106, #222 ), #102 ) ;
#24 = DIRECTION ( 'NONE',  ( -0.000000000000000000, -1.000000000000000000, -0.000000000000000000 ) ) ;
#25 = VERTEX_POINT ( 'NONE', #232 ) ;
#26 = AXIS2_PLACEMENT_3D ( 'NONE', #71, #200, #269 ) ;
#27 = DIRECTION ( 'NONE',  ( -0.000000000000000000, -1.000000000000000000, -0.000000000000000000 ) ) ;
#28 = EDGE_LOOP ( 'NONE', ( #9, #267, #155, #129 ) ) ;
#29 = PRESENTATION_LAYER_ASSIGNMENT (  '', '', ( #173 ) ) ;
#30 = AXIS2_PLACEMENT_3D ( 'NONE', #85, #24, #44 ) ;
#31 = DIRECTION ( 'NONE',  ( 0.000000000000000000, 0.000000000000000000, -1.000000000000000000 ) ) ;
#32 = DIRECTION ( 'NONE',  ( -1.000000000000000000, 1.224646799147352961E-16, 0.000000000000000000 ) ) ;
#33 = CARTESIAN_POINT ( 'NONE',  ( 5.000000000000003553, 75.00000000000000000, 6.123233995736763324E-16 ) ) ;
#34 = SURFACE_STYLE_FILL_AREA ( #235 ) ;
#35 = CARTESIAN_POINT ( 'NONE',  ( 0.000000000000000000, 25.00000000000000000, 0.000000000000000000 ) ) ;
#36 = DIRECTION ( 'NONE',  ( 1.224646799147352961E-16, 1.000000000000000000, -0.000000000000000000 ) ) ;
#37 = PRESENTATION_LAYER_ASSIGNMENT (  '', '', ( #119 ) ) ;
#38 = AXIS2_PLACEMENT_3D ( 'NONE', #128, #27, #287 ) ;
#39 = CARTESIAN_POINT ( 'NONE',  ( 0.000000000000000000, 0.000000000000000000, -5.000000000000000000 ) ) ;
#40 = UNCERTAINTY_MEASURE_WITH_UNIT (LENGTH_MEASURE( 1.000000000000000082E-05 ), #2, 'distance_accuracy_value', 'NONE');
#41 = FILL_AREA_STYLE ('',( #224 ) ) ;
#42 = EDGE_CURVE ( 'NONE', #193, #50, #182, .T. ) ;
#43 = FILL_AREA_STYLE_COLOUR ( '', #104 ) ;
#44 = DIRECTION ( 'NONE',  ( 0.000000000000000000, 0.000000000000000000, -1.000000000000000000 ) ) ;
#45 = ORIENTED_EDGE ( 'NONE', *, *, #220, .F. ) ;
#46 = DIRECTION ( 'NONE',  ( 1.000000000000000000, 0.000000000000000000, 0.000000000000000000 ) ) ;
#47 = CYLINDRICAL_SURFACE ( 'NONE', #72, 5.000000000000000000 ) ;
#48 =( GEOMETRIC_REPRESENTATION_CONTEXT ( 3 ) GLOBAL_UNCERTAINTY_ASSIGNED_CONTEXT ( ( #247 ) ) GLOBAL_UNIT_ASSIGNED_CONTEXT ( ( #236, #58, #165 ) ) REPRESENTATION_CONTEXT ( 'NONE', 'WORKASPACE' ) );
#49 = DIRECTION ( 'NONE',  ( 1.224646799147352961E-16, 1.000000000000000000, -0.000000000000000000 ) ) ;
#50 = VERTEX_POINT ( 'NONE', #209 ) ;
#51 = CIRCLE ( 'NONE', #38, 5.000000000000000000 ) ;
#52 = ORIENTED_EDGE ( 'NONE', *, *, #53, .F. ) ;
#53 = EDGE_CURVE ( 'NONE', #164, #117, #177, .T. ) ;
#54 = EDGE_LOOP ( 'NONE', ( #134, #274, #254, #118 ) ) ;
#55 = AXIS2_PLACEMENT_3D ( 'NONE', #110, #271, #160 ) ;
#56 = PRESENTATION_LAYER_ASSIGNMENT (  '', '', ( #1 ) ) ;
#57 = EDGE_CURVE ( 'NONE', #117, #164, #135, .T. ) ;
#58 =( NAMED_UNIT ( * ) PLANE_ANGLE_UNIT ( ) SI_UNIT ( $, .RADIAN. ) );
#59 =( GEOMETRIC_REPRESENTATION_CONTEXT ( 3 ) GLOBAL_UNCERTAINTY_ASSIGNED_CONTEXT ( ( #148 ) ) GLOBAL_UNIT_ASSIGNED_CONTEXT ( ( #248, #101, #226 ) ) REPRESENTATION_CONTEXT ( 'NONE', 'WORKASPACE' ) );
#60 = CARTESIAN_POINT ( 'NONE',  ( -7.703719777548943412E-31, 25.00000000000000000, 0.000000000000000000 ) ) ;
#61 = MECHANICAL_DESIGN_GEOMETRIC_PRESENTATION_REPRESENTATION (  '', ( #173 ), #59 ) ;
#62 = ADVANCED_FACE ( 'NONE', ( #256 ), #258, .F. ) ;
#63 = FACE_OUTER_BOUND ( 'NONE', #237, .T. ) ;
#64 = SURFACE_STYLE_FILL_AREA ( #41 ) ;
#65 = CARTESIAN_POINT ( 'NONE',  ( -5.000000000000000000, 25.00000000000000000, 0.000000000000000000 ) ) ;
#66 = CLOSED_SHELL ( 'NONE', ( #93, #201, #123, #167 ) ) ;
#67 = DIRECTION ( 'NONE',  ( 1.224646799147352961E-16, 1.000000000000000000, -0.000000000000000000 ) ) ;
#68 = ADVANCED_FACE ( 'NONE', ( #158 ), #230, .F. ) ;
#69 = ORIENTED_EDGE ( 'NONE', *, *, #208, .T. ) ;
#70 = FACE_OUTER_BOUND ( 'NONE', #252, .T. ) ;
#71 = CARTESIAN_POINT ( 'NONE',  ( 6.123233995736762930E-15, 75.00000000000000000, 0.000000000000000000 ) ) ;
#72 = AXIS2_PLACEMENT_3D ( 'NONE', #76, #143, #260 ) ;
#73 = DIRECTION ( 'NONE',  ( -1.000000000000000000, 0.000000000000000000, 0.000000000000000000 ) ) ;
#74 = CARTESIAN_POINT ( 'NONE',  ( 0.000000000000000000, 0.000000000000000000, 0.000000000000000000 ) ) ;
#75 = VERTEX_POINT ( 'NONE', #8 ) ;
#76 = CARTESIAN_POINT ( 'NONE',  ( 0.000000000000000000, 0.000000000000000000, 0.000000000000000000 ) ) ;
#77 = DIRECTION ( 'NONE',  ( -0.000000000000000000, -1.000000000000000000, -0.000000000000000000 ) ) ;
#78 = CARTESIAN_POINT ( 'NONE',  ( 6.123233995736766282E-16, 0.000000000000000000, 5.000000000000000000 ) ) ;
#79 = VECTOR ( 'NONE', #162, 1000.000000000000000 ) ;
#80 = FILL_AREA_STYLE_COLOUR ( '', #16 ) ;
#81 = DIRECTION ( 'NONE',  ( 0.000000000000000000, 1.000000000000000000, 0.000000000000000000 ) ) ;
#82 = CARTESIAN_POINT ( 'NONE',  ( 0.000000000000000000, 0.000000000000000000, 0.000000000000000000 ) ) ;
#83 = COLOUR_RGB ( '',1.000000000000000000, 0.000000000000000000, 0.000000000000000000 ) ;
#84 = COLOUR_RGB ( '',1.000000000000000000, 0.000000000000000000, 0.000000000000000000 ) ;
#85 = CARTESIAN_POINT ( 'NONE',  ( 0.000000000000000000, 25.00000000000000000, 0.000000000000000000 ) ) ;
#86 = CARTESIAN_POINT ( 'NONE',  ( 6.123233995736762930E-15, 75.00000000000000000, 0.000000000000000000 ) ) ;
#87 = EDGE_LOOP ( 'NONE', ( #207, #151 ) ) ;
#88 = STYLED_ITEM ( 'NONE', ( #92 ), #93 ) ;
#89 = ORIENTED_EDGE ( 'NONE', *, *, #57, .T. ) ;
#90 = MECHANICAL_DESIGN_GEOMETRIC_PRESENTATION_REPRESENTATION (  '', ( #1 ), #225 ) ;
#91 = FACE_OUTER_BOUND ( 'NONE', #180, .T. ) ;
#92 = PRESENTATION_STYLE_ASSIGNMENT (( #205 ) ) ;
#93 = ADVANCED_FACE ( 'NONE', ( #91 ), #47, .T. ) ;
#94 = CARTESIAN_POINT ( 'NONE',  ( 6.123233995736766282E-16, 0.000000000000000000, 5.000000000000000000 ) ) ;
#95 = EDGE_LOOP ( 'NONE', ( #22, #89 ) ) ;
#96 = PRESENTATION_LAYER_ASSIGNMENT (  '', '', ( #122 ) ) ;
#97 = DIRECTION ( 'NONE',  ( -1.000000000000000000, 0.000000000000000000, 0.000000000000000000 ) ) ;
#98 = EDGE_CURVE ( 'NONE', #75, #108, #14, .T. ) ;
#99 =( GEOMETRIC_REPRESENTATION_CONTEXT ( 3 ) GLOBAL_UNCERTAINTY_ASSIGNED_CONTEXT ( ( #262 ) ) GLOBAL_UNIT_ASSIGNED_CONTEXT ( ( #240, #142, #121 ) ) REPRESENTATION_CONTEXT ( 'NONE', 'WORKASPACE' ) );
#100 = DIRECTION ( 'NONE',  ( -0.000000000000000000, -1.000000000000000000, -0.000000000000000000 ) ) ;
#101 =( NAMED_UNIT ( * ) PLANE_ANGLE_UNIT ( ) SI_UNIT ( $, .RADIAN. ) );
#102 =( GEOMETRIC_REPRESENTATION_CONTEXT ( 3 ) GLOBAL_UNCERTAINTY_ASSIGNED_CONTEXT ( ( #103 ) ) GLOBAL_UNIT_ASSIGNED_CONTEXT ( ( #161, #253, #268 ) ) REPRESENTATION_CONTEXT ( 'NONE', 'WORKASPACE' ) );
#103 = UNCERTAINTY_MEASURE_WITH_UNIT (LENGTH_MEASURE( 1.000000000000000082E-05 ), #161, 'distance_accuracy_value', 'NONE');
#104 = COLOUR_RGB ( '',0.7921568627450980005, 0.8196078431372548767, 0.9333333333333333481 ) ;
#105 = SURFACE_STYLE_USAGE ( .BOTH. , #20 ) ;
#106 = MANIFOLD_SOLID_BREP ( 'Revolve - Tool Body (Straight Shanked)', #238 ) ;
#107 = SURFACE_STYLE_USAGE ( .BOTH. , #251 ) ;
#108 = VERTEX_POINT ( 'NONE', #187 ) ;
#109 = APPLICATION_PROTOCOL_DEFINITION ( 'draft international standard', 'automotive_design', 1998, #214 ) ;
#110 = CARTESIAN_POINT ( 'NONE',  ( 5.000000000000000000, 75.00000000000000000, 0.000000000000000000 ) ) ;
#111 =( NAMED_UNIT ( * ) SI_UNIT ( $, .STERADIAN. ) SOLID_ANGLE_UNIT ( ) );
#112 = EDGE_LOOP ( 'NONE', ( #245, #280 ) ) ;
#113 = PRODUCT_RELATED_PRODUCT_CATEGORY ( 'part', '', ( #156 ) ) ;
#114 = CARTESIAN_POINT ( 'NONE',  ( 6.123233995736762930E-15, 75.00000000000000000, 0.000000000000000000 ) ) ;
#115 = SURFACE_SIDE_STYLE ('',( #34 ) ) ;
#116 = DIRECTION ( 'NONE',  ( 1.224646799147352961E-16, 1.000000000000000000, -0.000000000000000000 ) ) ;
#117 = VERTEX_POINT ( 'NONE', #125 ) ;
#118 = ORIENTED_EDGE ( 'NONE', *, *, #57, .F. ) ;
#119 = STYLED_ITEM ( 'NONE', ( #168 ), #123 ) ;
#120 = DIRECTION ( 'NONE',  ( 0.000000000000000000, 0.000000000000000000, -1.000000000000000000 ) ) ;
#121 =( NAMED_UNIT ( * ) SI_UNIT ( $, .STERADIAN. ) SOLID_ANGLE_UNIT ( ) );
#122 = STYLED_ITEM ( 'NONE', ( #266 ), #201 ) ;
#123 = ADVANCED_FACE ( 'NONE', ( #242 ), #15, .T. ) ;
#124 = FILL_AREA_STYLE_COLOUR ( '', #178 ) ;
#125 = CARTESIAN_POINT ( 'NONE',  ( 5.000000000000000000, 75.00000000000000000, 6.123233995736764310E-16 ) ) ;
#126 = PRESENTATION_LAYER_ASSIGNMENT (  '', '', ( #88 ) ) ;
#127 = FILL_AREA_STYLE ('',( #43 ) ) ;
#128 = CARTESIAN_POINT ( 'NONE',  ( 0.000000000000000000, 0.000000000000000000, 0.000000000000000000 ) ) ;
#129 = ORIENTED_EDGE ( 'NONE', *, *, #174, .F. ) ;
#130 = PLANE ( 'NONE',  #279 ) ;
#131 = CIRCLE ( 'NONE', #270, 5.000000000000000000 ) ;
#132 = APPLICATION_PROTOCOL_DEFINITION ( 'draft international standard', 'automotive_design', 1998, #228 ) ;
#133 = CARTESIAN_POINT ( 'NONE',  ( 6.123233995736762930E-15, 75.00000000000000000, 0.000000000000000000 ) ) ;
#134 = ORIENTED_EDGE ( 'NONE', *, *, #7, .F. ) ;
#135 = CIRCLE ( 'NONE', #26, 4.999999999999993783 ) ;
#136 = DIRECTION ( 'NONE',  ( -0.000000000000000000, -1.000000000000000000, -0.000000000000000000 ) ) ;
#137 = FILL_AREA_STYLE_COLOUR ( '', #213 ) ;
#138 = DIRECTION ( 'NONE',  ( -0.000000000000000000, -1.000000000000000000, -0.000000000000000000 ) ) ;
#139 = DIRECTION ( 'NONE',  ( 1.224646799147352961E-16, 1.000000000000000000, -0.000000000000000000 ) ) ;
#140 = VERTEX_POINT ( 'NONE', #78 ) ;
#141 = FILL_AREA_STYLE ('',( #124 ) ) ;
#142 =( NAMED_UNIT ( * ) PLANE_ANGLE_UNIT ( ) SI_UNIT ( $, .RADIAN. ) );
#143 = DIRECTION ( 'NONE',  ( -0.000000000000000000, -1.000000000000000000, -0.000000000000000000 ) ) ;
#144 = AXIS2_PLACEMENT_3D ( 'NONE', #133, #203, #97 ) ;
#145 = SURFACE_SIDE_STYLE ('',( #210 ) ) ;
#146 = AXIS2_PLACEMENT_3D ( 'NONE', #114, #49, #5 ) ;
#147 = AXIS2_PLACEMENT_3D ( 'NONE', #60, #149, #244 ) ;
#148 = UNCERTAINTY_MEASURE_WITH_UNIT (LENGTH_MEASURE( 1.000000000000000082E-05 ), #248, 'distance_accuracy_value', 'NONE');
#149 = DIRECTION ( 'NONE',  ( 1.224646799147352961E-16, 1.000000000000000000, -0.000000000000000000 ) ) ;
#150 = DIRECTION ( 'NONE',  ( 0.000000000000000000, -0.000000000000000000, 1.000000000000000000 ) ) ;
#151 = ORIENTED_EDGE ( 'NONE', *, *, #174, .T. ) ;
#152 = FILL_AREA_STYLE ('',( #80 ) ) ;
#153 = EDGE_CURVE ( 'NONE', #50, #193, #234, .T. ) ;
#154 = CARTESIAN_POINT ( 'NONE',  ( 0.000000000000000000, 25.00000000000000000, 0.000000000000000000 ) ) ;
#155 = ORIENTED_EDGE ( 'NONE', *, *, #98, .T. ) ;
#156 = PRODUCT ( '59612', '59612', '', ( #276 ) ) ;
#157 = CYLINDRICAL_SURFACE ( 'NONE', #278, 4.999999999999997335 ) ;
#158 = FACE_OUTER_BOUND ( 'NONE', #95, .T. ) ;
#159 = LINE ( 'NONE', #255, #19 ) ;
#160 = DIRECTION ( 'NONE',  ( 1.000000000000000000, -1.224646799147352961E-16, 0.000000000000000000 ) ) ;
#161 =( LENGTH_UNIT ( ) NAMED_UNIT ( * ) SI_UNIT ( .MILLI., .METRE. ) );
#162 = DIRECTION ( 'NONE',  ( 1.224646799147352961E-16, 1.000000000000000000, -0.000000000000000000 ) ) ;
#163 = LINE ( 'NONE', #33, #79 ) ;
#164 = VERTEX_POINT ( 'NONE', #216 ) ;
#165 =( NAMED_UNIT ( * ) SI_UNIT ( $, .STERADIAN. ) SOLID_ANGLE_UNIT ( ) );
#166 = FILL_AREA_STYLE ('',( #169 ) ) ;
#167 = ADVANCED_FACE ( 'NONE', ( #185 ), #130, .T. ) ;
#168 = PRESENTATION_STYLE_ASSIGNMENT (( #18 ) ) ;
#169 = FILL_AREA_STYLE_COLOUR ( '', #83 ) ;
#170 = CARTESIAN_POINT ( 'NONE',  ( 0.000000000000000000, 0.000000000000000000, 0.000000000000000000 ) ) ;
#171 = LINE ( 'NONE', #94, #186 ) ;
#172 = SURFACE_STYLE_USAGE ( .BOTH. , #288 ) ;
#173 = STYLED_ITEM ( 'NONE', ( #246 ), #167 ) ;
#174 = EDGE_CURVE ( 'NONE', #140, #108, #131, .T. ) ;
#175 = PLANE ( 'NONE',  #21 ) ;
#176 = CYLINDRICAL_SURFACE ( 'NONE', #146, 4.999999999999997335 ) ;
#177 = CIRCLE ( 'NONE', #144, 4.999999999999993783 ) ;
#178 = COLOUR_RGB ( '',0.7921568627450980005, 0.8196078431372548767, 0.9333333333333333481 ) ;
#179 = CARTESIAN_POINT ( 'NONE',  ( 3.749399456654642377E-32, 25.00000000000000000, 0.000000000000000000 ) ) ;
#180 = EDGE_LOOP ( 'NONE', ( #227, #69, #10, #3 ) ) ;
#181 = ORIENTED_EDGE ( 'NONE', *, *, #241, .F. ) ;
#182 = CIRCLE ( 'NONE', #257, 5.000000000000000000 ) ;
#183 = CARTESIAN_POINT ( 'NONE',  ( -7.703719777548943412E-31, 25.00000000000000000, 0.000000000000000000 ) ) ;
#184 = PRODUCT_DEFINITION ( 'UNKNOWN', '', #11, #285 ) ;
#185 = FACE_OUTER_BOUND ( 'NONE', #87, .T. ) ;
#186 = VECTOR ( 'NONE', #136, 1000.000000000000000 ) ;
#187 = CARTESIAN_POINT ( 'NONE',  ( 0.000000000000000000, 0.000000000000000000, -5.000000000000000000 ) ) ;
#188 = EDGE_CURVE ( 'NONE', #108, #140, #51, .T. ) ;
#189 = MECHANICAL_DESIGN_GEOMETRIC_PRESENTATION_REPRESENTATION (  '', ( #119 ), #99 ) ;
#190 =( LENGTH_UNIT ( ) NAMED_UNIT ( * ) SI_UNIT ( .MILLI., .METRE. ) );
#191 = CIRCLE ( 'NONE', #30, 5.000000000000000000 ) ;
#192 = EDGE_CURVE ( 'NONE', #25, #75, #191, .T. ) ;
#193 = VERTEX_POINT ( 'NONE', #65 ) ;
#194 = PRESENTATION_STYLE_ASSIGNMENT (( #105 ) ) ;
#195 = VECTOR ( 'NONE', #77, 1000.000000000000000 ) ;
#196 =( NAMED_UNIT ( * ) PLANE_ANGLE_UNIT ( ) SI_UNIT ( $, .RADIAN. ) );
#197 = ORIENTED_EDGE ( 'NONE', *, *, #192, .F. ) ;
#198 = DIRECTION ( 'NONE',  ( 0.000000000000000000, -1.000000000000000000, -0.000000000000000000 ) ) ;
#199 =( GEOMETRIC_REPRESENTATION_CONTEXT ( 3 ) GLOBAL_UNCERTAINTY_ASSIGNED_CONTEXT ( ( #218 ) ) GLOBAL_UNIT_ASSIGNED_CONTEXT ( ( #259, #272, #111 ) ) REPRESENTATION_CONTEXT ( 'NONE', 'WORKASPACE' ) );
#200 = DIRECTION ( 'NONE',  ( 1.224646799147352961E-16, 1.000000000000000000, -0.000000000000000000 ) ) ;
#201 = ADVANCED_FACE ( 'NONE', ( #63 ), #175, .T. ) ;
#202 = FACE_OUTER_BOUND ( 'NONE', #54, .T. ) ;
#203 = DIRECTION ( 'NONE',  ( 1.224646799147352961E-16, 1.000000000000000000, -0.000000000000000000 ) ) ;
#204 = DIRECTION ( 'NONE',  ( -1.000000000000000000, 0.000000000000000000, 0.000000000000000000 ) ) ;
#205 = SURFACE_STYLE_USAGE ( .BOTH. , #115 ) ;
#206 = MANIFOLD_SOLID_BREP ( 'Revolve - Cutting Edge', #66 ) ;
#207 = ORIENTED_EDGE ( 'NONE', *, *, #188, .T. ) ;
#208 = EDGE_CURVE ( 'NONE', #25, #140, #171, .T. ) ;
#209 = CARTESIAN_POINT ( 'NONE',  ( 5.000000000000000000, 25.00000000000000000, 6.123233995736764310E-16 ) ) ;
#210 = SURFACE_STYLE_FILL_AREA ( #141 ) ;
#211 =( GEOMETRIC_REPRESENTATION_CONTEXT ( 3 ) GLOBAL_UNCERTAINTY_ASSIGNED_CONTEXT ( ( #40 ) ) GLOBAL_UNIT_ASSIGNED_CONTEXT ( ( #2, #196, #217 ) ) REPRESENTATION_CONTEXT ( 'NONE', 'WORKASPACE' ) );
#212 = SURFACE_STYLE_USAGE ( .BOTH. , #145 ) ;
#213 = COLOUR_RGB ( '',1.000000000000000000, 0.000000000000000000, 0.000000000000000000 ) ;
#214 = APPLICATION_CONTEXT ( 'automotive_design' ) ;
#215 =( NAMED_UNIT ( * ) SI_UNIT ( $, .STERADIAN. ) SOLID_ANGLE_UNIT ( ) );
#216 = CARTESIAN_POINT ( 'NONE',  ( -4.999999999999987566, 75.00000000000000000, 0.000000000000000000 ) ) ;
#217 =( NAMED_UNIT ( * ) SI_UNIT ( $, .STERADIAN. ) SOLID_ANGLE_UNIT ( ) );
#218 = UNCERTAINTY_MEASURE_WITH_UNIT (LENGTH_MEASURE( 1.000000000000000082E-05 ), #259, 'distance_accuracy_value', 'NONE');
#219 = SURFACE_STYLE_FILL_AREA ( #127 ) ;
#220 = EDGE_CURVE ( 'NONE', #75, #25, #264, .T. ) ;
#221 = STYLED_ITEM ( 'NONE', ( #194 ), #206 ) ;
#222 = AXIS2_PLACEMENT_3D ( 'NONE', #74, #233, #46 ) ;
#223 = AXIS2_PLACEMENT_3D ( 'NONE', #179, #67, #32 ) ;
#224 = FILL_AREA_STYLE_COLOUR ( '', #84 ) ;
#225 =( GEOMETRIC_REPRESENTATION_CONTEXT ( 3 ) GLOBAL_UNCERTAINTY_ASSIGNED_CONTEXT ( ( #17 ) ) GLOBAL_UNIT_ASSIGNED_CONTEXT ( ( #190, #239, #215 ) ) REPRESENTATION_CONTEXT ( 'NONE', 'WORKASPACE' ) );
#226 =( NAMED_UNIT ( * ) SI_UNIT ( $, .STERADIAN. ) SOLID_ANGLE_UNIT ( ) );
#227 = ORIENTED_EDGE ( 'NONE', *, *, #220, .T. ) ;
#228 = APPLICATION_CONTEXT ( 'automotive_design' ) ;
#229 = SHAPE_DEFINITION_REPRESENTATION ( #273, #23 ) ;
#230 = PLANE ( 'NONE',  #55 ) ;
#231 = ADVANCED_FACE ( 'NONE', ( #202 ), #176, .T. ) ;
#232 = CARTESIAN_POINT ( 'NONE',  ( 6.123233995736766282E-16, 25.00000000000000000, 5.000000000000000000 ) ) ;
#233 = DIRECTION ( 'NONE',  ( 0.000000000000000000, 0.000000000000000000, 1.000000000000000000 ) ) ;
#234 = CIRCLE ( 'NONE', #147, 5.000000000000000000 ) ;
#235 = FILL_AREA_STYLE ('',( #137 ) ) ;
#236 =( LENGTH_UNIT ( ) NAMED_UNIT ( * ) SI_UNIT ( .MILLI., .METRE. ) );
#237 = EDGE_LOOP ( 'NONE', ( #45, #197 ) ) ;
#238 = CLOSED_SHELL ( 'NONE', ( #275, #62, #231, #68 ) ) ;
#239 =( NAMED_UNIT ( * ) PLANE_ANGLE_UNIT ( ) SI_UNIT ( $, .RADIAN. ) );
#240 =( LENGTH_UNIT ( ) NAMED_UNIT ( * ) SI_UNIT ( .MILLI., .METRE. ) );
#241 = EDGE_CURVE ( 'NONE', #193, #164, #159, .T. ) ;
#242 = FACE_OUTER_BOUND ( 'NONE', #28, .T. ) ;
#243 = AXIS2_PLACEMENT_3D ( 'NONE', #284, #100, #120 ) ;
#244 = DIRECTION ( 'NONE',  ( -1.000000000000000000, 0.000000000000000000, 0.000000000000000000 ) ) ;
#245 = ORIENTED_EDGE ( 'NONE', *, *, #42, .F. ) ;
#246 = PRESENTATION_STYLE_ASSIGNMENT (( #107 ) ) ;
#247 = UNCERTAINTY_MEASURE_WITH_UNIT (LENGTH_MEASURE( 1.000000000000000082E-05 ), #236, 'distance_accuracy_value', 'NONE');
#248 =( LENGTH_UNIT ( ) NAMED_UNIT ( * ) SI_UNIT ( .MILLI., .METRE. ) );
#249 = DIRECTION ( 'NONE',  ( 0.000000000000000000, 0.000000000000000000, -1.000000000000000000 ) ) ;
#250 = PRESENTATION_LAYER_ASSIGNMENT (  '', '', ( #221 ) ) ;
#251 = SURFACE_SIDE_STYLE ('',( #265 ) ) ;
#252 = EDGE_LOOP ( 'NONE', ( #277, #6, #52, #181 ) ) ;
#253 =( NAMED_UNIT ( * ) PLANE_ANGLE_UNIT ( ) SI_UNIT ( $, .RADIAN. ) );
#254 = ORIENTED_EDGE ( 'NONE', *, *, #241, .T. ) ;
#255 = CARTESIAN_POINT ( 'NONE',  ( -4.999999999999991118, 75.00000000000000000, 0.000000000000000000 ) ) ;
#256 = FACE_OUTER_BOUND ( 'NONE', #112, .T. ) ;
#257 = AXIS2_PLACEMENT_3D ( 'NONE', #183, #36, #73 ) ;
#258 = PLANE ( 'NONE',  #223 ) ;
#259 =( LENGTH_UNIT ( ) NAMED_UNIT ( * ) SI_UNIT ( .MILLI., .METRE. ) );
#260 = DIRECTION ( 'NONE',  ( 0.000000000000000000, 0.000000000000000000, -1.000000000000000000 ) ) ;
#261 = SURFACE_SIDE_STYLE ('',( #283 ) ) ;
#262 = UNCERTAINTY_MEASURE_WITH_UNIT (LENGTH_MEASURE( 1.000000000000000082E-05 ), #240, 'distance_accuracy_value', 'NONE');
#263 = DIRECTION ( 'NONE',  ( 0.000000000000000000, 0.000000000000000000, -1.000000000000000000 ) ) ;
#264 = CIRCLE ( 'NONE', #13, 5.000000000000000000 ) ;
#265 = SURFACE_STYLE_FILL_AREA ( #152 ) ;
#266 = PRESENTATION_STYLE_ASSIGNMENT (( #172 ) ) ;
#267 = ORIENTED_EDGE ( 'NONE', *, *, #192, .T. ) ;
#268 =( NAMED_UNIT ( * ) SI_UNIT ( $, .STERADIAN. ) SOLID_ANGLE_UNIT ( ) );
#269 = DIRECTION ( 'NONE',  ( -1.000000000000000000, 0.000000000000000000, 0.000000000000000000 ) ) ;
#270 = AXIS2_PLACEMENT_3D ( 'NONE', #170, #286, #263 ) ;
#271 = DIRECTION ( 'NONE',  ( -1.224646799147352961E-16, -1.000000000000000000, 0.000000000000000000 ) ) ;
#272 =( NAMED_UNIT ( * ) PLANE_ANGLE_UNIT ( ) SI_UNIT ( $, .RADIAN. ) );
#273 = PRODUCT_DEFINITION_SHAPE ( 'NONE', 'NONE',  #184 ) ;
#274 = ORIENTED_EDGE ( 'NONE', *, *, #153, .T. ) ;
#275 = ADVANCED_FACE ( 'NONE', ( #70 ), #157, .T. ) ;
#276 = PRODUCT_CONTEXT ( 'NONE', #228, 'mechanical' ) ;
#277 = ORIENTED_EDGE ( 'NONE', *, *, #42, .T. ) ;
#278 = AXIS2_PLACEMENT_3D ( 'NONE', #86, #139, #204 ) ;
#279 = AXIS2_PLACEMENT_3D ( 'NONE', #82, #198, #249 ) ;
#280 = ORIENTED_EDGE ( 'NONE', *, *, #153, .F. ) ;
#281 = PRESENTATION_STYLE_ASSIGNMENT (( #212 ) ) ;
#282 = MECHANICAL_DESIGN_GEOMETRIC_PRESENTATION_REPRESENTATION (  '', ( #221 ), #199 ) ;
#283 = SURFACE_STYLE_FILL_AREA ( #166 ) ;
#284 = CARTESIAN_POINT ( 'NONE',  ( 0.000000000000000000, 0.000000000000000000, 0.000000000000000000 ) ) ;
#285 = PRODUCT_DEFINITION_CONTEXT ( 'detailed design', #214, 'design' ) ;
#286 = DIRECTION ( 'NONE',  ( -0.000000000000000000, -1.000000000000000000, -0.000000000000000000 ) ) ;
#287 = DIRECTION ( 'NONE',  ( 0.000000000000000000, 0.000000000000000000, -1.000000000000000000 ) ) ;
#288 = SURFACE_SIDE_STYLE ('',( #64 ) ) ;
ENDSEC;
END-ISO-10303-21;
