ISO-10303-21;
HEADER;
FILE_DESCRIPTION (( 'STEP AP214' ),
    '1' );
FILE_NAME ('86029.STEP',
    '2023-06-30T23:59:11',
    ( '' ),
    ( '' ),
    'SwSTEP 2.0',
    'SolidWorks 2023',
    '' );
FILE_SCHEMA (( 'AUTOMOTIVE_DESIGN' ));
ENDSEC;

DATA;
#1 =( NAMED_UNIT ( * ) SI_UNIT ( $, .STERADIAN. ) SOLID_ANGLE_UNIT ( ) );
#2 = DIRECTION ( 'NONE',  ( -1.224646799147352961E-16, 1.000000000000000000, -0.000000000000000000 ) ) ;
#3 = CARTESIAN_POINT ( 'NONE',  ( -6.123233995736766036E-17, 0.5000000000000000000, 0.000000000000000000 ) ) ;
#4 = CLOSED_SHELL ( 'NONE', ( #255, #9, #327, #346 ) ) ;
#5 = PRESENTATION_LAYER_ASSIGNMENT (  '', '', ( #183 ) ) ;
#6 = CARTESIAN_POINT ( 'NONE',  ( 6.123233995736764803E-17, 0.000000000000000000, 0.4999999999999998335 ) ) ;
#7 = SURFACE_SIDE_STYLE ('',( #35 ) ) ;
#8 = PRODUCT ( '86029', '86029', '', ( #74 ) ) ;
#9 = ADVANCED_FACE ( 'NONE', ( #164 ), #281, .F. ) ;
#10 = ORIENTED_EDGE ( 'NONE', *, *, #121, .F. ) ;
#11 = CLOSED_SHELL ( 'NONE', ( #217, #235, #250, #55, #48 ) ) ;
#12 = PRODUCT_DEFINITION_SHAPE ( 'NONE', 'NONE',  #65 ) ;
#13 = CARTESIAN_POINT ( 'NONE',  ( 0.000000000000000000, 0.000000000000000000, -0.4999999999999998335 ) ) ;
#14 = CIRCLE ( 'NONE', #129, 0.5000000000000000000 ) ;
#15 = CARTESIAN_POINT ( 'NONE',  ( 0.000000000000000000, 0.5000000000000001110, 0.000000000000000000 ) ) ;
#16 = EDGE_CURVE ( 'NONE', #51, #202, #139, .T. ) ;
#17 = DIMENSIONAL_EXPONENTS ( 1.000000000000000000, 0.000000000000000000, 0.000000000000000000, 0.000000000000000000, 0.000000000000000000, 0.000000000000000000, 0.000000000000000000 ) ;
#18 = ORIENTED_EDGE ( 'NONE', *, *, #176, .F. ) ;
#19 = FACE_OUTER_BOUND ( 'NONE', #333, .T. ) ;
#20 = DIMENSIONAL_EXPONENTS ( 1.000000000000000000, 0.000000000000000000, 0.000000000000000000, 0.000000000000000000, 0.000000000000000000, 0.000000000000000000, 0.000000000000000000 ) ;
#21 = VERTEX_POINT ( 'NONE', #262 ) ;
#22 = VECTOR ( 'NONE', #268, 39.37007874015748143 ) ;
#23 = VECTOR ( 'NONE', #2, 39.37007874015748143 ) ;
#24 = SURFACE_SIDE_STYLE ('',( #275 ) ) ;
#25 = CARTESIAN_POINT ( 'NONE',  ( 0.4999999999999997780, 5.000000000000000000, 6.123233995736764803E-17 ) ) ;
#26 = CARTESIAN_POINT ( 'NONE',  ( 1.683889348827610506E-16, 2.625000000000000000, 0.000000000000000000 ) ) ;
#27 = DIRECTION ( 'NONE',  ( -1.000000000000000000, 0.000000000000000000, 0.000000000000000000 ) ) ;
#28 = VERTEX_POINT ( 'NONE', #168 ) ;
#29 = CARTESIAN_POINT ( 'NONE',  ( -1.224646799147353207E-16, 5.000000000000000000, 0.000000000000000000 ) ) ;
#30 = SURFACE_STYLE_FILL_AREA ( #87 ) ;
#31 = VECTOR ( 'NONE', #201, 39.37007874015748143 ) ;
#32 = AXIS2_PLACEMENT_3D ( 'NONE', #29, #141, #171 ) ;
#33 = DIMENSIONAL_EXPONENTS ( 1.000000000000000000, 0.000000000000000000, 0.000000000000000000, 0.000000000000000000, 0.000000000000000000, 0.000000000000000000, 0.000000000000000000 ) ;
#34 =( NAMED_UNIT ( * ) PLANE_ANGLE_UNIT ( ) SI_UNIT ( $, .RADIAN. ) );
#35 = SURFACE_STYLE_FILL_AREA ( #288 ) ;
#36 = UNCERTAINTY_MEASURE_WITH_UNIT (LENGTH_MEASURE( 1.000000000000000082E-05 ), #310, 'distance_accuracy_value', 'NONE');
#37 = LENGTH_MEASURE_WITH_UNIT ( LENGTH_MEASURE( 0.02539999999999999897 ), #114 );
#38 =( NAMED_UNIT ( * ) PLANE_ANGLE_UNIT ( ) SI_UNIT ( $, .RADIAN. ) );
#39 = SURFACE_STYLE_USAGE ( .BOTH. , #43 ) ;
#40 = DIRECTION ( 'NONE',  ( -1.224646799147352961E-16, 1.000000000000000000, 0.000000000000000000 ) ) ;
#41 = DIRECTION ( 'NONE',  ( 0.000000000000000000, 0.000000000000000000, 1.000000000000000000 ) ) ;
#42 = EDGE_LOOP ( 'NONE', ( #105, #192, #231, #331 ) ) ;
#43 = SURFACE_SIDE_STYLE ('',( #30 ) ) ;
#44 =( GEOMETRIC_REPRESENTATION_CONTEXT ( 3 ) GLOBAL_UNCERTAINTY_ASSIGNED_CONTEXT ( ( #184 ) ) GLOBAL_UNIT_ASSIGNED_CONTEXT ( ( #196, #261, #1 ) ) REPRESENTATION_CONTEXT ( 'NONE', 'WORKASPACE' ) );
#45 = MECHANICAL_DESIGN_GEOMETRIC_PRESENTATION_REPRESENTATION (  '', ( #191 ), #208 ) ;
#46 = CARTESIAN_POINT ( 'NONE',  ( 0.000000000000000000, 0.000000000000000000, 0.000000000000000000 ) ) ;
#47 = CARTESIAN_POINT ( 'NONE',  ( 0.000000000000000000, 0.5000000000000001110, 0.000000000000000000 ) ) ;
#48 = ADVANCED_FACE ( 'NONE', ( #66 ), #122, .T. ) ;
#49 = STYLED_ITEM ( 'NONE', ( #359 ), #216 ) ;
#50 = PRESENTATION_LAYER_ASSIGNMENT (  '', '', ( #191 ) ) ;
#51 = VERTEX_POINT ( 'NONE', #96 ) ;
#52 = DIRECTION ( 'NONE',  ( -1.224646799147352961E-16, 1.000000000000000000, -0.000000000000000000 ) ) ;
#53 = CIRCLE ( 'NONE', #256, 0.4999999999999996114 ) ;
#54 = CIRCLE ( 'NONE', #150, 0.4999999999999998335 ) ;
#55 = ADVANCED_FACE ( 'NONE', ( #204 ), #233, .T. ) ;
#56 = CYLINDRICAL_SURFACE ( 'NONE', #315, 0.4999999999999997224 ) ;
#57 = UNCERTAINTY_MEASURE_WITH_UNIT (LENGTH_MEASURE( 1.000000000000000082E-05 ), #332, 'distance_accuracy_value', 'NONE');
#58 = ORIENTED_EDGE ( 'NONE', *, *, #364, .F. ) ;
#59 = PRESENTATION_LAYER_ASSIGNMENT (  '', '', ( #360 ) ) ;
#60 = AXIS2_PLACEMENT_3D ( 'NONE', #257, #280, #341 ) ;
#61 = VERTEX_POINT ( 'NONE', #146 ) ;
#62 = FACE_OUTER_BOUND ( 'NONE', #349, .T. ) ;
#63 = FACE_OUTER_BOUND ( 'NONE', #42, .T. ) ;
#64 = ORIENTED_EDGE ( 'NONE', *, *, #178, .F. ) ;
#65 = PRODUCT_DEFINITION ( 'UNKNOWN', '', #347, #305 ) ;
#66 = FACE_OUTER_BOUND ( 'NONE', #123, .T. ) ;
#67 = AXIS2_PLACEMENT_3D ( 'NONE', #236, #203, #207 ) ;
#68 = FACE_OUTER_BOUND ( 'NONE', #353, .T. ) ;
#69 = CARTESIAN_POINT ( 'NONE',  ( -0.4999999999999998335, 5.000000000000000000, 0.000000000000000000 ) ) ;
#70 = EDGE_CURVE ( 'NONE', #202, #51, #205, .T. ) ;
#71 = LINE ( 'NONE', #145, #269 ) ;
#72 = SURFACE_STYLE_FILL_AREA ( #319 ) ;
#73 = DIRECTION ( 'NONE',  ( -1.224646799147352961E-16, 1.000000000000000000, -0.000000000000000000 ) ) ;
#74 = PRODUCT_CONTEXT ( 'NONE', #186, 'mechanical' ) ;
#75 = FILL_AREA_STYLE_COLOUR ( '', #198 ) ;
#76 = CARTESIAN_POINT ( 'NONE',  ( -1.224646799147353207E-16, 5.000000000000000000, 0.000000000000000000 ) ) ;
#77 = CARTESIAN_POINT ( 'NONE',  ( 0.000000000000000000, 0.5000000000000001110, 0.000000000000000000 ) ) ;
#78 = SURFACE_STYLE_FILL_AREA ( #245 ) ;
#79 = DIRECTION ( 'NONE',  ( 0.000000000000000000, 0.000000000000000000, -1.000000000000000000 ) ) ;
#80 = EDGE_LOOP ( 'NONE', ( #18, #279, #93, #254, #367 ) ) ;
#81 = SURFACE_SIDE_STYLE ('',( #111 ) ) ;
#82 = EDGE_LOOP ( 'NONE', ( #259, #117, #128, #194 ) ) ;
#83 = COLOUR_RGB ( '',1.000000000000000000, 0.000000000000000000, 0.000000000000000000 ) ;
#84 = ORIENTED_EDGE ( 'NONE', *, *, #70, .F. ) ;
#85 =( LENGTH_UNIT ( ) NAMED_UNIT ( * ) SI_UNIT ( $, .METRE. ) );
#86 = DIRECTION ( 'NONE',  ( -0.000000000000000000, -1.000000000000000000, -0.000000000000000000 ) ) ;
#87 = FILL_AREA_STYLE ('',( #224 ) ) ;
#88 =( LENGTH_UNIT ( ) NAMED_UNIT ( * ) SI_UNIT ( $, .METRE. ) );
#89 = SURFACE_STYLE_FILL_AREA ( #227 ) ;
#90 =( GEOMETRIC_REPRESENTATION_CONTEXT ( 3 ) GLOBAL_UNCERTAINTY_ASSIGNED_CONTEXT ( ( #358 ) ) GLOBAL_UNIT_ASSIGNED_CONTEXT ( ( #197, #282, #312 ) ) REPRESENTATION_CONTEXT ( 'NONE', 'WORKASPACE' ) );
#91 = LENGTH_MEASURE_WITH_UNIT ( LENGTH_MEASURE( 0.02539999999999999897 ), #237 );
#92 = FILL_AREA_STYLE_COLOUR ( '', #337 ) ;
#93 = ORIENTED_EDGE ( 'NONE', *, *, #121, .T. ) ;
#94 = PRODUCT_RELATED_PRODUCT_CATEGORY ( 'part', '', ( #8 ) ) ;
#95 = SURFACE_STYLE_USAGE ( .BOTH. , #7 ) ;
#96 = CARTESIAN_POINT ( 'NONE',  ( 6.123233995736763571E-17, 2.625000000000000000, 0.4999999999999997224 ) ) ;
#97 = COLOUR_RGB ( '',1.000000000000000000, 0.000000000000000000, 0.000000000000000000 ) ;
#98 = PRESENTATION_LAYER_ASSIGNMENT (  '', '', ( #142 ) ) ;
#99 = CARTESIAN_POINT ( 'NONE',  ( -0.5000000000000000000, 5.000000000000000000, 0.000000000000000000 ) ) ;
#100 = DIRECTION ( 'NONE',  ( -0.000000000000000000, -1.000000000000000000, -0.000000000000000000 ) ) ;
#101 = DIRECTION ( 'NONE',  ( 1.000000000000000000, 0.000000000000000000, 0.000000000000000000 ) ) ;
#102 = DIRECTION ( 'NONE',  ( 0.000000000000000000, 1.000000000000000000, 0.000000000000000000 ) ) ;
#103 = CARTESIAN_POINT ( 'NONE',  ( -6.123233995736766036E-17, 0.5000000000000000000, 0.000000000000000000 ) ) ;
#104 = DIRECTION ( 'NONE',  ( 0.000000000000000000, 0.000000000000000000, -1.000000000000000000 ) ) ;
#105 = ORIENTED_EDGE ( 'NONE', *, *, #318, .T. ) ;
#106 = ORIENTED_EDGE ( 'NONE', *, *, #178, .T. ) ;
#107 = ORIENTED_EDGE ( 'NONE', *, *, #364, .T. ) ;
#108 = AXIS2_PLACEMENT_3D ( 'NONE', #173, #86, #147 ) ;
#109 = EDGE_CURVE ( 'NONE', #28, #158, #167, .T. ) ;
#110 = EDGE_LOOP ( 'NONE', ( #84, #134 ) ) ;
#111 = SURFACE_STYLE_FILL_AREA ( #225 ) ;
#112 =( NAMED_UNIT ( * ) PLANE_ANGLE_UNIT ( ) SI_UNIT ( $, .RADIAN. ) );
#113 = FILL_AREA_STYLE_COLOUR ( '', #83 ) ;
#114 =( LENGTH_UNIT ( ) NAMED_UNIT ( * ) SI_UNIT ( $, .METRE. ) );
#115 = AXIS2_PLACEMENT_3D ( 'NONE', #356, #148, #177 ) ;
#116 = COLOUR_RGB ( '',1.000000000000000000, 0.000000000000000000, 0.000000000000000000 ) ;
#117 = ORIENTED_EDGE ( 'NONE', *, *, #151, .T. ) ;
#118 = APPLICATION_CONTEXT ( 'automotive_design' ) ;
#119 = DIRECTION ( 'NONE',  ( -1.000000000000000000, 0.000000000000000000, 0.000000000000000000 ) ) ;
#120 = PRESENTATION_STYLE_ASSIGNMENT (( #95 ) ) ;
#121 = EDGE_CURVE ( 'NONE', #202, #342, #206, .T. ) ;
#122 = SPHERICAL_SURFACE ( 'NONE', #354, 0.5000000000000000000 ) ;
#123 = EDGE_LOOP ( 'NONE', ( #189, #219, #299, #157 ) ) ;
#124 = MECHANICAL_DESIGN_GEOMETRIC_PRESENTATION_REPRESENTATION (  '', ( #285 ), #336 ) ;
#125 =( GEOMETRIC_REPRESENTATION_CONTEXT ( 3 ) GLOBAL_UNCERTAINTY_ASSIGNED_CONTEXT ( ( #36 ) ) GLOBAL_UNIT_ASSIGNED_CONTEXT ( ( #310, #112, #135 ) ) REPRESENTATION_CONTEXT ( 'NONE', 'WORKASPACE' ) );
#126 = CARTESIAN_POINT ( 'NONE',  ( 1.683889348827610506E-16, 2.625000000000000000, 0.000000000000000000 ) ) ;
#127 = DIRECTION ( 'NONE',  ( 0.000000000000000000, 0.000000000000000000, -1.000000000000000000 ) ) ;
#128 = ORIENTED_EDGE ( 'NONE', *, *, #338, .T. ) ;
#129 = AXIS2_PLACEMENT_3D ( 'NONE', #103, #211, #328 ) ;
#130 = DIRECTION ( 'NONE',  ( -0.000000000000000000, -1.000000000000000000, -0.000000000000000000 ) ) ;
#131 = VERTEX_POINT ( 'NONE', #320 ) ;
#132 = UNCERTAINTY_MEASURE_WITH_UNIT (LENGTH_MEASURE( 1.000000000000000082E-05 ), #339, 'distance_accuracy_value', 'NONE');
#133 =( NAMED_UNIT ( * ) SI_UNIT ( $, .STERADIAN. ) SOLID_ANGLE_UNIT ( ) );
#134 = ORIENTED_EDGE ( 'NONE', *, *, #16, .F. ) ;
#135 =( NAMED_UNIT ( * ) SI_UNIT ( $, .STERADIAN. ) SOLID_ANGLE_UNIT ( ) );
#136 = LENGTH_MEASURE_WITH_UNIT ( LENGTH_MEASURE( 0.02539999999999999897 ), #190 );
#137 = DIRECTION ( 'NONE',  ( -1.000000000000000000, 0.000000000000000000, 0.000000000000000000 ) ) ;
#138 = FILL_AREA_STYLE_COLOUR ( '', #330 ) ;
#139 = CIRCLE ( 'NONE', #221, 0.4999999999999997224 ) ;
#140 = ORIENTED_EDGE ( 'NONE', *, *, #70, .T. ) ;
#141 = DIRECTION ( 'NONE',  ( -1.224646799147352961E-16, 1.000000000000000000, -0.000000000000000000 ) ) ;
#142 = STYLED_ITEM ( 'NONE', ( #188 ), #235 ) ;
#143 =( LENGTH_UNIT ( ) NAMED_UNIT ( * ) SI_UNIT ( $, .METRE. ) );
#144 = AXIS2_PLACEMENT_3D ( 'NONE', #249, #306, #127 ) ;
#145 = CARTESIAN_POINT ( 'NONE',  ( 0.4999999999999996114, 5.000000000000000000, 6.123233995736763571E-17 ) ) ;
#146 = CARTESIAN_POINT ( 'NONE',  ( -3.061616997868383018E-17, 0.000000000000000000, 0.000000000000000000 ) ) ;
#147 = DIRECTION ( 'NONE',  ( 0.000000000000000000, 0.000000000000000000, -1.000000000000000000 ) ) ;
#148 = DIRECTION ( 'NONE',  ( -0.000000000000000000, -1.000000000000000000, -0.000000000000000000 ) ) ;
#149 = CARTESIAN_POINT ( 'NONE',  ( -1.224646799147353207E-16, 5.000000000000000000, 0.000000000000000000 ) ) ;
#150 = AXIS2_PLACEMENT_3D ( 'NONE', #149, #52, #209 ) ;
#151 = EDGE_CURVE ( 'NONE', #187, #131, #53, .T. ) ;
#152 = DIRECTION ( 'NONE',  ( -0.000000000000000000, -1.000000000000000000, -0.000000000000000000 ) ) ;
#153 = DIRECTION ( 'NONE',  ( -0.000000000000000000, -1.000000000000000000, -0.000000000000000000 ) ) ;
#154 = EDGE_CURVE ( 'NONE', #28, #61, #301, .T. ) ;
#155 = FACE_OUTER_BOUND ( 'NONE', #110, .T. ) ;
#156 = SURFACE_STYLE_USAGE ( .BOTH. , #241 ) ;
#157 = ORIENTED_EDGE ( 'NONE', *, *, #154, .T. ) ;
#158 = VERTEX_POINT ( 'NONE', #348 ) ;
#159 = MECHANICAL_DESIGN_GEOMETRIC_PRESENTATION_REPRESENTATION (  '', ( #276 ), #361 ) ;
#160 =( CONVERSION_BASED_UNIT ( 'INCH', #218 ) LENGTH_UNIT ( ) NAMED_UNIT ( #251 ) );
#161 = MECHANICAL_DESIGN_GEOMETRIC_PRESENTATION_REPRESENTATION (  '', ( #183 ), #90 ) ;
#162 = ORIENTED_EDGE ( 'NONE', *, *, #289, .F. ) ;
#163 = SPHERICAL_SURFACE ( 'NONE', #60, 0.5000000000000000000 ) ;
#164 = FACE_OUTER_BOUND ( 'NONE', #307, .T. ) ;
#165 = LENGTH_MEASURE_WITH_UNIT ( LENGTH_MEASURE( 0.02539999999999999897 ), #85 );
#166 = VERTEX_POINT ( 'NONE', #99 ) ;
#167 = CIRCLE ( 'NONE', #371, 0.5000000000000000000 ) ;
#168 = CARTESIAN_POINT ( 'NONE',  ( 0.5000000000000000000, 0.5000000000000001110, 0.000000000000000000 ) ) ;
#169 = LENGTH_MEASURE_WITH_UNIT ( LENGTH_MEASURE( 0.02539999999999999897 ), #223 );
#170 =( CONVERSION_BASED_UNIT ( 'INCH', #293 ) LENGTH_UNIT ( ) NAMED_UNIT ( #246 ) );
#171 = DIRECTION ( 'NONE',  ( -1.000000000000000000, 0.000000000000000000, 0.000000000000000000 ) ) ;
#172 = PLANE ( 'NONE',  #270 ) ;
#173 = CARTESIAN_POINT ( 'NONE',  ( 0.000000000000000000, 0.000000000000000000, 0.000000000000000000 ) ) ;
#174 = CARTESIAN_POINT ( 'NONE',  ( -6.123233995736766036E-17, 0.5000000000000000000, 0.000000000000000000 ) ) ;
#175 = SHAPE_DEFINITION_REPRESENTATION ( #12, #240 ) ;
#176 = EDGE_CURVE ( 'NONE', #51, #158, #264, .T. ) ;
#177 = DIRECTION ( 'NONE',  ( 0.000000000000000000, 0.000000000000000000, -1.000000000000000000 ) ) ;
#178 = EDGE_CURVE ( 'NONE', #131, #187, #213, .T. ) ;
#179 = AXIS2_PLACEMENT_3D ( 'NONE', #180, #152, #272 ) ;
#180 = CARTESIAN_POINT ( 'NONE',  ( 0.000000000000000000, 0.5000000000000001110, 0.000000000000000000 ) ) ;
#181 = EDGE_CURVE ( 'NONE', #187, #373, #71, .T. ) ;
#182 = AXIS2_PLACEMENT_3D ( 'NONE', #174, #351, #119 ) ;
#183 = STYLED_ITEM ( 'NONE', ( #340 ), #350 ) ;
#184 = UNCERTAINTY_MEASURE_WITH_UNIT (LENGTH_MEASURE( 1.000000000000000082E-05 ), #196, 'distance_accuracy_value', 'NONE');
#185 = CARTESIAN_POINT ( 'NONE',  ( -1.224646799147353207E-16, 5.000000000000000000, 0.000000000000000000 ) ) ;
#186 = APPLICATION_CONTEXT ( 'automotive_design' ) ;
#187 = VERTEX_POINT ( 'NONE', #292 ) ;
#188 = PRESENTATION_STYLE_ASSIGNMENT (( #369 ) ) ;
#189 = ORIENTED_EDGE ( 'NONE', *, *, #298, .F. ) ;
#190 =( LENGTH_UNIT ( ) NAMED_UNIT ( * ) SI_UNIT ( $, .METRE. ) );
#191 = STYLED_ITEM ( 'NONE', ( #195 ), #250 ) ;
#192 = ORIENTED_EDGE ( 'NONE', *, *, #298, .T. ) ;
#193 =( NAMED_UNIT ( * ) SI_UNIT ( $, .STERADIAN. ) SOLID_ANGLE_UNIT ( ) );
#194 = ORIENTED_EDGE ( 'NONE', *, *, #243, .F. ) ;
#195 = PRESENTATION_STYLE_ASSIGNMENT (( #39 ) ) ;
#196 =( CONVERSION_BASED_UNIT ( 'INCH', #91 ) LENGTH_UNIT ( ) NAMED_UNIT ( #20 ) );
#197 =( CONVERSION_BASED_UNIT ( 'INCH', #37 ) LENGTH_UNIT ( ) NAMED_UNIT ( #17 ) );
#198 = COLOUR_RGB ( '',0.7921568627450980005, 0.8196078431372548767, 0.9333333333333333481 ) ;
#199 = DIRECTION ( 'NONE',  ( -1.000000000000000000, -1.224646799147352961E-16, 0.000000000000000000 ) ) ;
#200 = SURFACE_STYLE_USAGE ( .BOTH. , #220 ) ;
#201 = DIRECTION ( 'NONE',  ( -0.000000000000000000, -1.000000000000000000, -0.000000000000000000 ) ) ;
#202 = VERTEX_POINT ( 'NONE', #238 ) ;
#203 = DIRECTION ( 'NONE',  ( -1.224646799147352961E-16, 1.000000000000000000, -0.000000000000000000 ) ) ;
#204 = FACE_OUTER_BOUND ( 'NONE', #80, .T. ) ;
#205 = CIRCLE ( 'NONE', #115, 0.4999999999999997224 ) ;
#206 = LINE ( 'NONE', #13, #22 ) ;
#207 = DIRECTION ( 'NONE',  ( -1.000000000000000000, 0.000000000000000000, 0.000000000000000000 ) ) ;
#208 =( GEOMETRIC_REPRESENTATION_CONTEXT ( 3 ) GLOBAL_UNCERTAINTY_ASSIGNED_CONTEXT ( ( #273 ) ) GLOBAL_UNIT_ASSIGNED_CONTEXT ( ( #266, #232, #325 ) ) REPRESENTATION_CONTEXT ( 'NONE', 'WORKASPACE' ) );
#209 = DIRECTION ( 'NONE',  ( -1.000000000000000000, 0.000000000000000000, 0.000000000000000000 ) ) ;
#210 =( LENGTH_UNIT ( ) NAMED_UNIT ( * ) SI_UNIT ( $, .METRE. ) );
#211 = DIRECTION ( 'NONE',  ( 1.224646799147353207E-16, -0.000000000000000000, 1.000000000000000000 ) ) ;
#212 = FACE_OUTER_BOUND ( 'NONE', #82, .T. ) ;
#213 = CIRCLE ( 'NONE', #67, 0.4999999999999996114 ) ;
#214 =( GEOMETRIC_REPRESENTATION_CONTEXT ( 3 ) GLOBAL_UNCERTAINTY_ASSIGNED_CONTEXT ( ( #132 ) ) GLOBAL_UNIT_ASSIGNED_CONTEXT ( ( #339, #34, #193 ) ) REPRESENTATION_CONTEXT ( 'NONE', 'WORKASPACE' ) );
#215 = ORIENTED_EDGE ( 'NONE', *, *, #109, .F. ) ;
#216 = MANIFOLD_SOLID_BREP ( 'Revolve - Cutting Edge', #11 ) ;
#217 = ADVANCED_FACE ( 'NONE', ( #63 ), #163, .T. ) ;
#218 = LENGTH_MEASURE_WITH_UNIT ( LENGTH_MEASURE( 0.02539999999999999897 ), #210 );
#219 = ORIENTED_EDGE ( 'NONE', *, *, #274, .T. ) ;
#220 = SURFACE_SIDE_STYLE ('',( #89 ) ) ;
#221 = AXIS2_PLACEMENT_3D ( 'NONE', #311, #287, #229 ) ;
#222 =( NAMED_UNIT ( * ) SI_UNIT ( $, .STERADIAN. ) SOLID_ANGLE_UNIT ( ) );
#223 =( LENGTH_UNIT ( ) NAMED_UNIT ( * ) SI_UNIT ( $, .METRE. ) );
#224 = FILL_AREA_STYLE_COLOUR ( '', #258 ) ;
#225 = FILL_AREA_STYLE ('',( #138 ) ) ;
#226 = ORIENTED_EDGE ( 'NONE', *, *, #338, .F. ) ;
#227 = FILL_AREA_STYLE ('',( #92 ) ) ;
#228 = DIRECTION ( 'NONE',  ( 1.000000000000000000, 0.000000000000000000, 0.000000000000000000 ) ) ;
#229 = DIRECTION ( 'NONE',  ( 0.000000000000000000, 0.000000000000000000, -1.000000000000000000 ) ) ;
#230 = LINE ( 'NONE', #69, #23 ) ;
#231 = ORIENTED_EDGE ( 'NONE', *, *, #154, .F. ) ;
#232 =( NAMED_UNIT ( * ) PLANE_ANGLE_UNIT ( ) SI_UNIT ( $, .RADIAN. ) );
#233 = CYLINDRICAL_SURFACE ( 'NONE', #108, 0.4999999999999998335 ) ;
#234 = ORIENTED_EDGE ( 'NONE', *, *, #181, .T. ) ;
#235 = ADVANCED_FACE ( 'NONE', ( #68 ), #314, .T. ) ;
#236 = CARTESIAN_POINT ( 'NONE',  ( 1.683889348827610506E-16, 2.625000000000000000, 0.000000000000000000 ) ) ;
#237 =( LENGTH_UNIT ( ) NAMED_UNIT ( * ) SI_UNIT ( $, .METRE. ) );
#238 = CARTESIAN_POINT ( 'NONE',  ( 0.000000000000000000, 2.625000000000000000, -0.4999999999999997224 ) ) ;
#239 = DIRECTION ( 'NONE',  ( 0.000000000000000000, 0.000000000000000000, 1.000000000000000000 ) ) ;
#240 = ADVANCED_BREP_SHAPE_REPRESENTATION ( '86029', ( #216, #350, #286 ), #125 ) ;
#241 = SURFACE_SIDE_STYLE ('',( #78 ) ) ;
#242 = CIRCLE ( 'NONE', #324, 0.5000000000000000000 ) ;
#243 = EDGE_CURVE ( 'NONE', #373, #166, #54, .T. ) ;
#244 = DIMENSIONAL_EXPONENTS ( 1.000000000000000000, 0.000000000000000000, 0.000000000000000000, 0.000000000000000000, 0.000000000000000000, 0.000000000000000000, 0.000000000000000000 ) ;
#245 = FILL_AREA_STYLE ('',( #75 ) ) ;
#246 = DIMENSIONAL_EXPONENTS ( 1.000000000000000000, 0.000000000000000000, 0.000000000000000000, 0.000000000000000000, 0.000000000000000000, 0.000000000000000000, 0.000000000000000000 ) ;
#247 = PRESENTATION_LAYER_ASSIGNMENT (  '', '', ( #49 ) ) ;
#248 = CIRCLE ( 'NONE', #291, 0.5000000000000000000 ) ;
#249 = CARTESIAN_POINT ( 'NONE',  ( 0.000000000000000000, 0.000000000000000000, 0.000000000000000000 ) ) ;
#250 = ADVANCED_FACE ( 'NONE', ( #155 ), #172, .T. ) ;
#251 = DIMENSIONAL_EXPONENTS ( 1.000000000000000000, 0.000000000000000000, 0.000000000000000000, 0.000000000000000000, 0.000000000000000000, 0.000000000000000000, 0.000000000000000000 ) ;
#252 = SURFACE_STYLE_USAGE ( .BOTH. , #24 ) ;
#253 = DIRECTION ( 'NONE',  ( 1.000000000000000000, 1.224646799147352961E-16, 0.000000000000000000 ) ) ;
#254 = ORIENTED_EDGE ( 'NONE', *, *, #274, .F. ) ;
#255 = ADVANCED_FACE ( 'NONE', ( #19 ), #56, .T. ) ;
#256 = AXIS2_PLACEMENT_3D ( 'NONE', #126, #73, #27 ) ;
#257 = CARTESIAN_POINT ( 'NONE',  ( -6.123233995736766036E-17, 0.5000000000000000000, 0.000000000000000000 ) ) ;
#258 = COLOUR_RGB ( '',1.000000000000000000, 0.000000000000000000, 0.000000000000000000 ) ;
#259 = ORIENTED_EDGE ( 'NONE', *, *, #181, .F. ) ;
#260 =( NAMED_UNIT ( * ) PLANE_ANGLE_UNIT ( ) SI_UNIT ( $, .RADIAN. ) );
#261 =( NAMED_UNIT ( * ) PLANE_ANGLE_UNIT ( ) SI_UNIT ( $, .RADIAN. ) );
#262 = CARTESIAN_POINT ( 'NONE',  ( -0.5000000000000000000, 0.5000000000000001110, 6.123233995736764803E-17 ) ) ;
#263 = CARTESIAN_POINT ( 'NONE',  ( 0.000000000000000000, 0.5000000000000001110, -0.5000000000000000000 ) ) ;
#264 = LINE ( 'NONE', #6, #31 ) ;
#265 =( NAMED_UNIT ( * ) SI_UNIT ( $, .STERADIAN. ) SOLID_ANGLE_UNIT ( ) );
#266 =( CONVERSION_BASED_UNIT ( 'INCH', #344 ) LENGTH_UNIT ( ) NAMED_UNIT ( #370 ) );
#267 = FILL_AREA_STYLE_COLOUR ( '', #97 ) ;
#268 = DIRECTION ( 'NONE',  ( -0.000000000000000000, -1.000000000000000000, -0.000000000000000000 ) ) ;
#269 = VECTOR ( 'NONE', #322, 39.37007874015748143 ) ;
#270 = AXIS2_PLACEMENT_3D ( 'NONE', #362, #102, #300 ) ;
#271 = UNCERTAINTY_MEASURE_WITH_UNIT (LENGTH_MEASURE( 1.000000000000000082E-05 ), #160, 'distance_accuracy_value', 'NONE');
#272 = DIRECTION ( 'NONE',  ( 0.000000000000000000, 0.000000000000000000, -1.000000000000000000 ) ) ;
#273 = UNCERTAINTY_MEASURE_WITH_UNIT (LENGTH_MEASURE( 1.000000000000000082E-05 ), #266, 'distance_accuracy_value', 'NONE');
#274 = EDGE_CURVE ( 'NONE', #21, #342, #302, .T. ) ;
#275 = SURFACE_STYLE_FILL_AREA ( #278 ) ;
#276 = STYLED_ITEM ( 'NONE', ( #366 ), #217 ) ;
#277 =( GEOMETRIC_REPRESENTATION_CONTEXT ( 3 ) GLOBAL_UNCERTAINTY_ASSIGNED_CONTEXT ( ( #271 ) ) GLOBAL_UNIT_ASSIGNED_CONTEXT ( ( #160, #260, #133 ) ) REPRESENTATION_CONTEXT ( 'NONE', 'WORKASPACE' ) );
#278 = FILL_AREA_STYLE ('',( #294 ) ) ;
#279 = ORIENTED_EDGE ( 'NONE', *, *, #16, .T. ) ;
#280 = DIRECTION ( 'NONE',  ( 0.000000000000000000, 0.000000000000000000, 1.000000000000000000 ) ) ;
#281 = PLANE ( 'NONE',  #308 ) ;
#282 =( NAMED_UNIT ( * ) PLANE_ANGLE_UNIT ( ) SI_UNIT ( $, .RADIAN. ) );
#283 = PLANE ( 'NONE',  #355 ) ;
#284 = DIMENSIONAL_EXPONENTS ( 1.000000000000000000, 0.000000000000000000, 0.000000000000000000, 0.000000000000000000, 0.000000000000000000, 0.000000000000000000, 0.000000000000000000 ) ;
#285 = STYLED_ITEM ( 'NONE', ( #352 ), #55 ) ;
#286 = AXIS2_PLACEMENT_3D ( 'NONE', #46, #41, #101 ) ;
#287 = DIRECTION ( 'NONE',  ( -0.000000000000000000, -1.000000000000000000, -0.000000000000000000 ) ) ;
#288 = FILL_AREA_STYLE ('',( #267 ) ) ;
#289 = EDGE_CURVE ( 'NONE', #342, #28, #248, .T. ) ;
#290 = PRESENTATION_LAYER_ASSIGNMENT (  '', '', ( #285 ) ) ;
#291 = AXIS2_PLACEMENT_3D ( 'NONE', #15, #130, #79 ) ;
#292 = CARTESIAN_POINT ( 'NONE',  ( 0.4999999999999997780, 2.625000000000000000, 6.123233995736764803E-17 ) ) ;
#293 = LENGTH_MEASURE_WITH_UNIT ( LENGTH_MEASURE( 0.02539999999999999897 ), #88 );
#294 = FILL_AREA_STYLE_COLOUR ( '', #116 ) ;
#295 = DIRECTION ( 'NONE',  ( 0.000000000000000000, 0.000000000000000000, -1.000000000000000000 ) ) ;
#296 = MECHANICAL_DESIGN_GEOMETRIC_PRESENTATION_REPRESENTATION (  '', ( #49 ), #277 ) ;
#297 = CIRCLE ( 'NONE', #32, 0.4999999999999998335 ) ;
#298 = EDGE_CURVE ( 'NONE', #21, #61, #14, .T. ) ;
#299 = ORIENTED_EDGE ( 'NONE', *, *, #289, .T. ) ;
#300 = DIRECTION ( 'NONE',  ( 0.000000000000000000, -0.000000000000000000, 1.000000000000000000 ) ) ;
#301 = CIRCLE ( 'NONE', #182, 0.5000000000000000000 ) ;
#302 = CIRCLE ( 'NONE', #179, 0.5000000000000000000 ) ;
#303 = ORIENTED_EDGE ( 'NONE', *, *, #151, .F. ) ;
#304 = DIRECTION ( 'NONE',  ( -1.224646799147352961E-16, 1.000000000000000000, -0.000000000000000000 ) ) ;
#305 = PRODUCT_DEFINITION_CONTEXT ( 'detailed design', #118, 'design' ) ;
#306 = DIRECTION ( 'NONE',  ( -0.000000000000000000, -1.000000000000000000, -0.000000000000000000 ) ) ;
#307 = EDGE_LOOP ( 'NONE', ( #64, #303 ) ) ;
#308 = AXIS2_PLACEMENT_3D ( 'NONE', #26, #40, #199 ) ;
#309 =( NAMED_UNIT ( * ) PLANE_ANGLE_UNIT ( ) SI_UNIT ( $, .RADIAN. ) );
#310 =( CONVERSION_BASED_UNIT ( 'INCH', #169 ) LENGTH_UNIT ( ) NAMED_UNIT ( #244 ) );
#311 = CARTESIAN_POINT ( 'NONE',  ( 0.000000000000000000, 2.625000000000000000, 0.000000000000000000 ) ) ;
#312 =( NAMED_UNIT ( * ) SI_UNIT ( $, .STERADIAN. ) SOLID_ANGLE_UNIT ( ) );
#313 = MECHANICAL_DESIGN_GEOMETRIC_PRESENTATION_REPRESENTATION (  '', ( #360 ), #44 ) ;
#314 = CYLINDRICAL_SURFACE ( 'NONE', #144, 0.4999999999999998335 ) ;
#315 = AXIS2_PLACEMENT_3D ( 'NONE', #76, #365, #363 ) ;
#316 = SURFACE_SIDE_STYLE ('',( #72 ) ) ;
#317 = APPLICATION_PROTOCOL_DEFINITION ( 'draft international standard', 'automotive_design', 1998, #118 ) ;
#318 = EDGE_CURVE ( 'NONE', #158, #21, #242, .T. ) ;
#319 = FILL_AREA_STYLE ('',( #113 ) ) ;
#320 = CARTESIAN_POINT ( 'NONE',  ( -0.4999999999999994449, 2.625000000000000000, 0.000000000000000000 ) ) ;
#321 = APPLICATION_PROTOCOL_DEFINITION ( 'draft international standard', 'automotive_design', 1998, #186 ) ;
#322 = DIRECTION ( 'NONE',  ( -1.224646799147352961E-16, 1.000000000000000000, -0.000000000000000000 ) ) ;
#323 = PRESENTATION_LAYER_ASSIGNMENT (  '', '', ( #276 ) ) ;
#324 = AXIS2_PLACEMENT_3D ( 'NONE', #77, #153, #104 ) ;
#325 =( NAMED_UNIT ( * ) SI_UNIT ( $, .STERADIAN. ) SOLID_ANGLE_UNIT ( ) );
#326 = AXIS2_PLACEMENT_3D ( 'NONE', #185, #304, #137 ) ;
#327 = ADVANCED_FACE ( 'NONE', ( #212 ), #329, .T. ) ;
#328 = DIRECTION ( 'NONE',  ( 1.000000000000000000, 0.000000000000000000, -1.224646799147353207E-16 ) ) ;
#329 = CYLINDRICAL_SURFACE ( 'NONE', #326, 0.4999999999999997224 ) ;
#330 = COLOUR_RGB ( '',1.000000000000000000, 0.000000000000000000, 0.000000000000000000 ) ;
#331 = ORIENTED_EDGE ( 'NONE', *, *, #109, .T. ) ;
#332 =( CONVERSION_BASED_UNIT ( 'INCH', #136 ) LENGTH_UNIT ( ) NAMED_UNIT ( #284 ) );
#333 = EDGE_LOOP ( 'NONE', ( #106, #234, #58, #226 ) ) ;
#334 = UNCERTAINTY_MEASURE_WITH_UNIT (LENGTH_MEASURE( 1.000000000000000082E-05 ), #170, 'distance_accuracy_value', 'NONE');
#335 = ORIENTED_EDGE ( 'NONE', *, *, #176, .T. ) ;
#336 =( GEOMETRIC_REPRESENTATION_CONTEXT ( 3 ) GLOBAL_UNCERTAINTY_ASSIGNED_CONTEXT ( ( #334 ) ) GLOBAL_UNIT_ASSIGNED_CONTEXT ( ( #170, #38, #265 ) ) REPRESENTATION_CONTEXT ( 'NONE', 'WORKASPACE' ) );
#337 = COLOUR_RGB ( '',0.7921568627450980005, 0.8196078431372548767, 0.9333333333333333481 ) ;
#338 = EDGE_CURVE ( 'NONE', #131, #166, #230, .T. ) ;
#339 =( CONVERSION_BASED_UNIT ( 'INCH', #165 ) LENGTH_UNIT ( ) NAMED_UNIT ( #33 ) );
#340 = PRESENTATION_STYLE_ASSIGNMENT (( #200 ) ) ;
#341 = DIRECTION ( 'NONE',  ( 1.000000000000000000, 0.000000000000000000, 0.000000000000000000 ) ) ;
#342 = VERTEX_POINT ( 'NONE', #263 ) ;
#343 = CARTESIAN_POINT ( 'NONE',  ( 0.4999999999999997224, 5.000000000000000000, 0.000000000000000000 ) ) ;
#344 = LENGTH_MEASURE_WITH_UNIT ( LENGTH_MEASURE( 0.02539999999999999897 ), #143 );
#345 = SURFACE_STYLE_USAGE ( .BOTH. , #316 ) ;
#346 = ADVANCED_FACE ( 'NONE', ( #62 ), #283, .F. ) ;
#347 = PRODUCT_DEFINITION_FORMATION_WITH_SPECIFIED_SOURCE ( 'ANY', '', #8, .NOT_KNOWN. ) ;
#348 = CARTESIAN_POINT ( 'NONE',  ( 6.123233995736766036E-17, 0.5000000000000001110, 0.5000000000000000000 ) ) ;
#349 = EDGE_LOOP ( 'NONE', ( #107, #357 ) ) ;
#350 = MANIFOLD_SOLID_BREP ( 'Revolve - Tool Body (Straight Shanked)', #4 ) ;
#351 = DIRECTION ( 'NONE',  ( 0.000000000000000000, 0.000000000000000000, -1.000000000000000000 ) ) ;
#352 = PRESENTATION_STYLE_ASSIGNMENT (( #345 ) ) ;
#353 = EDGE_LOOP ( 'NONE', ( #140, #335, #215, #162, #10 ) ) ;
#354 = AXIS2_PLACEMENT_3D ( 'NONE', #3, #239, #228 ) ;
#355 = AXIS2_PLACEMENT_3D ( 'NONE', #343, #368, #253 ) ;
#356 = CARTESIAN_POINT ( 'NONE',  ( 0.000000000000000000, 2.625000000000000000, 0.000000000000000000 ) ) ;
#357 = ORIENTED_EDGE ( 'NONE', *, *, #243, .T. ) ;
#358 = UNCERTAINTY_MEASURE_WITH_UNIT (LENGTH_MEASURE( 1.000000000000000082E-05 ), #197, 'distance_accuracy_value', 'NONE');
#359 = PRESENTATION_STYLE_ASSIGNMENT (( #156 ) ) ;
#360 = STYLED_ITEM ( 'NONE', ( #120 ), #48 ) ;
#361 =( GEOMETRIC_REPRESENTATION_CONTEXT ( 3 ) GLOBAL_UNCERTAINTY_ASSIGNED_CONTEXT ( ( #57 ) ) GLOBAL_UNIT_ASSIGNED_CONTEXT ( ( #332, #309, #222 ) ) REPRESENTATION_CONTEXT ( 'NONE', 'WORKASPACE' ) );
#362 = CARTESIAN_POINT ( 'NONE',  ( 0.000000000000000000, 2.625000000000000000, 0.000000000000000000 ) ) ;
#363 = DIRECTION ( 'NONE',  ( -1.000000000000000000, 0.000000000000000000, 0.000000000000000000 ) ) ;
#364 = EDGE_CURVE ( 'NONE', #166, #373, #297, .T. ) ;
#365 = DIRECTION ( 'NONE',  ( -1.224646799147352961E-16, 1.000000000000000000, -0.000000000000000000 ) ) ;
#366 = PRESENTATION_STYLE_ASSIGNMENT (( #252 ) ) ;
#367 = ORIENTED_EDGE ( 'NONE', *, *, #318, .F. ) ;
#368 = DIRECTION ( 'NONE',  ( 1.224646799147352961E-16, -1.000000000000000000, 0.000000000000000000 ) ) ;
#369 = SURFACE_STYLE_USAGE ( .BOTH. , #81 ) ;
#370 = DIMENSIONAL_EXPONENTS ( 1.000000000000000000, 0.000000000000000000, 0.000000000000000000, 0.000000000000000000, 0.000000000000000000, 0.000000000000000000, 0.000000000000000000 ) ;
#371 = AXIS2_PLACEMENT_3D ( 'NONE', #47, #100, #295 ) ;
#372 = MECHANICAL_DESIGN_GEOMETRIC_PRESENTATION_REPRESENTATION (  '', ( #142 ), #214 ) ;
#373 = VERTEX_POINT ( 'NONE', #25 ) ;
ENDSEC;
END-ISO-10303-21;
