ISO-10303-21;
HEADER;
FILE_DESCRIPTION (( 'STEP AP214' ),
    '1' );
FILE_NAME ('81896.STEP',
    '2023-06-23T03:49:35',
    ( '' ),
    ( '' ),
    'SwSTEP 2.0',
    'SolidWorks 2023',
    '' );
FILE_SCHEMA (( 'AUTOMOTIVE_DESIGN' ));
ENDSEC;

DATA;
#1 = CIRCLE ( 'NONE', #142, 0.2500000000000000000 ) ;
#2 =( CONVERSION_BASED_UNIT ( 'INCH', #55 ) LENGTH_UNIT ( ) NAMED_UNIT ( #191 ) );
#3 = EDGE_LOOP ( 'NONE', ( #186, #171 ) ) ;
#4 = UNCERTAINTY_MEASURE_WITH_UNIT (LENGTH_MEASURE( 1.000000000000000082E-05 ), #281, 'distance_accuracy_value', 'NONE');
#5 = CARTESIAN_POINT ( 'NONE',  ( 0.2500000000000000000, 4.000000000000000000, 0.000000000000000000 ) ) ;
#6 = EDGE_LOOP ( 'NONE', ( #143, #102 ) ) ;
#7 = CIRCLE ( 'NONE', #108, 0.2500000000000000555 ) ;
#8 = CARTESIAN_POINT ( 'NONE',  ( 0.2499999999999999722, 4.000000000000000000, 3.061616997868383634E-17 ) ) ;
#9 = EDGE_CURVE ( 'NONE', #290, #103, #278, .T. ) ;
#10 = LINE ( 'NONE', #63, #175 ) ;
#11 =( GEOMETRIC_REPRESENTATION_CONTEXT ( 3 ) GLOBAL_UNCERTAINTY_ASSIGNED_CONTEXT ( ( #273 ) ) GLOBAL_UNIT_ASSIGNED_CONTEXT ( ( #2, #194, #120 ) ) REPRESENTATION_CONTEXT ( 'NONE', 'WORKASPACE' ) );
#12 = ORIENTED_EDGE ( 'NONE', *, *, #68, .F. ) ;
#13 = APPLICATION_CONTEXT ( 'automotive_design' ) ;
#14 = DIRECTION ( 'NONE',  ( -0.000000000000000000, -1.000000000000000000, -0.000000000000000000 ) ) ;
#15 = CARTESIAN_POINT ( 'NONE',  ( 0.000000000000000000, 2.000000000000000000, 0.000000000000000000 ) ) ;
#16 = CIRCLE ( 'NONE', #215, 0.2500000000000000000 ) ;
#17 = SURFACE_STYLE_USAGE ( .BOTH. , #155 ) ;
#18 = PRESENTATION_STYLE_ASSIGNMENT (( #140 ) ) ;
#19 = PRODUCT_RELATED_PRODUCT_CATEGORY ( 'part', '', ( #139 ) ) ;
#20 = DIMENSIONAL_EXPONENTS ( 1.000000000000000000, 0.000000000000000000, 0.000000000000000000, 0.000000000000000000, 0.000000000000000000, 0.000000000000000000, 0.000000000000000000 ) ;
#21 = CLOSED_SHELL ( 'NONE', ( #119, #287, #229, #289 ) ) ;
#22 = CYLINDRICAL_SURFACE ( 'NONE', #136, 0.2500000000000000000 ) ;
#23 = PRESENTATION_LAYER_ASSIGNMENT (  '', '', ( #253 ) ) ;
#24 = FILL_AREA_STYLE ('',( #161 ) ) ;
#25 = CARTESIAN_POINT ( 'NONE',  ( -0.2500000000000000000, 2.000000000000000000, 0.000000000000000000 ) ) ;
#26 = APPLICATION_PROTOCOL_DEFINITION ( 'draft international standard', 'automotive_design', 1998, #13 ) ;
#27 = DIRECTION ( 'NONE',  ( -3.061616997868383018E-17, 1.000000000000000000, -0.000000000000000000 ) ) ;
#28 = ORIENTED_EDGE ( 'NONE', *, *, #9, .T. ) ;
#29 = PRESENTATION_LAYER_ASSIGNMENT (  '', '', ( #112 ) ) ;
#30 = DIRECTION ( 'NONE',  ( -0.000000000000000000, -1.000000000000000000, -0.000000000000000000 ) ) ;
#31 = EDGE_CURVE ( 'NONE', #107, #103, #70, .T. ) ;
#32 = EDGE_LOOP ( 'NONE', ( #204, #174, #293, #58 ) ) ;
#33 = STYLED_ITEM ( 'NONE', ( #205 ), #134 ) ;
#34 = MANIFOLD_SOLID_BREP ( 'Revolve - Tool Body (Straight Shanked)', #78 ) ;
#35 = EDGE_CURVE ( 'NONE', #272, #270, #83, .T. ) ;
#36 = FACE_OUTER_BOUND ( 'NONE', #32, .T. ) ;
#37 = ORIENTED_EDGE ( 'NONE', *, *, #68, .T. ) ;
#38 =( NAMED_UNIT ( * ) SI_UNIT ( $, .STERADIAN. ) SOLID_ANGLE_UNIT ( ) );
#39 = SURFACE_SIDE_STYLE ('',( #114 ) ) ;
#40 =( GEOMETRIC_REPRESENTATION_CONTEXT ( 3 ) GLOBAL_UNCERTAINTY_ASSIGNED_CONTEXT ( ( #99 ) ) GLOBAL_UNIT_ASSIGNED_CONTEXT ( ( #45, #93, #50 ) ) REPRESENTATION_CONTEXT ( 'NONE', 'WORKASPACE' ) );
#41 = DIRECTION ( 'NONE',  ( -1.000000000000000000, 0.000000000000000000, 0.000000000000000000 ) ) ;
#42 = SURFACE_STYLE_FILL_AREA ( #69 ) ;
#43 = DIRECTION ( 'NONE',  ( -3.061616997868383018E-17, 1.000000000000000000, 0.000000000000000000 ) ) ;
#44 = EDGE_CURVE ( 'NONE', #107, #121, #1, .T. ) ;
#45 =( CONVERSION_BASED_UNIT ( 'INCH', #157 ) LENGTH_UNIT ( ) NAMED_UNIT ( #94 ) );
#46 = DIRECTION ( 'NONE',  ( -3.061616997868383018E-17, 1.000000000000000000, -0.000000000000000000 ) ) ;
#47 =( NAMED_UNIT ( * ) PLANE_ANGLE_UNIT ( ) SI_UNIT ( $, .RADIAN. ) );
#48 =( GEOMETRIC_REPRESENTATION_CONTEXT ( 3 ) GLOBAL_UNCERTAINTY_ASSIGNED_CONTEXT ( ( #195 ) ) GLOBAL_UNIT_ASSIGNED_CONTEXT ( ( #257, #297, #65 ) ) REPRESENTATION_CONTEXT ( 'NONE', 'WORKASPACE' ) );
#49 = PRESENTATION_LAYER_ASSIGNMENT (  '', '', ( #33 ) ) ;
#50 =( NAMED_UNIT ( * ) SI_UNIT ( $, .STERADIAN. ) SOLID_ANGLE_UNIT ( ) );
#51 = AXIS2_PLACEMENT_3D ( 'NONE', #80, #82, #266 ) ;
#52 = SURFACE_SIDE_STYLE ('',( #288 ) ) ;
#53 =( CONVERSION_BASED_UNIT ( 'INCH', #237 ) LENGTH_UNIT ( ) NAMED_UNIT ( #20 ) );
#54 = CARTESIAN_POINT ( 'NONE',  ( 0.2500000000000000000, 2.000000000000000000, 3.061616997868383634E-17 ) ) ;
#55 = LENGTH_MEASURE_WITH_UNIT ( LENGTH_MEASURE( 0.02539999999999999897 ), #227 );
#56 = PRESENTATION_LAYER_ASSIGNMENT (  '', '', ( #151 ) ) ;
#57 = CARTESIAN_POINT ( 'NONE',  ( 3.061616997868383018E-17, 0.000000000000000000, 0.2500000000000000000 ) ) ;
#58 = ORIENTED_EDGE ( 'NONE', *, *, #31, .F. ) ;
#59 = VERTEX_POINT ( 'NONE', #149 ) ;
#60 = COLOUR_RGB ( '',1.000000000000000000, 0.000000000000000000, 0.000000000000000000 ) ;
#61 = AXIS2_PLACEMENT_3D ( 'NONE', #100, #193, #271 ) ;
#62 = EDGE_LOOP ( 'NONE', ( #218, #208, #87, #111 ) ) ;
#63 = CARTESIAN_POINT ( 'NONE',  ( 3.061616997868383018E-17, 0.000000000000000000, 0.2500000000000000000 ) ) ;
#64 = DIRECTION ( 'NONE',  ( -1.000000000000000000, 0.000000000000000000, 0.000000000000000000 ) ) ;
#65 =( NAMED_UNIT ( * ) SI_UNIT ( $, .STERADIAN. ) SOLID_ANGLE_UNIT ( ) );
#66 = PLANE ( 'NONE',  #164 ) ;
#67 = AXIS2_PLACEMENT_3D ( 'NONE', #282, #74, #210 ) ;
#68 = EDGE_CURVE ( 'NONE', #272, #196, #10, .T. ) ;
#69 = FILL_AREA_STYLE ('',( #235 ) ) ;
#70 = LINE ( 'NONE', #184, #181 ) ;
#71 = SURFACE_SIDE_STYLE ('',( #301 ) ) ;
#72 = CARTESIAN_POINT ( 'NONE',  ( 0.000000000000000000, 2.000000000000000000, 0.000000000000000000 ) ) ;
#73 = EDGE_CURVE ( 'NONE', #121, #107, #279, .T. ) ;
#74 = DIRECTION ( 'NONE',  ( -0.000000000000000000, -1.000000000000000000, -0.000000000000000000 ) ) ;
#75 = SURFACE_STYLE_USAGE ( .BOTH. , #71 ) ;
#76 = DIRECTION ( 'NONE',  ( 0.000000000000000000, 0.000000000000000000, -1.000000000000000000 ) ) ;
#77 = FACE_OUTER_BOUND ( 'NONE', #123, .T. ) ;
#78 = CLOSED_SHELL ( 'NONE', ( #197, #97, #126, #147 ) ) ;
#79 = VECTOR ( 'NONE', #14, 39.37007874015748143 ) ;
#80 = CARTESIAN_POINT ( 'NONE',  ( -6.123233995736766036E-17, 4.000000000000000000, 0.000000000000000000 ) ) ;
#81 = ORIENTED_EDGE ( 'NONE', *, *, #35, .T. ) ;
#82 = DIRECTION ( 'NONE',  ( -3.061616997868383018E-17, 1.000000000000000000, -0.000000000000000000 ) ) ;
#83 = CIRCLE ( 'NONE', #284, 0.2500000000000000000 ) ;
#84 = ORIENTED_EDGE ( 'NONE', *, *, #294, .T. ) ;
#85 = DIRECTION ( 'NONE',  ( -3.061616997868383018E-17, 1.000000000000000000, -0.000000000000000000 ) ) ;
#86 = CYLINDRICAL_SURFACE ( 'NONE', #67, 0.2500000000000000000 ) ;
#87 = ORIENTED_EDGE ( 'NONE', *, *, #31, .T. ) ;
#88 = EDGE_CURVE ( 'NONE', #196, #59, #16, .T. ) ;
#89 = DIRECTION ( 'NONE',  ( 0.000000000000000000, -0.000000000000000000, 1.000000000000000000 ) ) ;
#90 = FACE_OUTER_BOUND ( 'NONE', #3, .T. ) ;
#91 = LENGTH_MEASURE_WITH_UNIT ( LENGTH_MEASURE( 0.02539999999999999897 ), #277 );
#92 = ORIENTED_EDGE ( 'NONE', *, *, #258, .F. ) ;
#93 =( NAMED_UNIT ( * ) PLANE_ANGLE_UNIT ( ) SI_UNIT ( $, .RADIAN. ) );
#94 = DIMENSIONAL_EXPONENTS ( 1.000000000000000000, 0.000000000000000000, 0.000000000000000000, 0.000000000000000000, 0.000000000000000000, 0.000000000000000000, 0.000000000000000000 ) ;
#95 = ORIENTED_EDGE ( 'NONE', *, *, #252, .T. ) ;
#96 =( CONVERSION_BASED_UNIT ( 'INCH', #122 ) LENGTH_UNIT ( ) NAMED_UNIT ( #154 ) );
#97 = ADVANCED_FACE ( 'NONE', ( #90 ), #180, .F. ) ;
#98 = AXIS2_PLACEMENT_3D ( 'NONE', #129, #150, #41 ) ;
#99 = UNCERTAINTY_MEASURE_WITH_UNIT (LENGTH_MEASURE( 1.000000000000000082E-05 ), #45, 'distance_accuracy_value', 'NONE');
#100 = CARTESIAN_POINT ( 'NONE',  ( 0.000000000000000000, 0.000000000000000000, 0.000000000000000000 ) ) ;
#101 = SURFACE_STYLE_FILL_AREA ( #125 ) ;
#102 = ORIENTED_EDGE ( 'NONE', *, *, #88, .T. ) ;
#103 = VERTEX_POINT ( 'NONE', #158 ) ;
#104 = MECHANICAL_DESIGN_GEOMETRIC_PRESENTATION_REPRESENTATION (  '', ( #33 ), #11 ) ;
#105 = EDGE_LOOP ( 'NONE', ( #246, #28 ) ) ;
#106 = SURFACE_SIDE_STYLE ('',( #178 ) ) ;
#107 = VERTEX_POINT ( 'NONE', #25 ) ;
#108 = AXIS2_PLACEMENT_3D ( 'NONE', #250, #170, #141 ) ;
#109 = SURFACE_STYLE_USAGE ( .BOTH. , #225 ) ;
#110 = CARTESIAN_POINT ( 'NONE',  ( 0.000000000000000000, 0.000000000000000000, 0.000000000000000000 ) ) ;
#111 = ORIENTED_EDGE ( 'NONE', *, *, #9, .F. ) ;
#112 = STYLED_ITEM ( 'NONE', ( #230 ), #34 ) ;
#113 = COLOUR_RGB ( '',1.000000000000000000, 0.000000000000000000, 0.000000000000000000 ) ;
#114 = SURFACE_STYLE_FILL_AREA ( #133 ) ;
#115 = PLANE ( 'NONE',  #234 ) ;
#116 =( GEOMETRIC_REPRESENTATION_CONTEXT ( 3 ) GLOBAL_UNCERTAINTY_ASSIGNED_CONTEXT ( ( #241 ) ) GLOBAL_UNIT_ASSIGNED_CONTEXT ( ( #305, #260, #38 ) ) REPRESENTATION_CONTEXT ( 'NONE', 'WORKASPACE' ) );
#117 =( NAMED_UNIT ( * ) SI_UNIT ( $, .STERADIAN. ) SOLID_ANGLE_UNIT ( ) );
#118 =( NAMED_UNIT ( * ) SI_UNIT ( $, .STERADIAN. ) SOLID_ANGLE_UNIT ( ) );
#119 = ADVANCED_FACE ( 'NONE', ( #77 ), #22, .T. ) ;
#120 =( NAMED_UNIT ( * ) SI_UNIT ( $, .STERADIAN. ) SOLID_ANGLE_UNIT ( ) );
#121 = VERTEX_POINT ( 'NONE', #54 ) ;
#122 = LENGTH_MEASURE_WITH_UNIT ( LENGTH_MEASURE( 0.02539999999999999897 ), #283 );
#123 = EDGE_LOOP ( 'NONE', ( #84, #37, #92, #199 ) ) ;
#124 = CYLINDRICAL_SURFACE ( 'NONE', #296, 0.2500000000000000555 ) ;
#125 = FILL_AREA_STYLE ('',( #216 ) ) ;
#126 = ADVANCED_FACE ( 'NONE', ( #167 ), #124, .T. ) ;
#127 = AXIS2_PLACEMENT_3D ( 'NONE', #132, #185, #231 ) ;
#128 = DIRECTION ( 'NONE',  ( 0.000000000000000000, 0.000000000000000000, -1.000000000000000000 ) ) ;
#129 = CARTESIAN_POINT ( 'NONE',  ( 0.000000000000000000, 2.000000000000000000, 0.000000000000000000 ) ) ;
#130 =( NAMED_UNIT ( * ) SI_UNIT ( $, .STERADIAN. ) SOLID_ANGLE_UNIT ( ) );
#131 = DIRECTION ( 'NONE',  ( -1.000000000000000000, -3.061616997868383018E-17, 0.000000000000000000 ) ) ;
#132 = CARTESIAN_POINT ( 'NONE',  ( 0.000000000000000000, 0.000000000000000000, 0.000000000000000000 ) ) ;
#133 = FILL_AREA_STYLE ('',( #249 ) ) ;
#134 = MANIFOLD_SOLID_BREP ( 'Revolve - Cutting Edge', #21 ) ;
#135 = DIRECTION ( 'NONE',  ( 0.000000000000000000, 1.000000000000000000, 0.000000000000000000 ) ) ;
#136 = AXIS2_PLACEMENT_3D ( 'NONE', #269, #30, #128 ) ;
#137 =( GEOMETRIC_REPRESENTATION_CONTEXT ( 3 ) GLOBAL_UNCERTAINTY_ASSIGNED_CONTEXT ( ( #145 ) ) GLOBAL_UNIT_ASSIGNED_CONTEXT ( ( #53, #239, #117 ) ) REPRESENTATION_CONTEXT ( 'NONE', 'WORKASPACE' ) );
#138 = FILL_AREA_STYLE ('',( #299 ) ) ;
#139 = PRODUCT ( '81896', '81896', '', ( #219 ) ) ;
#140 = SURFACE_STYLE_USAGE ( .BOTH. , #52 ) ;
#141 = DIRECTION ( 'NONE',  ( -1.000000000000000000, 0.000000000000000000, 0.000000000000000000 ) ) ;
#142 = AXIS2_PLACEMENT_3D ( 'NONE', #15, #85, #275 ) ;
#143 = ORIENTED_EDGE ( 'NONE', *, *, #258, .T. ) ;
#144 = PRODUCT_DEFINITION_FORMATION_WITH_SPECIFIED_SOURCE ( 'ANY', '', #139, .NOT_KNOWN. ) ;
#145 = UNCERTAINTY_MEASURE_WITH_UNIT (LENGTH_MEASURE( 1.000000000000000082E-05 ), #53, 'distance_accuracy_value', 'NONE');
#146 = FILL_AREA_STYLE_COLOUR ( '', #60 ) ;
#147 = ADVANCED_FACE ( 'NONE', ( #224 ), #203, .F. ) ;
#148 = DIRECTION ( 'NONE',  ( -3.061616997868383018E-17, 1.000000000000000000, -0.000000000000000000 ) ) ;
#149 = CARTESIAN_POINT ( 'NONE',  ( 0.000000000000000000, 0.000000000000000000, -0.2500000000000000000 ) ) ;
#150 = DIRECTION ( 'NONE',  ( -3.061616997868383018E-17, 1.000000000000000000, -0.000000000000000000 ) ) ;
#151 = STYLED_ITEM ( 'NONE', ( #295 ), #229 ) ;
#152 = CARTESIAN_POINT ( 'NONE',  ( 0.000000000000000000, 2.000000000000000000, 0.000000000000000000 ) ) ;
#153 = ORIENTED_EDGE ( 'NONE', *, *, #88, .F. ) ;
#154 = DIMENSIONAL_EXPONENTS ( 1.000000000000000000, 0.000000000000000000, 0.000000000000000000, 0.000000000000000000, 0.000000000000000000, 0.000000000000000000, 0.000000000000000000 ) ;
#155 = SURFACE_SIDE_STYLE ('',( #42 ) ) ;
#156 = SURFACE_STYLE_USAGE ( .BOTH. , #39 ) ;
#157 = LENGTH_MEASURE_WITH_UNIT ( LENGTH_MEASURE( 0.02539999999999999897 ), #256 );
#158 = CARTESIAN_POINT ( 'NONE',  ( -0.2500000000000001110, 4.000000000000000000, 0.000000000000000000 ) ) ;
#159 = LINE ( 'NONE', #188, #79 ) ;
#160 = STYLED_ITEM ( 'NONE', ( #18 ), #119 ) ;
#161 = FILL_AREA_STYLE_COLOUR ( '', #220 ) ;
#162 = CARTESIAN_POINT ( 'NONE',  ( 0.000000000000000000, 2.000000000000000000, 0.000000000000000000 ) ) ;
#163 = DIMENSIONAL_EXPONENTS ( 1.000000000000000000, 0.000000000000000000, 0.000000000000000000, 0.000000000000000000, 0.000000000000000000, 0.000000000000000000, 0.000000000000000000 ) ;
#164 = AXIS2_PLACEMENT_3D ( 'NONE', #152, #135, #89 ) ;
#165 =( NAMED_UNIT ( * ) PLANE_ANGLE_UNIT ( ) SI_UNIT ( $, .RADIAN. ) );
#166 =( LENGTH_UNIT ( ) NAMED_UNIT ( * ) SI_UNIT ( $, .METRE. ) );
#167 = FACE_OUTER_BOUND ( 'NONE', #62, .T. ) ;
#168 = CARTESIAN_POINT ( 'NONE',  ( 0.000000000000000000, 0.000000000000000000, 0.000000000000000000 ) ) ;
#169 = PRESENTATION_LAYER_ASSIGNMENT (  '', '', ( #309 ) ) ;
#170 = DIRECTION ( 'NONE',  ( -3.061616997868383018E-17, 1.000000000000000000, -0.000000000000000000 ) ) ;
#171 = ORIENTED_EDGE ( 'NONE', *, *, #73, .F. ) ;
#172 = PRODUCT_DEFINITION_CONTEXT ( 'detailed design', #221, 'design' ) ;
#173 = EDGE_CURVE ( 'NONE', #121, #290, #298, .T. ) ;
#174 = ORIENTED_EDGE ( 'NONE', *, *, #173, .T. ) ;
#175 = VECTOR ( 'NONE', #276, 39.37007874015748143 ) ;
#176 = CARTESIAN_POINT ( 'NONE',  ( -6.123233995736766036E-17, 4.000000000000000000, 0.000000000000000000 ) ) ;
#177 = CARTESIAN_POINT ( 'NONE',  ( -6.123233995736766036E-17, 4.000000000000000000, 0.000000000000000000 ) ) ;
#178 = SURFACE_STYLE_FILL_AREA ( #248 ) ;
#179 =( LENGTH_UNIT ( ) NAMED_UNIT ( * ) SI_UNIT ( $, .METRE. ) );
#180 = PLANE ( 'NONE',  #259 ) ;
#181 = VECTOR ( 'NONE', #46, 39.37007874015748143 ) ;
#182 = COLOUR_RGB ( '',1.000000000000000000, 0.000000000000000000, 0.000000000000000000 ) ;
#183 = PRESENTATION_STYLE_ASSIGNMENT (( #75 ) ) ;
#184 = CARTESIAN_POINT ( 'NONE',  ( -0.2500000000000001110, 4.000000000000000000, 0.000000000000000000 ) ) ;
#185 = DIRECTION ( 'NONE',  ( -0.000000000000000000, -1.000000000000000000, -0.000000000000000000 ) ) ;
#186 = ORIENTED_EDGE ( 'NONE', *, *, #44, .F. ) ;
#187 = MECHANICAL_DESIGN_GEOMETRIC_PRESENTATION_REPRESENTATION (  '', ( #151 ), #40 ) ;
#188 = CARTESIAN_POINT ( 'NONE',  ( 0.000000000000000000, 0.000000000000000000, -0.2500000000000000000 ) ) ;
#189 = VECTOR ( 'NONE', #148, 39.37007874015748143 ) ;
#190 =( GEOMETRIC_REPRESENTATION_CONTEXT ( 3 ) GLOBAL_UNCERTAINTY_ASSIGNED_CONTEXT ( ( #267 ) ) GLOBAL_UNIT_ASSIGNED_CONTEXT ( ( #96, #165, #118 ) ) REPRESENTATION_CONTEXT ( 'NONE', 'WORKASPACE' ) );
#191 = DIMENSIONAL_EXPONENTS ( 1.000000000000000000, 0.000000000000000000, 0.000000000000000000, 0.000000000000000000, 0.000000000000000000, 0.000000000000000000, 0.000000000000000000 ) ;
#192 = COLOUR_RGB ( '',0.7921568627450980005, 0.8196078431372548767, 0.9333333333333333481 ) ;
#193 = DIRECTION ( 'NONE',  ( 0.000000000000000000, 0.000000000000000000, 1.000000000000000000 ) ) ;
#194 =( NAMED_UNIT ( * ) PLANE_ANGLE_UNIT ( ) SI_UNIT ( $, .RADIAN. ) );
#195 = UNCERTAINTY_MEASURE_WITH_UNIT (LENGTH_MEASURE( 1.000000000000000082E-05 ), #257, 'distance_accuracy_value', 'NONE');
#196 = VERTEX_POINT ( 'NONE', #57 ) ;
#197 = ADVANCED_FACE ( 'NONE', ( #36 ), #240, .T. ) ;
#198 = MECHANICAL_DESIGN_GEOMETRIC_PRESENTATION_REPRESENTATION (  '', ( #160 ), #116 ) ;
#199 = ORIENTED_EDGE ( 'NONE', *, *, #252, .F. ) ;
#200 = SURFACE_STYLE_USAGE ( .BOTH. , #106 ) ;
#201 = DIRECTION ( 'NONE',  ( 0.000000000000000000, 0.000000000000000000, -1.000000000000000000 ) ) ;
#202 = AXIS2_PLACEMENT_3D ( 'NONE', #162, #291, #264 ) ;
#203 = PLANE ( 'NONE',  #209 ) ;
#204 = ORIENTED_EDGE ( 'NONE', *, *, #44, .T. ) ;
#205 = PRESENTATION_STYLE_ASSIGNMENT (( #109 ) ) ;
#206 = DIRECTION ( 'NONE',  ( -0.000000000000000000, -1.000000000000000000, -0.000000000000000000 ) ) ;
#207 = FACE_OUTER_BOUND ( 'NONE', #228, .T. ) ;
#208 = ORIENTED_EDGE ( 'NONE', *, *, #73, .T. ) ;
#209 = AXIS2_PLACEMENT_3D ( 'NONE', #5, #292, #274 ) ;
#210 = DIRECTION ( 'NONE',  ( 0.000000000000000000, 0.000000000000000000, -1.000000000000000000 ) ) ;
#211 = DIRECTION ( 'NONE',  ( -0.000000000000000000, -1.000000000000000000, -0.000000000000000000 ) ) ;
#212 = PRESENTATION_STYLE_ASSIGNMENT (( #17 ) ) ;
#213 = MECHANICAL_DESIGN_GEOMETRIC_PRESENTATION_REPRESENTATION (  '', ( #309 ), #233 ) ;
#214 = MECHANICAL_DESIGN_GEOMETRIC_PRESENTATION_REPRESENTATION (  '', ( #112 ), #48 ) ;
#215 = AXIS2_PLACEMENT_3D ( 'NONE', #110, #206, #300 ) ;
#216 = FILL_AREA_STYLE_COLOUR ( '', #192 ) ;
#217 = ORIENTED_EDGE ( 'NONE', *, *, #294, .F. ) ;
#218 = ORIENTED_EDGE ( 'NONE', *, *, #173, .F. ) ;
#219 = PRODUCT_CONTEXT ( 'NONE', #13, 'mechanical' ) ;
#220 = COLOUR_RGB ( '',1.000000000000000000, 0.000000000000000000, 0.000000000000000000 ) ;
#221 = APPLICATION_CONTEXT ( 'automotive_design' ) ;
#222 = PRODUCT_DEFINITION_SHAPE ( 'NONE', 'NONE',  #238 ) ;
#223 = EDGE_CURVE ( 'NONE', #103, #290, #7, .T. ) ;
#224 = FACE_OUTER_BOUND ( 'NONE', #105, .T. ) ;
#225 = SURFACE_SIDE_STYLE ('',( #101 ) ) ;
#226 = CIRCLE ( 'NONE', #202, 0.2500000000000000000 ) ;
#227 =( LENGTH_UNIT ( ) NAMED_UNIT ( * ) SI_UNIT ( $, .METRE. ) );
#228 = EDGE_LOOP ( 'NONE', ( #217, #303 ) ) ;
#229 = ADVANCED_FACE ( 'NONE', ( #243 ), #86, .T. ) ;
#230 = PRESENTATION_STYLE_ASSIGNMENT (( #156 ) ) ;
#231 = DIRECTION ( 'NONE',  ( 0.000000000000000000, 0.000000000000000000, -1.000000000000000000 ) ) ;
#232 = DIRECTION ( 'NONE',  ( -1.000000000000000000, 0.000000000000000000, 0.000000000000000000 ) ) ;
#233 =( GEOMETRIC_REPRESENTATION_CONTEXT ( 3 ) GLOBAL_UNCERTAINTY_ASSIGNED_CONTEXT ( ( #4 ) ) GLOBAL_UNIT_ASSIGNED_CONTEXT ( ( #281, #47, #130 ) ) REPRESENTATION_CONTEXT ( 'NONE', 'WORKASPACE' ) );
#234 = AXIS2_PLACEMENT_3D ( 'NONE', #168, #286, #76 ) ;
#235 = FILL_AREA_STYLE_COLOUR ( '', #113 ) ;
#236 = MECHANICAL_DESIGN_GEOMETRIC_PRESENTATION_REPRESENTATION (  '', ( #253 ), #190 ) ;
#237 = LENGTH_MEASURE_WITH_UNIT ( LENGTH_MEASURE( 0.02539999999999999897 ), #166 );
#238 = PRODUCT_DEFINITION ( 'UNKNOWN', '', #144, #172 ) ;
#239 =( NAMED_UNIT ( * ) PLANE_ANGLE_UNIT ( ) SI_UNIT ( $, .RADIAN. ) );
#240 = CYLINDRICAL_SURFACE ( 'NONE', #51, 0.2500000000000000555 ) ;
#241 = UNCERTAINTY_MEASURE_WITH_UNIT (LENGTH_MEASURE( 1.000000000000000082E-05 ), #305, 'distance_accuracy_value', 'NONE');
#242 = PRESENTATION_LAYER_ASSIGNMENT (  '', '', ( #160 ) ) ;
#243 = FACE_OUTER_BOUND ( 'NONE', #251, .T. ) ;
#244 = APPLICATION_PROTOCOL_DEFINITION ( 'draft international standard', 'automotive_design', 1998, #221 ) ;
#245 = AXIS2_PLACEMENT_3D ( 'NONE', #177, #304, #232 ) ;
#246 = ORIENTED_EDGE ( 'NONE', *, *, #223, .T. ) ;
#247 = SHAPE_DEFINITION_REPRESENTATION ( #222, #306 ) ;
#248 = FILL_AREA_STYLE ('',( #146 ) ) ;
#249 = FILL_AREA_STYLE_COLOUR ( '', #302 ) ;
#250 = CARTESIAN_POINT ( 'NONE',  ( -6.123233995736766036E-17, 4.000000000000000000, 0.000000000000000000 ) ) ;
#251 = EDGE_LOOP ( 'NONE', ( #12, #81, #95, #153 ) ) ;
#252 = EDGE_CURVE ( 'NONE', #270, #59, #159, .T. ) ;
#253 = STYLED_ITEM ( 'NONE', ( #212 ), #289 ) ;
#254 = FACE_OUTER_BOUND ( 'NONE', #6, .T. ) ;
#255 = LENGTH_MEASURE_WITH_UNIT ( LENGTH_MEASURE( 0.02539999999999999897 ), #179 );
#256 =( LENGTH_UNIT ( ) NAMED_UNIT ( * ) SI_UNIT ( $, .METRE. ) );
#257 =( CONVERSION_BASED_UNIT ( 'INCH', #255 ) LENGTH_UNIT ( ) NAMED_UNIT ( #163 ) );
#258 = EDGE_CURVE ( 'NONE', #59, #196, #268, .T. ) ;
#259 = AXIS2_PLACEMENT_3D ( 'NONE', #280, #43, #131 ) ;
#260 =( NAMED_UNIT ( * ) PLANE_ANGLE_UNIT ( ) SI_UNIT ( $, .RADIAN. ) );
#261 = DIMENSIONAL_EXPONENTS ( 1.000000000000000000, 0.000000000000000000, 0.000000000000000000, 0.000000000000000000, 0.000000000000000000, 0.000000000000000000, 0.000000000000000000 ) ;
#262 = CARTESIAN_POINT ( 'NONE',  ( 0.000000000000000000, 2.000000000000000000, -0.2500000000000000000 ) ) ;
#263 = LENGTH_MEASURE_WITH_UNIT ( LENGTH_MEASURE( 0.02539999999999999897 ), #308 );
#264 = DIRECTION ( 'NONE',  ( 0.000000000000000000, 0.000000000000000000, -1.000000000000000000 ) ) ;
#265 = CARTESIAN_POINT ( 'NONE',  ( 0.2500000000000000000, 4.000000000000000000, 3.061616997868383634E-17 ) ) ;
#266 = DIRECTION ( 'NONE',  ( -1.000000000000000000, 0.000000000000000000, 0.000000000000000000 ) ) ;
#267 = UNCERTAINTY_MEASURE_WITH_UNIT (LENGTH_MEASURE( 1.000000000000000082E-05 ), #96, 'distance_accuracy_value', 'NONE');
#268 = CIRCLE ( 'NONE', #127, 0.2500000000000000000 ) ;
#269 = CARTESIAN_POINT ( 'NONE',  ( 0.000000000000000000, 0.000000000000000000, 0.000000000000000000 ) ) ;
#270 = VERTEX_POINT ( 'NONE', #262 ) ;
#271 = DIRECTION ( 'NONE',  ( 1.000000000000000000, 0.000000000000000000, 0.000000000000000000 ) ) ;
#272 = VERTEX_POINT ( 'NONE', #285 ) ;
#273 = UNCERTAINTY_MEASURE_WITH_UNIT (LENGTH_MEASURE( 1.000000000000000082E-05 ), #2, 'distance_accuracy_value', 'NONE');
#274 = DIRECTION ( 'NONE',  ( 1.000000000000000000, 3.061616997868383018E-17, 0.000000000000000000 ) ) ;
#275 = DIRECTION ( 'NONE',  ( -1.000000000000000000, 0.000000000000000000, 0.000000000000000000 ) ) ;
#276 = DIRECTION ( 'NONE',  ( -0.000000000000000000, -1.000000000000000000, -0.000000000000000000 ) ) ;
#277 =( LENGTH_UNIT ( ) NAMED_UNIT ( * ) SI_UNIT ( $, .METRE. ) );
#278 = CIRCLE ( 'NONE', #245, 0.2500000000000000555 ) ;
#279 = CIRCLE ( 'NONE', #98, 0.2500000000000000000 ) ;
#280 = CARTESIAN_POINT ( 'NONE',  ( 1.171687330204576256E-34, 2.000000000000000000, 0.000000000000000000 ) ) ;
#281 =( CONVERSION_BASED_UNIT ( 'INCH', #91 ) LENGTH_UNIT ( ) NAMED_UNIT ( #307 ) );
#282 = CARTESIAN_POINT ( 'NONE',  ( 0.000000000000000000, 0.000000000000000000, 0.000000000000000000 ) ) ;
#283 =( LENGTH_UNIT ( ) NAMED_UNIT ( * ) SI_UNIT ( $, .METRE. ) );
#284 = AXIS2_PLACEMENT_3D ( 'NONE', #72, #211, #201 ) ;
#285 = CARTESIAN_POINT ( 'NONE',  ( 3.061616997868383018E-17, 2.000000000000000000, 0.2500000000000000000 ) ) ;
#286 = DIRECTION ( 'NONE',  ( 0.000000000000000000, -1.000000000000000000, -0.000000000000000000 ) ) ;
#287 = ADVANCED_FACE ( 'NONE', ( #207 ), #66, .T. ) ;
#288 = SURFACE_STYLE_FILL_AREA ( #24 ) ;
#289 = ADVANCED_FACE ( 'NONE', ( #254 ), #115, .T. ) ;
#290 = VERTEX_POINT ( 'NONE', #265 ) ;
#291 = DIRECTION ( 'NONE',  ( -0.000000000000000000, -1.000000000000000000, -0.000000000000000000 ) ) ;
#292 = DIRECTION ( 'NONE',  ( 3.061616997868383018E-17, -1.000000000000000000, 0.000000000000000000 ) ) ;
#293 = ORIENTED_EDGE ( 'NONE', *, *, #223, .F. ) ;
#294 = EDGE_CURVE ( 'NONE', #270, #272, #226, .T. ) ;
#295 = PRESENTATION_STYLE_ASSIGNMENT (( #200 ) ) ;
#296 = AXIS2_PLACEMENT_3D ( 'NONE', #176, #27, #64 ) ;
#297 =( NAMED_UNIT ( * ) PLANE_ANGLE_UNIT ( ) SI_UNIT ( $, .RADIAN. ) );
#298 = LINE ( 'NONE', #8, #189 ) ;
#299 = FILL_AREA_STYLE_COLOUR ( '', #182 ) ;
#300 = DIRECTION ( 'NONE',  ( 0.000000000000000000, 0.000000000000000000, -1.000000000000000000 ) ) ;
#301 = SURFACE_STYLE_FILL_AREA ( #138 ) ;
#302 = COLOUR_RGB ( '',0.7921568627450980005, 0.8196078431372548767, 0.9333333333333333481 ) ;
#303 = ORIENTED_EDGE ( 'NONE', *, *, #35, .F. ) ;
#304 = DIRECTION ( 'NONE',  ( -3.061616997868383018E-17, 1.000000000000000000, -0.000000000000000000 ) ) ;
#305 =( CONVERSION_BASED_UNIT ( 'INCH', #263 ) LENGTH_UNIT ( ) NAMED_UNIT ( #261 ) );
#306 = ADVANCED_BREP_SHAPE_REPRESENTATION ( '81896', ( #134, #34, #61 ), #137 ) ;
#307 = DIMENSIONAL_EXPONENTS ( 1.000000000000000000, 0.000000000000000000, 0.000000000000000000, 0.000000000000000000, 0.000000000000000000, 0.000000000000000000, 0.000000000000000000 ) ;
#308 =( LENGTH_UNIT ( ) NAMED_UNIT ( * ) SI_UNIT ( $, .METRE. ) );
#309 = STYLED_ITEM ( 'NONE', ( #183 ), #287 ) ;
ENDSEC;
END-ISO-10303-21;
