ISO-10303-21;
HEADER;
FILE_DESCRIPTION (( 'STEP AP214' ),
    '1' );
FILE_NAME ('Micro_SEM-140-03.STEP',
    '2021-09-02T01:39:08',
    ( '' ),
    ( '' ),
    'SwSTEP 2.0',
    'SolidWorks 2020',
    '' );
FILE_SCHEMA (( 'AUTOMOTIVE_DESIGN' ));
ENDSEC;

DATA;
#1 = DIRECTION ( 'NONE',  ( -1.000000000000000000, 0.0000000000000000000, 1.224646799147353454E-16 ) ) ;
#2 = ORIENTED_EDGE ( 'NONE', *, *, #38, .F. ) ;
#3 = CARTESIAN_POINT ( 'NONE',  ( 0.07022970000000001989, 8.600657731007889654E-18, -8.600657731007891194E-18 ) ) ;
#4 = SURFACE_SIDE_STYLE ('',( #215 ) ) ;
#5 = ORIENTED_EDGE ( 'NONE', *, *, #268, .T. ) ;
#6 = CONICAL_SURFACE ( 'NONE', #220, 0.07022970000000000601, 0.1745329251994339470 ) ;
#7 = DIMENSIONAL_EXPONENTS ( 1.000000000000000000, 0.0000000000000000000, 0.0000000000000000000, 0.0000000000000000000, 0.0000000000000000000, 0.0000000000000000000, 0.0000000000000000000 ) ;
#8 = ORIENTED_EDGE ( 'NONE', *, *, #129, .T. ) ;
#9 = MANIFOLD_SOLID_BREP ( 'Cut-Revolve1', #21 ) ;
#10 = EDGE_LOOP ( 'NONE', ( #30, #5, #56, #284 ) ) ;
#11 = COLOUR_RGB ( '',0.7921568627450980005, 0.8196078431372548767, 0.9333333333333333481 ) ;
#12 =( LENGTH_UNIT ( ) NAMED_UNIT ( * ) SI_UNIT ( $, .METRE. ) );
#13 = CIRCLE ( 'NONE', #270, 0.09375000000000001388 ) ;
#14 = LINE ( 'NONE', #198, #118 ) ;
#15 = PRODUCT_RELATED_PRODUCT_CATEGORY ( 'part', '', ( #224 ) ) ;
#16 = CARTESIAN_POINT ( 'NONE',  ( -0.07022969999999997825, 1.004086073650716337E-17, 0.2500000000000000000 ) ) ;
#17 = LINE ( 'NONE', #71, #170 ) ;
#18 = CIRCLE ( 'NONE', #245, 0.07022970000000001989 ) ;
#19 = DIRECTION ( 'NONE',  ( 1.000000000000000000, 0.0000000000000000000, -0.0000000000000000000 ) ) ;
#20 = CYLINDRICAL_SURFACE ( 'NONE', #152, 0.09375000000000001388 ) ;
#21 = CLOSED_SHELL ( 'NONE', ( #219, #179, #62, #148, #109, #134, #34, #114, #185, #51 ) ) ;
#22 = FACE_OUTER_BOUND ( 'NONE', #103, .T. ) ;
#23 = DIRECTION ( 'NONE',  ( -0.1736481776669312194, 2.126576849575783625E-17, 0.9848077530122077983 ) ) ;
#24 = PRESENTATION_LAYER_ASSIGNMENT (  '', '', ( #28 ) ) ;
#25 = DIRECTION ( 'NONE',  ( -1.224646799147353454E-16, -0.0000000000000000000, -1.000000000000000000 ) ) ;
#26 = LINE ( 'NONE', #279, #49 ) ;
#27 = EDGE_CURVE ( 'NONE', #218, #145, #39, .T. ) ;
#28 = STYLED_ITEM ( 'NONE', ( #98 ), #232 ) ;
#29 = VERTEX_POINT ( 'NONE', #16 ) ;
#30 = ORIENTED_EDGE ( 'NONE', *, *, #193, .F. ) ;
#31 = DIRECTION ( 'NONE',  ( 1.000000000000000000, 0.0000000000000000000, 0.0000000000000000000 ) ) ;
#32 = VERTEX_POINT ( 'NONE', #153 ) ;
#33 = UNCERTAINTY_MEASURE_WITH_UNIT (LENGTH_MEASURE( 1.000000000000000082E-05 ), #210, 'distance_accuracy_value', 'NONE');
#34 = ADVANCED_FACE ( 'NONE', ( #43 ), #263, .T. ) ;
#35 = ORIENTED_EDGE ( 'NONE', *, *, #73, .F. ) ;
#36 = COLOUR_RGB ( '',0.7921568627450980005, 0.8196078431372548767, 0.9333333333333333481 ) ;
#37 = EDGE_LOOP ( 'NONE', ( #127, #142 ) ) ;
#38 = EDGE_CURVE ( 'NONE', #29, #213, #295, .T. ) ;
#39 = CIRCLE ( 'NONE', #100, 0.07875000000000061118 ) ;
#40 = CARTESIAN_POINT ( 'NONE',  ( 3.061616997868383634E-17, 0.0000000000000000000, 0.2500000000000000000 ) ) ;
#41 = MECHANICAL_DESIGN_GEOMETRIC_PRESENTATION_REPRESENTATION (  '', ( #28 ), #74 ) ;
#42 = EDGE_CURVE ( 'NONE', #29, #61, #258, .T. ) ;
#43 = FACE_OUTER_BOUND ( 'NONE', #167, .T. ) ;
#44 = CARTESIAN_POINT ( 'NONE',  ( -0.07875000000000061118, 0.0000000000000000000, 1.500000000000000222 ) ) ;
#45 = DIRECTION ( 'NONE',  ( 0.0000000000000000000, 0.0000000000000000000, -1.000000000000000000 ) ) ;
#46 = EDGE_CURVE ( 'NONE', #145, #143, #17, .T. ) ;
#47 = DIRECTION ( 'NONE',  ( -0.0000000000000000000, -0.0000000000000000000, -1.000000000000000000 ) ) ;
#48 = AXIS2_PLACEMENT_3D ( 'NONE', #203, #267, #19 ) ;
#49 = VECTOR ( 'NONE', #63, 39.37007874015748143 ) ;
#50 = PLANE ( 'NONE',  #48 ) ;
#51 = ADVANCED_FACE ( 'NONE', ( #181 ), #50, .F. ) ;
#52 = FACE_OUTER_BOUND ( 'NONE', #236, .T. ) ;
#53 =( NAMED_UNIT ( * ) SI_UNIT ( $, .STERADIAN. ) SOLID_ANGLE_UNIT ( ) );
#54 = CARTESIAN_POINT ( 'NONE',  ( 0.09375000000000001388, 1.148106374200643401E-17, 1.485000000000000986 ) ) ;
#55 = APPLICATION_PROTOCOL_DEFINITION ( 'draft international standard', 'automotive_design', 1998, #209 ) ;
#56 = ORIENTED_EDGE ( 'NONE', *, *, #38, .T. ) ;
#57 = ORIENTED_EDGE ( 'NONE', *, *, #221, .F. ) ;
#58 = PRESENTATION_LAYER_ASSIGNMENT (  '', '', ( #211 ) ) ;
#59 = ORIENTED_EDGE ( 'NONE', *, *, #268, .F. ) ;
#60 = CIRCLE ( 'NONE', #287, 0.09375000000000001388 ) ;
#61 = VERTEX_POINT ( 'NONE', #292 ) ;
#62 = ADVANCED_FACE ( 'NONE', ( #70 ), #230, .T. ) ;
#63 = DIRECTION ( 'NONE',  ( -0.0000000000000000000, -0.0000000000000000000, -1.000000000000000000 ) ) ;
#64 = LINE ( 'NONE', #227, #247 ) ;
#65 = DIRECTION ( 'NONE',  ( 1.000000000000000000, 0.0000000000000000000, 0.0000000000000000000 ) ) ;
#66 = PRODUCT_DEFINITION_FORMATION_WITH_SPECIFIED_SOURCE ( 'ANY', '', #224, .NOT_KNOWN. ) ;
#67 = DIRECTION ( 'NONE',  ( -1.000000000000000000, 0.0000000000000000000, 0.0000000000000000000 ) ) ;
#68 = DIRECTION ( 'NONE',  ( -1.224646799147353454E-16, -0.0000000000000000000, -1.000000000000000000 ) ) ;
#69 = CARTESIAN_POINT ( 'NONE',  ( -0.09374999999999995837, 0.0000000000000000000, 0.3833902497819536292 ) ) ;
#70 = FACE_OUTER_BOUND ( 'NONE', #237, .T. ) ;
#71 = CARTESIAN_POINT ( 'NONE',  ( 0.07875000000000061118, 9.644093543285480678E-18, 1.500000000000000222 ) ) ;
#72 = CARTESIAN_POINT ( 'NONE',  ( 1.053276796084075227E-33, 0.0000000000000000000, 8.600657731007891194E-18 ) ) ;
#73 = EDGE_CURVE ( 'NONE', #61, #172, #14, .T. ) ;
#74 =( GEOMETRIC_REPRESENTATION_CONTEXT ( 3 ) GLOBAL_UNCERTAINTY_ASSIGNED_CONTEXT ( ( #277 ) ) GLOBAL_UNIT_ASSIGNED_CONTEXT ( ( #97, #188, #273 ) ) REPRESENTATION_CONTEXT ( 'NONE', 'WORKASPACE' ) );
#75 = CARTESIAN_POINT ( 'NONE',  ( 0.0000000000000000000, 0.0000000000000000000, 1.500000000000000222 ) ) ;
#76 = SURFACE_SIDE_STYLE ('',( #186 ) ) ;
#77 = DIRECTION ( 'NONE',  ( -1.224646799147353454E-16, -0.0000000000000000000, -1.000000000000000000 ) ) ;
#78 = AXIS2_PLACEMENT_3D ( 'NONE', #229, #234, #31 ) ;
#79 = ORIENTED_EDGE ( 'NONE', *, *, #240, .T. ) ;
#80 = ORIENTED_EDGE ( 'NONE', *, *, #46, .T. ) ;
#81 = DIMENSIONAL_EXPONENTS ( 1.000000000000000000, 0.0000000000000000000, 0.0000000000000000000, 0.0000000000000000000, 0.0000000000000000000, 0.0000000000000000000, 0.0000000000000000000 ) ;
#82 = ORIENTED_EDGE ( 'NONE', *, *, #290, .F. ) ;
#83 = CIRCLE ( 'NONE', #243, 0.07022970000000000601 ) ;
#84 = PRESENTATION_STYLE_ASSIGNMENT (( #191 ) ) ;
#85 = DIRECTION ( 'NONE',  ( 1.224646799147353454E-16, 0.0000000000000000000, 1.000000000000000000 ) ) ;
#86 = DIRECTION ( 'NONE',  ( -0.7071067811865531239, 0.0000000000000000000, -0.7071067811865419106 ) ) ;
#87 = AXIS2_PLACEMENT_3D ( 'NONE', #40, #85, #262 ) ;
#88 = EDGE_CURVE ( 'NONE', #143, #32, #187, .T. ) ;
#89 = CARTESIAN_POINT ( 'NONE',  ( 0.07022970000000001989, 8.600657731007889654E-18, 0.0000000000000000000 ) ) ;
#90 = CARTESIAN_POINT ( 'NONE',  ( 3.061616997868383634E-17, 0.0000000000000000000, 0.2500000000000000000 ) ) ;
#91 = DIRECTION ( 'NONE',  ( 0.7071067811865531239, 8.659560562355003116E-17, -0.7071067811865419106 ) ) ;
#92 = CARTESIAN_POINT ( 'NONE',  ( 0.0000000000000000000, 0.0000000000000000000, 1.500000000000000222 ) ) ;
#93 = MECHANICAL_DESIGN_GEOMETRIC_PRESENTATION_REPRESENTATION (  '', ( #211 ), #146 ) ;
#94 = CARTESIAN_POINT ( 'NONE',  ( -0.07875000000000061118, 0.0000000000000000000, 1.500000000000000222 ) ) ;
#95 = CIRCLE ( 'NONE', #223, 0.09375000000000001388 ) ;
#96 = CARTESIAN_POINT ( 'NONE',  ( 0.09375000000000004163, 1.148106374200644017E-17, 0.3833902497819536292 ) ) ;
#97 =( CONVERSION_BASED_UNIT ( 'INCH', #140 ) LENGTH_UNIT ( ) NAMED_UNIT ( #81 ) );
#98 = PRESENTATION_STYLE_ASSIGNMENT (( #165 ) ) ;
#99 = EDGE_CURVE ( 'NONE', #32, #282, #226, .T. ) ;
#100 = AXIS2_PLACEMENT_3D ( 'NONE', #75, #293, #65 ) ;
#101 = CIRCLE ( 'NONE', #298, 0.07022970000000001989 ) ;
#102 = FILL_AREA_STYLE ('',( #249 ) ) ;
#103 = EDGE_LOOP ( 'NONE', ( #285, #105, #107, #2 ) ) ;
#104 = ORIENTED_EDGE ( 'NONE', *, *, #154, .T. ) ;
#105 = ORIENTED_EDGE ( 'NONE', *, *, #193, .T. ) ;
#106 = EDGE_LOOP ( 'NONE', ( #128, #190, #260, #169 ) ) ;
#107 = ORIENTED_EDGE ( 'NONE', *, *, #294, .F. ) ;
#108 = CARTESIAN_POINT ( 'NONE',  ( 0.0000000000000000000, 0.0000000000000000000, 1.500000000000000222 ) ) ;
#109 = ADVANCED_FACE ( 'NONE', ( #225 ), #20, .T. ) ;
#110 = AXIS2_PLACEMENT_3D ( 'NONE', #173, #137, #291 ) ;
#111 = DIRECTION ( 'NONE',  ( -1.000000000000000000, 0.0000000000000000000, 1.224646799147353454E-16 ) ) ;
#112 = CARTESIAN_POINT ( 'NONE',  ( 3.061616997868383634E-17, 0.0000000000000000000, 0.2500000000000000000 ) ) ;
#113 = DIRECTION ( 'NONE',  ( -1.000000000000000000, 0.0000000000000000000, 1.224646799147353454E-16 ) ) ;
#114 = ADVANCED_FACE ( 'NONE', ( #176 ), #119, .T. ) ;
#115 = DIRECTION ( 'NONE',  ( 0.0000000000000000000, 0.0000000000000000000, -1.000000000000000000 ) ) ;
#116 = PRODUCT_DEFINITION ( 'UNKNOWN', '', #66, #139 ) ;
#117 = CARTESIAN_POINT ( 'NONE',  ( 0.0000000000000000000, 0.0000000000000000000, 1.485000000000000986 ) ) ;
#118 = VECTOR ( 'NONE', #271, 39.37007874015748143 ) ;
#119 = CONICAL_SURFACE ( 'NONE', #87, 0.07022970000000000601, 0.1745329251994339470 ) ;
#120 = ORIENTED_EDGE ( 'NONE', *, *, #189, .T. ) ;
#121 =( NAMED_UNIT ( * ) PLANE_ANGLE_UNIT ( ) SI_UNIT ( $, .RADIAN. ) );
#122 = ORIENTED_EDGE ( 'NONE', *, *, #163, .T. ) ;
#123 = SHAPE_DEFINITION_REPRESENTATION ( #175, #232 ) ;
#124 = DIRECTION ( 'NONE',  ( -0.0000000000000000000, -0.0000000000000000000, -1.000000000000000000 ) ) ;
#125 = ORIENTED_EDGE ( 'NONE', *, *, #240, .F. ) ;
#126 = CARTESIAN_POINT ( 'NONE',  ( 0.07875000000000061118, 1.056257864264595965E-17, 1.500000000000000222 ) ) ;
#127 = ORIENTED_EDGE ( 'NONE', *, *, #27, .T. ) ;
#128 = ORIENTED_EDGE ( 'NONE', *, *, #204, .F. ) ;
#129 = EDGE_CURVE ( 'NONE', #282, #172, #13, .T. ) ;
#130 = AXIS2_PLACEMENT_3D ( 'NONE', #289, #124, #269 ) ;
#131 = CARTESIAN_POINT ( 'NONE',  ( 0.0000000000000000000, 0.0000000000000000000, 1.500000000000000222 ) ) ;
#132 = CARTESIAN_POINT ( 'NONE',  ( 0.0000000000000000000, 0.0000000000000000000, 0.0000000000000000000 ) ) ;
#133 = AXIS2_PLACEMENT_3D ( 'NONE', #90, #136, #178 ) ;
#134 = ADVANCED_FACE ( 'NONE', ( #278 ), #288, .T. ) ;
#135 =( GEOMETRIC_REPRESENTATION_CONTEXT ( 3 ) GLOBAL_UNCERTAINTY_ASSIGNED_CONTEXT ( ( #33 ) ) GLOBAL_UNIT_ASSIGNED_CONTEXT ( ( #210, #121, #53 ) ) REPRESENTATION_CONTEXT ( 'NONE', 'WORKASPACE' ) );
#136 = DIRECTION ( 'NONE',  ( -1.224646799147353454E-16, -0.0000000000000000000, -1.000000000000000000 ) ) ;
#137 = DIRECTION ( 'NONE',  ( 0.0000000000000000000, 0.0000000000000000000, -1.000000000000000000 ) ) ;
#138 = LENGTH_MEASURE_WITH_UNIT ( LENGTH_MEASURE( 0.02539999999999999897 ), #141 );
#139 = PRODUCT_DEFINITION_CONTEXT ( 'detailed design', #272, 'design' ) ;
#140 = LENGTH_MEASURE_WITH_UNIT ( LENGTH_MEASURE( 0.02539999999999999897 ), #274 );
#141 =( LENGTH_UNIT ( ) NAMED_UNIT ( * ) SI_UNIT ( $, .METRE. ) );
#142 = ORIENTED_EDGE ( 'NONE', *, *, #221, .T. ) ;
#143 = VERTEX_POINT ( 'NONE', #54 ) ;
#144 = UNCERTAINTY_MEASURE_WITH_UNIT (LENGTH_MEASURE( 1.000000000000000082E-05 ), #199, 'distance_accuracy_value', 'NONE');
#145 = VERTEX_POINT ( 'NONE', #126 ) ;
#146 =( GEOMETRIC_REPRESENTATION_CONTEXT ( 3 ) GLOBAL_UNCERTAINTY_ASSIGNED_CONTEXT ( ( #144 ) ) GLOBAL_UNIT_ASSIGNED_CONTEXT ( ( #199, #151, #261 ) ) REPRESENTATION_CONTEXT ( 'NONE', 'WORKASPACE' ) );
#147 = CARTESIAN_POINT ( 'NONE',  ( 0.0000000000000000000, 0.0000000000000000000, 1.500000000000000222 ) ) ;
#148 = ADVANCED_FACE ( 'NONE', ( #197 ), #158, .T. ) ;
#149 = EDGE_LOOP ( 'NONE', ( #233, #59, #217, #120 ) ) ;
#150 = ORIENTED_EDGE ( 'NONE', *, *, #42, .F. ) ;
#151 =( NAMED_UNIT ( * ) PLANE_ANGLE_UNIT ( ) SI_UNIT ( $, .RADIAN. ) );
#152 = AXIS2_PLACEMENT_3D ( 'NONE', #92, #183, #67 ) ;
#153 = CARTESIAN_POINT ( 'NONE',  ( -0.09375000000000001388, 0.0000000000000000000, 1.485000000000000986 ) ) ;
#154 = EDGE_CURVE ( 'NONE', #29, #282, #64, .T. ) ;
#155 = DIRECTION ( 'NONE',  ( -1.000000000000000000, 0.0000000000000000000, 0.0000000000000000000 ) ) ;
#156 = VECTOR ( 'NONE', #86, 39.37007874015748143 ) ;
#157 = DIRECTION ( 'NONE',  ( 0.0000000000000000000, 0.0000000000000000000, -1.000000000000000000 ) ) ;
#158 = CYLINDRICAL_SURFACE ( 'NONE', #130, 0.09375000000000001388 ) ;
#159 = CARTESIAN_POINT ( 'NONE',  ( -0.09375000000000001388, 0.0000000000000000000, 1.500000000000000222 ) ) ;
#160 = CARTESIAN_POINT ( 'NONE',  ( 3.061616997868383634E-17, 0.0000000000000000000, 0.2500000000000000000 ) ) ;
#161 = DIRECTION ( 'NONE',  ( 1.000000000000000000, 0.0000000000000000000, -0.0000000000000000000 ) ) ;
#162 = DIRECTION ( 'NONE',  ( -1.224646799147353454E-16, -0.0000000000000000000, -1.000000000000000000 ) ) ;
#163 = EDGE_CURVE ( 'NONE', #239, #213, #101, .T. ) ;
#164 = EDGE_LOOP ( 'NONE', ( #194, #122 ) ) ;
#165 = SURFACE_STYLE_USAGE ( .BOTH. , #76 ) ;
#166 = AXIS2_PLACEMENT_3D ( 'NONE', #132, #184, #296 ) ;
#167 = EDGE_LOOP ( 'NONE', ( #195, #286, #79, #280 ) ) ;
#168 = ORIENTED_EDGE ( 'NONE', *, *, #204, .T. ) ;
#169 = ORIENTED_EDGE ( 'NONE', *, *, #189, .F. ) ;
#170 = VECTOR ( 'NONE', #91, 39.37007874015748143 ) ;
#171 = AXIS2_PLACEMENT_3D ( 'NONE', #147, #196, #161 ) ;
#172 = VERTEX_POINT ( 'NONE', #96 ) ;
#173 = CARTESIAN_POINT ( 'NONE',  ( 0.0000000000000000000, 0.0000000000000000000, 1.485000000000000986 ) ) ;
#174 = CYLINDRICAL_SURFACE ( 'NONE', #166, 0.07022970000000001989 ) ;
#175 = PRODUCT_DEFINITION_SHAPE ( 'NONE', 'NONE',  #116 ) ;
#176 = FACE_OUTER_BOUND ( 'NONE', #149, .T. ) ;
#177 = DIRECTION ( 'NONE',  ( -1.000000000000000000, 0.0000000000000000000, 0.0000000000000000000 ) ) ;
#178 = DIRECTION ( 'NONE',  ( -1.000000000000000000, 0.0000000000000000000, 0.0000000000000000000 ) ) ;
#179 = ADVANCED_FACE ( 'NONE', ( #52 ), #6, .T. ) ;
#180 = LENGTH_MEASURE_WITH_UNIT ( LENGTH_MEASURE( 0.02539999999999999897 ), #12 );
#181 = FACE_OUTER_BOUND ( 'NONE', #164, .T. ) ;
#182 = LINE ( 'NONE', #94, #156 ) ;
#183 = DIRECTION ( 'NONE',  ( -0.0000000000000000000, -0.0000000000000000000, -1.000000000000000000 ) ) ;
#184 = DIRECTION ( 'NONE',  ( -1.224646799147353454E-16, -0.0000000000000000000, -1.000000000000000000 ) ) ;
#185 = ADVANCED_FACE ( 'NONE', ( #254 ), #214, .T. ) ;
#186 = SURFACE_STYLE_FILL_AREA ( #102 ) ;
#187 = CIRCLE ( 'NONE', #110, 0.09375000000000001388 ) ;
#188 =( NAMED_UNIT ( * ) PLANE_ANGLE_UNIT ( ) SI_UNIT ( $, .RADIAN. ) );
#189 = EDGE_CURVE ( 'NONE', #172, #282, #60, .T. ) ;
#190 = ORIENTED_EDGE ( 'NONE', *, *, #88, .T. ) ;
#191 = SURFACE_STYLE_USAGE ( .BOTH. , #4 ) ;
#192 = FILL_AREA_STYLE_COLOUR ( '', #11 ) ;
#193 = EDGE_CURVE ( 'NONE', #61, #239, #248, .T. ) ;
#194 = ORIENTED_EDGE ( 'NONE', *, *, #294, .T. ) ;
#195 = ORIENTED_EDGE ( 'NONE', *, *, #46, .F. ) ;
#196 = DIRECTION ( 'NONE',  ( 0.0000000000000000000, 0.0000000000000000000, 1.000000000000000000 ) ) ;
#197 = FACE_OUTER_BOUND ( 'NONE', #257, .T. ) ;
#198 = CARTESIAN_POINT ( 'NONE',  ( 0.07022970000000004764, 0.0000000000000000000, 0.2500000000000000000 ) ) ;
#199 =( CONVERSION_BASED_UNIT ( 'INCH', #180 ) LENGTH_UNIT ( ) NAMED_UNIT ( #7 ) );
#200 = DIRECTION ( 'NONE',  ( -1.224646799147353454E-16, -0.0000000000000000000, -1.000000000000000000 ) ) ;
#201 = CARTESIAN_POINT ( 'NONE',  ( 0.0000000000000000000, 0.0000000000000000000, 1.500000000000000222 ) ) ;
#202 = DIRECTION ( 'NONE',  ( 1.000000000000000000, 0.0000000000000000000, 0.0000000000000000000 ) ) ;
#203 = CARTESIAN_POINT ( 'NONE',  ( 0.0000000000000000000, 0.0000000000000000000, 0.0000000000000000000 ) ) ;
#204 = EDGE_CURVE ( 'NONE', #143, #172, #26, .T. ) ;
#205 = DIRECTION ( 'NONE',  ( 1.000000000000000000, 0.0000000000000000000, 0.0000000000000000000 ) ) ;
#206 = CARTESIAN_POINT ( 'NONE',  ( -0.07022970000000001989, 0.0000000000000000000, 1.720131546201578239E-17 ) ) ;
#207 = CIRCLE ( 'NONE', #212, 0.07875000000000061118 ) ;
#208 = APPLICATION_PROTOCOL_DEFINITION ( 'draft international standard', 'automotive_design', 1998, #272 ) ;
#209 = APPLICATION_CONTEXT ( 'automotive_design' ) ;
#210 =( CONVERSION_BASED_UNIT ( 'INCH', #138 ) LENGTH_UNIT ( ) NAMED_UNIT ( #242 ) );
#211 = STYLED_ITEM ( 'NONE', ( #84 ), #9 ) ;
#212 = AXIS2_PLACEMENT_3D ( 'NONE', #201, #228, #205 ) ;
#213 = VERTEX_POINT ( 'NONE', #206 ) ;
#214 = CYLINDRICAL_SURFACE ( 'NONE', #265, 0.07022970000000001989 ) ;
#215 = SURFACE_STYLE_FILL_AREA ( #252 ) ;
#216 = ORIENTED_EDGE ( 'NONE', *, *, #290, .T. ) ;
#217 = ORIENTED_EDGE ( 'NONE', *, *, #73, .T. ) ;
#218 = VERTEX_POINT ( 'NONE', #44 ) ;
#219 = ADVANCED_FACE ( 'NONE', ( #22 ), #174, .T. ) ;
#220 = AXIS2_PLACEMENT_3D ( 'NONE', #112, #246, #202 ) ;
#221 = EDGE_CURVE ( 'NONE', #145, #218, #207, .T. ) ;
#222 = CARTESIAN_POINT ( 'NONE',  ( -0.07022970000000001989, 0.0000000000000000000, 8.600657731007891194E-18 ) ) ;
#223 = AXIS2_PLACEMENT_3D ( 'NONE', #117, #115, #299 ) ;
#224 = PRODUCT ( 'Micro_SEM-140-03', 'Micro_SEM-140-03', '', ( #281 ) ) ;
#225 = FACE_OUTER_BOUND ( 'NONE', #106, .T. ) ;
#226 = LINE ( 'NONE', #159, #283 ) ;
#227 = CARTESIAN_POINT ( 'NONE',  ( -0.07022969999999997825, 8.600657731007888113E-18, 0.2500000000000000000 ) ) ;
#228 = DIRECTION ( 'NONE',  ( 0.0000000000000000000, 0.0000000000000000000, 1.000000000000000000 ) ) ;
#229 = CARTESIAN_POINT ( 'NONE',  ( 0.0000000000000000000, 0.0000000000000000000, 0.0000000000000000000 ) ) ;
#230 = CONICAL_SURFACE ( 'NONE', #253, 0.07875000000000061118, 0.7853981633974562726 ) ;
#231 = DIRECTION ( 'NONE',  ( -1.224646799147353454E-16, -0.0000000000000000000, -1.000000000000000000 ) ) ;
#232 = ADVANCED_BREP_SHAPE_REPRESENTATION ( 'Micro_SEM-140-03', ( #9, #78 ), #135 ) ;
#233 = ORIENTED_EDGE ( 'NONE', *, *, #154, .F. ) ;
#234 = DIRECTION ( 'NONE',  ( 0.0000000000000000000, 0.0000000000000000000, 1.000000000000000000 ) ) ;
#235 = DIRECTION ( 'NONE',  ( 1.000000000000000000, 0.0000000000000000000, 0.0000000000000000000 ) ) ;
#236 = EDGE_LOOP ( 'NONE', ( #150, #104, #8, #35 ) ) ;
#237 = EDGE_LOOP ( 'NONE', ( #57, #80, #82, #125 ) ) ;
#238 = AXIS2_PLACEMENT_3D ( 'NONE', #108, #45, #241 ) ;
#239 = VERTEX_POINT ( 'NONE', #89 ) ;
#240 = EDGE_CURVE ( 'NONE', #218, #32, #182, .T. ) ;
#241 = DIRECTION ( 'NONE',  ( -1.000000000000000000, 0.0000000000000000000, 0.0000000000000000000 ) ) ;
#242 = DIMENSIONAL_EXPONENTS ( 1.000000000000000000, 0.0000000000000000000, 0.0000000000000000000, 0.0000000000000000000, 0.0000000000000000000, 0.0000000000000000000, 0.0000000000000000000 ) ;
#243 = AXIS2_PLACEMENT_3D ( 'NONE', #160, #264, #177 ) ;
#244 = DIRECTION ( 'NONE',  ( 1.000000000000000000, 0.0000000000000000000, 0.0000000000000000000 ) ) ;
#245 = AXIS2_PLACEMENT_3D ( 'NONE', #251, #231, #113 ) ;
#246 = DIRECTION ( 'NONE',  ( 1.224646799147353454E-16, 0.0000000000000000000, 1.000000000000000000 ) ) ;
#247 = VECTOR ( 'NONE', #23, 39.37007874015748143 ) ;
#248 = LINE ( 'NONE', #3, #259 ) ;
#249 = FILL_AREA_STYLE_COLOUR ( '', #36 ) ;
#250 = CARTESIAN_POINT ( 'NONE',  ( 0.0000000000000000000, 0.0000000000000000000, 0.0000000000000000000 ) ) ;
#251 = CARTESIAN_POINT ( 'NONE',  ( 1.053276796084075227E-33, 0.0000000000000000000, 8.600657731007891194E-18 ) ) ;
#252 = FILL_AREA_STYLE ('',( #192 ) ) ;
#253 = AXIS2_PLACEMENT_3D ( 'NONE', #131, #157, #155 ) ;
#254 = FACE_OUTER_BOUND ( 'NONE', #10, .T. ) ;
#255 = ORIENTED_EDGE ( 'NONE', *, *, #99, .F. ) ;
#256 = ORIENTED_EDGE ( 'NONE', *, *, #129, .F. ) ;
#257 = EDGE_LOOP ( 'NONE', ( #216, #168, #256, #255 ) ) ;
#258 = CIRCLE ( 'NONE', #133, 0.07022970000000000601 ) ;
#259 = VECTOR ( 'NONE', #77, 39.37007874015748143 ) ;
#260 = ORIENTED_EDGE ( 'NONE', *, *, #99, .T. ) ;
#261 =( NAMED_UNIT ( * ) SI_UNIT ( $, .STERADIAN. ) SOLID_ANGLE_UNIT ( ) );
#262 = DIRECTION ( 'NONE',  ( 1.000000000000000000, 0.0000000000000000000, 0.0000000000000000000 ) ) ;
#263 = CONICAL_SURFACE ( 'NONE', #238, 0.07875000000000061118, 0.7853981633974562726 ) ;
#264 = DIRECTION ( 'NONE',  ( -1.224646799147353454E-16, -0.0000000000000000000, -1.000000000000000000 ) ) ;
#265 = AXIS2_PLACEMENT_3D ( 'NONE', #250, #25, #1 ) ;
#266 = CARTESIAN_POINT ( 'NONE',  ( 4.695176422197739051E-17, 0.0000000000000000000, 0.3833902497819536292 ) ) ;
#267 = DIRECTION ( 'NONE',  ( 0.0000000000000000000, 0.0000000000000000000, 1.000000000000000000 ) ) ;
#268 = EDGE_CURVE ( 'NONE', #61, #29, #83, .T. ) ;
#269 = DIRECTION ( 'NONE',  ( -1.000000000000000000, 0.0000000000000000000, 0.0000000000000000000 ) ) ;
#270 = AXIS2_PLACEMENT_3D ( 'NONE', #266, #68, #244 ) ;
#271 = DIRECTION ( 'NONE',  ( 0.1736481776669314414, 0.0000000000000000000, 0.9848077530122077983 ) ) ;
#272 = APPLICATION_CONTEXT ( 'automotive_design' ) ;
#273 =( NAMED_UNIT ( * ) SI_UNIT ( $, .STERADIAN. ) SOLID_ANGLE_UNIT ( ) );
#274 =( LENGTH_UNIT ( ) NAMED_UNIT ( * ) SI_UNIT ( $, .METRE. ) );
#275 = CARTESIAN_POINT ( 'NONE',  ( 4.695176422197739051E-17, 0.0000000000000000000, 0.3833902497819536292 ) ) ;
#276 = VECTOR ( 'NONE', #200, 39.37007874015748143 ) ;
#277 = UNCERTAINTY_MEASURE_WITH_UNIT (LENGTH_MEASURE( 1.000000000000000082E-05 ), #97, 'distance_accuracy_value', 'NONE');
#278 = FACE_OUTER_BOUND ( 'NONE', #37, .T. ) ;
#279 = CARTESIAN_POINT ( 'NONE',  ( 0.09375000000000001388, 1.148106374200643401E-17, 1.500000000000000222 ) ) ;
#280 = ORIENTED_EDGE ( 'NONE', *, *, #88, .F. ) ;
#281 = PRODUCT_CONTEXT ( 'NONE', #209, 'mechanical' ) ;
#282 = VERTEX_POINT ( 'NONE', #69 ) ;
#283 = VECTOR ( 'NONE', #47, 39.37007874015748143 ) ;
#284 = ORIENTED_EDGE ( 'NONE', *, *, #163, .F. ) ;
#285 = ORIENTED_EDGE ( 'NONE', *, *, #42, .T. ) ;
#286 = ORIENTED_EDGE ( 'NONE', *, *, #27, .F. ) ;
#287 = AXIS2_PLACEMENT_3D ( 'NONE', #275, #162, #235 ) ;
#288 = PLANE ( 'NONE',  #171 ) ;
#289 = CARTESIAN_POINT ( 'NONE',  ( 0.0000000000000000000, 0.0000000000000000000, 1.500000000000000222 ) ) ;
#290 = EDGE_CURVE ( 'NONE', #32, #143, #95, .T. ) ;
#291 = DIRECTION ( 'NONE',  ( 1.000000000000000000, 0.0000000000000000000, 0.0000000000000000000 ) ) ;
#292 = CARTESIAN_POINT ( 'NONE',  ( 0.07022970000000004764, 0.0000000000000000000, 0.2500000000000000000 ) ) ;
#293 = DIRECTION ( 'NONE',  ( 0.0000000000000000000, 0.0000000000000000000, 1.000000000000000000 ) ) ;
#294 = EDGE_CURVE ( 'NONE', #213, #239, #18, .T. ) ;
#295 = LINE ( 'NONE', #222, #276 ) ;
#296 = DIRECTION ( 'NONE',  ( -1.000000000000000000, 0.0000000000000000000, 1.224646799147353454E-16 ) ) ;
#297 = DIRECTION ( 'NONE',  ( -1.224646799147353454E-16, -0.0000000000000000000, -1.000000000000000000 ) ) ;
#298 = AXIS2_PLACEMENT_3D ( 'NONE', #72, #297, #111 ) ;
#299 = DIRECTION ( 'NONE',  ( 1.000000000000000000, 0.0000000000000000000, 0.0000000000000000000 ) ) ;
ENDSEC;
END-ISO-10303-21;
