ISO-10303-21;
HEADER;
FILE_DESCRIPTION (( 'STEP AP214' ),
    '1' );
FILE_NAME ('56722.STEP',
    '2023-06-30T22:13:28',
    ( '' ),
    ( '' ),
    'SwSTEP 2.0',
    'SolidWorks 2023',
    '' );
FILE_SCHEMA (( 'AUTOMOTIVE_DESIGN' ));
ENDSEC;

DATA;
#1 =( CONVERSION_BASED_UNIT ( 'INCH', #287 ) LENGTH_UNIT ( ) NAMED_UNIT ( #319 ) );
#2 = SURFACE_STYLE_USAGE ( .BOTH. , #202 ) ;
#3 = SURFACE_SIDE_STYLE ('',( #258 ) ) ;
#4 = DIRECTION ( 'NONE',  ( -0.000000000000000000, -1.000000000000000000, -0.000000000000000000 ) ) ;
#5 = DIRECTION ( 'NONE',  ( 1.000000000000000000, 1.224646799147353454E-16, 0.000000000000000000 ) ) ;
#6 = EDGE_CURVE ( 'NONE', #235, #354, #92, .T. ) ;
#7 = EDGE_CURVE ( 'NONE', #76, #184, #322, .T. ) ;
#8 = DIRECTION ( 'NONE',  ( 0.000000000000000000, 0.000000000000000000, -1.000000000000000000 ) ) ;
#9 = CARTESIAN_POINT ( 'NONE',  ( 0.000000000000000000, 0.000000000000000000, 0.000000000000000000 ) ) ;
#10 = ORIENTED_EDGE ( 'NONE', *, *, #210, .T. ) ;
#11 = DIRECTION ( 'NONE',  ( 0.000000000000000000, 0.000000000000000000, -1.000000000000000000 ) ) ;
#12 =( NAMED_UNIT ( * ) PLANE_ANGLE_UNIT ( ) SI_UNIT ( $, .RADIAN. ) );
#13 =( CONVERSION_BASED_UNIT ( 'INCH', #133 ) LENGTH_UNIT ( ) NAMED_UNIT ( #264 ) );
#14 = VECTOR ( 'NONE', #237, 39.37007874015748143 ) ;
#15 = ORIENTED_EDGE ( 'NONE', *, *, #179, .F. ) ;
#16 = MANIFOLD_SOLID_BREP ( 'Revolve - Cutting Edge', #99 ) ;
#17 = SURFACE_STYLE_FILL_AREA ( #42 ) ;
#18 = EDGE_LOOP ( 'NONE', ( #297, #262, #360, #78 ) ) ;
#19 = ORIENTED_EDGE ( 'NONE', *, *, #313, .F. ) ;
#20 = DIRECTION ( 'NONE',  ( -0.000000000000000000, -1.000000000000000000, -0.000000000000000000 ) ) ;
#21 = SURFACE_SIDE_STYLE ('',( #17 ) ) ;
#22 = MECHANICAL_DESIGN_GEOMETRIC_PRESENTATION_REPRESENTATION (  '', ( #158 ), #195 ) ;
#23 = EDGE_CURVE ( 'NONE', #321, #288, #284, .T. ) ;
#24 = PRODUCT ( '56722', '56722', '', ( #138 ) ) ;
#25 = CIRCLE ( 'NONE', #216, 0.4999999999999997224 ) ;
#26 = ADVANCED_BREP_SHAPE_REPRESENTATION ( '56722', ( #16, #253, #109 ), #58 ) ;
#27 = SURFACE_SIDE_STYLE ('',( #55 ) ) ;
#28 = CARTESIAN_POINT ( 'NONE',  ( -6.123233995736772199E-17, 4.500000000000000000, 0.000000000000000000 ) ) ;
#29 = FILL_AREA_STYLE_COLOUR ( '', #189 ) ;
#30 =( CONVERSION_BASED_UNIT ( 'INCH', #206 ) LENGTH_UNIT ( ) NAMED_UNIT ( #174 ) );
#31 = STYLED_ITEM ( 'NONE', ( #350 ), #16 ) ;
#32 = AXIS2_PLACEMENT_3D ( 'NONE', #306, #182, #359 ) ;
#33 = DIMENSIONAL_EXPONENTS ( 1.000000000000000000, 0.000000000000000000, 0.000000000000000000, 0.000000000000000000, 0.000000000000000000, 0.000000000000000000, 0.000000000000000000 ) ;
#34 = CARTESIAN_POINT ( 'NONE',  ( 0.000000000000000000, 2.000000000000000000, 0.000000000000000000 ) ) ;
#35 = FACE_OUTER_BOUND ( 'NONE', #305, .T. ) ;
#36 = AXIS2_PLACEMENT_3D ( 'NONE', #160, #340, #370 ) ;
#37 = MECHANICAL_DESIGN_GEOMETRIC_PRESENTATION_REPRESENTATION (  '', ( #106 ), #246 ) ;
#38 = VERTEX_POINT ( 'NONE', #224 ) ;
#39 = DIRECTION ( 'NONE',  ( -0.000000000000000000, -1.000000000000000000, -0.000000000000000000 ) ) ;
#40 = ORIENTED_EDGE ( 'NONE', *, *, #191, .F. ) ;
#41 =( NAMED_UNIT ( * ) PLANE_ANGLE_UNIT ( ) SI_UNIT ( $, .RADIAN. ) );
#42 = FILL_AREA_STYLE ('',( #151 ) ) ;
#43 = SHAPE_DEFINITION_REPRESENTATION ( #304, #26 ) ;
#44 = ORIENTED_EDGE ( 'NONE', *, *, #23, .T. ) ;
#45 = CARTESIAN_POINT ( 'NONE',  ( 0.000000000000000000, 0.5000000000000000000, 0.000000000000000000 ) ) ;
#46 = ORIENTED_EDGE ( 'NONE', *, *, #112, .T. ) ;
#47 = CARTESIAN_POINT ( 'NONE',  ( 6.123233995736766036E-17, 0.5000000000000000000, 0.5000000000000000000 ) ) ;
#48 = EDGE_LOOP ( 'NONE', ( #102, #10, #269, #211, #19 ) ) ;
#49 = DIRECTION ( 'NONE',  ( -1.224646799147353454E-16, 1.000000000000000000, -0.000000000000000000 ) ) ;
#50 = DIRECTION ( 'NONE',  ( -1.000000000000000000, 0.000000000000000000, 0.000000000000000000 ) ) ;
#51 = LINE ( 'NONE', #329, #14 ) ;
#52 = VECTOR ( 'NONE', #4, 39.37007874015748143 ) ;
#53 = PRESENTATION_LAYER_ASSIGNMENT (  '', '', ( #331 ) ) ;
#54 = PRESENTATION_STYLE_ASSIGNMENT (( #342 ) ) ;
#55 = SURFACE_STYLE_FILL_AREA ( #337 ) ;
#56 = DIRECTION ( 'NONE',  ( -1.000000000000000000, 0.000000000000000000, 0.000000000000000000 ) ) ;
#57 = LENGTH_MEASURE_WITH_UNIT ( LENGTH_MEASURE( 0.02539999999999999897 ), #219 );
#58 =( GEOMETRIC_REPRESENTATION_CONTEXT ( 3 ) GLOBAL_UNCERTAINTY_ASSIGNED_CONTEXT ( ( #74 ) ) GLOBAL_UNIT_ASSIGNED_CONTEXT ( ( #30, #222, #341 ) ) REPRESENTATION_CONTEXT ( 'NONE', 'WORKASPACE' ) );
#59 = DIRECTION ( 'NONE',  ( 0.000000000000000000, 0.000000000000000000, -1.000000000000000000 ) ) ;
#60 =( CONVERSION_BASED_UNIT ( 'INCH', #57 ) LENGTH_UNIT ( ) NAMED_UNIT ( #343 ) );
#61 = LINE ( 'NONE', #290, #334 ) ;
#62 = EDGE_CURVE ( 'NONE', #84, #38, #363, .T. ) ;
#63 = PRODUCT_DEFINITION ( 'UNKNOWN', '', #164, #93 ) ;
#64 = LENGTH_MEASURE_WITH_UNIT ( LENGTH_MEASURE( 0.02539999999999999897 ), #91 );
#65 = SURFACE_STYLE_FILL_AREA ( #261 ) ;
#66 = APPLICATION_CONTEXT ( 'automotive_design' ) ;
#67 = ADVANCED_FACE ( 'NONE', ( #205 ), #167, .T. ) ;
#68 = CARTESIAN_POINT ( 'NONE',  ( 0.4999999999999997224, 4.500000000000000000, 0.000000000000000000 ) ) ;
#69 = DIRECTION ( 'NONE',  ( 0.000000000000000000, 0.000000000000000000, -1.000000000000000000 ) ) ;
#70 = PLANE ( 'NONE',  #369 ) ;
#71 = CIRCLE ( 'NONE', #86, 0.5000000000000000000 ) ;
#72 = AXIS2_PLACEMENT_3D ( 'NONE', #229, #141, #175 ) ;
#73 =( LENGTH_UNIT ( ) NAMED_UNIT ( * ) SI_UNIT ( $, .METRE. ) );
#74 = UNCERTAINTY_MEASURE_WITH_UNIT (LENGTH_MEASURE( 1.000000000000000082E-05 ), #30, 'distance_accuracy_value', 'NONE');
#75 = CARTESIAN_POINT ( 'NONE',  ( -0.4999999999999992228, 2.000000000000000000, 0.000000000000000000 ) ) ;
#76 = VERTEX_POINT ( 'NONE', #97 ) ;
#77 = EDGE_LOOP ( 'NONE', ( #238, #326 ) ) ;
#78 = ORIENTED_EDGE ( 'NONE', *, *, #98, .T. ) ;
#79 =( NAMED_UNIT ( * ) SI_UNIT ( $, .STERADIAN. ) SOLID_ANGLE_UNIT ( ) );
#80 =( CONVERSION_BASED_UNIT ( 'INCH', #365 ) LENGTH_UNIT ( ) NAMED_UNIT ( #33 ) );
#81 = PRESENTATION_LAYER_ASSIGNMENT (  '', '', ( #31 ) ) ;
#82 =( GEOMETRIC_REPRESENTATION_CONTEXT ( 3 ) GLOBAL_UNCERTAINTY_ASSIGNED_CONTEXT ( ( #152 ) ) GLOBAL_UNIT_ASSIGNED_CONTEXT ( ( #355, #41, #79 ) ) REPRESENTATION_CONTEXT ( 'NONE', 'WORKASPACE' ) );
#83 = AXIS2_PLACEMENT_3D ( 'NONE', #185, #302, #50 ) ;
#84 = VERTEX_POINT ( 'NONE', #108 ) ;
#85 = FILL_AREA_STYLE_COLOUR ( '', #364 ) ;
#86 = AXIS2_PLACEMENT_3D ( 'NONE', #111, #314, #59 ) ;
#87 = MECHANICAL_DESIGN_GEOMETRIC_PRESENTATION_REPRESENTATION (  '', ( #100 ), #353 ) ;
#88 = CARTESIAN_POINT ( 'NONE',  ( 2.449293598294706414E-16, 2.000000000000000000, 0.000000000000000000 ) ) ;
#89 = DIRECTION ( 'NONE',  ( 1.000000000000000000, 0.000000000000000000, 0.000000000000000000 ) ) ;
#90 = FILL_AREA_STYLE ('',( #201 ) ) ;
#91 =( LENGTH_UNIT ( ) NAMED_UNIT ( * ) SI_UNIT ( $, .METRE. ) );
#92 = LINE ( 'NONE', #230, #52 ) ;
#93 = PRODUCT_DEFINITION_CONTEXT ( 'detailed design', #66, 'design' ) ;
#94 = SURFACE_STYLE_FILL_AREA ( #114 ) ;
#95 = AXIS2_PLACEMENT_3D ( 'NONE', #241, #149, #263 ) ;
#96 = PRESENTATION_STYLE_ASSIGNMENT (( #119 ) ) ;
#97 = CARTESIAN_POINT ( 'NONE',  ( 0.5000000000000000000, 0.5000000000000000000, 0.000000000000000000 ) ) ;
#98 = EDGE_CURVE ( 'NONE', #76, #354, #71, .T. ) ;
#99 = CLOSED_SHELL ( 'NONE', ( #193, #165, #249, #197, #67 ) ) ;
#100 = STYLED_ITEM ( 'NONE', ( #339 ), #197 ) ;
#101 = DIRECTION ( 'NONE',  ( -0.000000000000000000, -1.000000000000000000, -0.000000000000000000 ) ) ;
#102 = ORIENTED_EDGE ( 'NONE', *, *, #6, .F. ) ;
#103 = EDGE_LOOP ( 'NONE', ( #40, #267 ) ) ;
#104 = ORIENTED_EDGE ( 'NONE', *, *, #7, .T. ) ;
#105 = CLOSED_SHELL ( 'NONE', ( #159, #266, #324, #217 ) ) ;
#106 = STYLED_ITEM ( 'NONE', ( #54 ), #165 ) ;
#107 = AXIS2_PLACEMENT_3D ( 'NONE', #45, #307, #8 ) ;
#108 = CARTESIAN_POINT ( 'NONE',  ( -0.5000000000000000000, 0.5000000000000000000, 6.123233995736764803E-17 ) ) ;
#109 = AXIS2_PLACEMENT_3D ( 'NONE', #9, #168, #89 ) ;
#110 = DIRECTION ( 'NONE',  ( -1.224646799147353454E-16, 1.000000000000000000, -0.000000000000000000 ) ) ;
#111 = CARTESIAN_POINT ( 'NONE',  ( 0.000000000000000000, 0.5000000000000000000, 0.000000000000000000 ) ) ;
#112 = EDGE_CURVE ( 'NONE', #288, #321, #132, .T. ) ;
#113 = CIRCLE ( 'NONE', #323, 0.4999999999999995004 ) ;
#114 = FILL_AREA_STYLE ('',( #344 ) ) ;
#115 = SURFACE_SIDE_STYLE ('',( #278 ) ) ;
#116 = DIRECTION ( 'NONE',  ( 0.000000000000000000, -0.000000000000000000, 1.000000000000000000 ) ) ;
#117 =( CONVERSION_BASED_UNIT ( 'INCH', #172 ) LENGTH_UNIT ( ) NAMED_UNIT ( #356 ) );
#118 = DIRECTION ( 'NONE',  ( -1.000000000000000000, 0.000000000000000000, 0.000000000000000000 ) ) ;
#119 = SURFACE_STYLE_USAGE ( .BOTH. , #221 ) ;
#120 = EDGE_CURVE ( 'NONE', #190, #330, #177, .T. ) ;
#121 = UNCERTAINTY_MEASURE_WITH_UNIT (LENGTH_MEASURE( 1.000000000000000082E-05 ), #60, 'distance_accuracy_value', 'NONE');
#122 = CARTESIAN_POINT ( 'NONE',  ( 0.000000000000000000, 0.5000000000000000000, 0.000000000000000000 ) ) ;
#123 = ORIENTED_EDGE ( 'NONE', *, *, #272, .F. ) ;
#124 = PRODUCT_RELATED_PRODUCT_CATEGORY ( 'part', '', ( #24 ) ) ;
#125 = MECHANICAL_DESIGN_GEOMETRIC_PRESENTATION_REPRESENTATION (  '', ( #145 ), #352 ) ;
#126 = LENGTH_MEASURE_WITH_UNIT ( LENGTH_MEASURE( 0.02539999999999999897 ), #265 );
#127 = AXIS2_PLACEMENT_3D ( 'NONE', #68, #254, #5 ) ;
#128 = UNCERTAINTY_MEASURE_WITH_UNIT (LENGTH_MEASURE( 1.000000000000000082E-05 ), #80, 'distance_accuracy_value', 'NONE');
#129 = ORIENTED_EDGE ( 'NONE', *, *, #296, .T. ) ;
#130 = ORIENTED_EDGE ( 'NONE', *, *, #62, .T. ) ;
#131 = ORIENTED_EDGE ( 'NONE', *, *, #223, .F. ) ;
#132 = CIRCLE ( 'NONE', #338, 0.4999999999999997780 ) ;
#133 = LENGTH_MEASURE_WITH_UNIT ( LENGTH_MEASURE( 0.02539999999999999897 ), #333 );
#134 = MECHANICAL_DESIGN_GEOMETRIC_PRESENTATION_REPRESENTATION (  '', ( #292 ), #82 ) ;
#135 = CARTESIAN_POINT ( 'NONE',  ( -6.123233995736766036E-17, 0.5000000000000000000, 0.000000000000000000 ) ) ;
#136 = CIRCLE ( 'NONE', #243, 0.4999999999999997224 ) ;
#137 = DIRECTION ( 'NONE',  ( -1.000000000000000000, 0.000000000000000000, 0.000000000000000000 ) ) ;
#138 = PRODUCT_CONTEXT ( 'NONE', #336, 'mechanical' ) ;
#139 = CYLINDRICAL_SURFACE ( 'NONE', #346, 0.4999999999999996114 ) ;
#140 = CARTESIAN_POINT ( 'NONE',  ( 6.123233995736763571E-17, 2.000000000000000000, 0.4999999999999997224 ) ) ;
#141 = DIRECTION ( 'NONE',  ( -0.000000000000000000, -1.000000000000000000, -0.000000000000000000 ) ) ;
#142 = EDGE_LOOP ( 'NONE', ( #328, #130, #153, #104 ) ) ;
#143 = SURFACE_STYLE_USAGE ( .BOTH. , #3 ) ;
#144 = DIRECTION ( 'NONE',  ( 0.000000000000000000, 0.000000000000000000, -1.000000000000000000 ) ) ;
#145 = STYLED_ITEM ( 'NONE', ( #291 ), #67 ) ;
#146 =( LENGTH_UNIT ( ) NAMED_UNIT ( * ) SI_UNIT ( $, .METRE. ) );
#147 = CARTESIAN_POINT ( 'NONE',  ( -6.123233995736766036E-17, 0.5000000000000000000, 0.000000000000000000 ) ) ;
#148 = EDGE_LOOP ( 'NONE', ( #300, #286, #154, #123 ) ) ;
#149 = DIRECTION ( 'NONE',  ( 1.224646799147353207E-16, -0.000000000000000000, 1.000000000000000000 ) ) ;
#150 = EDGE_LOOP ( 'NONE', ( #15, #129, #357, #209 ) ) ;
#151 = FILL_AREA_STYLE_COLOUR ( '', #178 ) ;
#152 = UNCERTAINTY_MEASURE_WITH_UNIT (LENGTH_MEASURE( 1.000000000000000082E-05 ), #355, 'distance_accuracy_value', 'NONE');
#153 = ORIENTED_EDGE ( 'NONE', *, *, #367, .T. ) ;
#154 = ORIENTED_EDGE ( 'NONE', *, *, #23, .F. ) ;
#155 = DIRECTION ( 'NONE',  ( -1.000000000000000000, 0.000000000000000000, 0.000000000000000000 ) ) ;
#156 = DIRECTION ( 'NONE',  ( 0.000000000000000000, 0.000000000000000000, -1.000000000000000000 ) ) ;
#157 = AXIS2_PLACEMENT_3D ( 'NONE', #122, #101, #69 ) ;
#158 = STYLED_ITEM ( 'NONE', ( #242 ), #193 ) ;
#159 = ADVANCED_FACE ( 'NONE', ( #335 ), #139, .T. ) ;
#160 = CARTESIAN_POINT ( 'NONE',  ( -6.123233995736766036E-17, 0.5000000000000000000, 0.000000000000000000 ) ) ;
#161 = DIRECTION ( 'NONE',  ( -1.224646799147353454E-16, 1.000000000000000000, -0.000000000000000000 ) ) ;
#162 = COLOUR_RGB ( '',0.7921568627450980005, 0.8196078431372548767, 0.9333333333333333481 ) ;
#163 = AXIS2_PLACEMENT_3D ( 'NONE', #372, #320, #116 ) ;
#164 = PRODUCT_DEFINITION_FORMATION_WITH_SPECIFIED_SOURCE ( 'ANY', '', #24, .NOT_KNOWN. ) ;
#165 = ADVANCED_FACE ( 'NONE', ( #282 ), #166, .T. ) ;
#166 = CYLINDRICAL_SURFACE ( 'NONE', #32, 0.4999999999999998335 ) ;
#167 = SPHERICAL_SURFACE ( 'NONE', #36, 0.5000000000000000000 ) ;
#168 = DIRECTION ( 'NONE',  ( 0.000000000000000000, 0.000000000000000000, 1.000000000000000000 ) ) ;
#169 = PRESENTATION_STYLE_ASSIGNMENT (( #143 ) ) ;
#170 =( GEOMETRIC_REPRESENTATION_CONTEXT ( 3 ) GLOBAL_UNCERTAINTY_ASSIGNED_CONTEXT ( ( #351 ) ) GLOBAL_UNIT_ASSIGNED_CONTEXT ( ( #1, #293, #315 ) ) REPRESENTATION_CONTEXT ( 'NONE', 'WORKASPACE' ) );
#171 = FACE_OUTER_BOUND ( 'NONE', #103, .T. ) ;
#172 = LENGTH_MEASURE_WITH_UNIT ( LENGTH_MEASURE( 0.02539999999999999897 ), #73 );
#173 = DIRECTION ( 'NONE',  ( 0.000000000000000000, 0.000000000000000000, -1.000000000000000000 ) ) ;
#174 = DIMENSIONAL_EXPONENTS ( 1.000000000000000000, 0.000000000000000000, 0.000000000000000000, 0.000000000000000000, 0.000000000000000000, 0.000000000000000000, 0.000000000000000000 ) ;
#175 = DIRECTION ( 'NONE',  ( 0.000000000000000000, 0.000000000000000000, -1.000000000000000000 ) ) ;
#176 = SURFACE_STYLE_USAGE ( .BOTH. , #347 ) ;
#177 = CIRCLE ( 'NONE', #220, 0.4999999999999995004 ) ;
#178 = COLOUR_RGB ( '',1.000000000000000000, 0.000000000000000000, 0.000000000000000000 ) ;
#179 = EDGE_CURVE ( 'NONE', #330, #288, #51, .T. ) ;
#180 = CARTESIAN_POINT ( 'NONE',  ( 0.000000000000000000, 2.000000000000000000, -0.4999999999999997224 ) ) ;
#181 = CARTESIAN_POINT ( 'NONE',  ( -6.123233995736770966E-17, 4.500000000000000000, 0.000000000000000000 ) ) ;
#182 = DIRECTION ( 'NONE',  ( -0.000000000000000000, -1.000000000000000000, -0.000000000000000000 ) ) ;
#183 = SURFACE_STYLE_FILL_AREA ( #227 ) ;
#184 = VERTEX_POINT ( 'NONE', #213 ) ;
#185 = CARTESIAN_POINT ( 'NONE',  ( -6.123233995736772199E-17, 4.500000000000000000, 0.000000000000000000 ) ) ;
#186 = ORIENTED_EDGE ( 'NONE', *, *, #191, .T. ) ;
#187 = CARTESIAN_POINT ( 'NONE',  ( -0.4999999999999996669, 4.500000000000000000, 0.000000000000000000 ) ) ;
#188 = SURFACE_STYLE_USAGE ( .BOTH. , #21 ) ;
#189 = COLOUR_RGB ( '',1.000000000000000000, 0.000000000000000000, 0.000000000000000000 ) ;
#190 = VERTEX_POINT ( 'NONE', #75 ) ;
#191 = EDGE_CURVE ( 'NONE', #207, #235, #136, .T. ) ;
#192 = CARTESIAN_POINT ( 'NONE',  ( 0.4999999999999997780, 2.000000000000000000, 6.123233995736762338E-17 ) ) ;
#193 = ADVANCED_FACE ( 'NONE', ( #366 ), #273, .T. ) ;
#194 = AXIS2_PLACEMENT_3D ( 'NONE', #135, #368, #309 ) ;
#195 =( GEOMETRIC_REPRESENTATION_CONTEXT ( 3 ) GLOBAL_UNCERTAINTY_ASSIGNED_CONTEXT ( ( #260 ) ) GLOBAL_UNIT_ASSIGNED_CONTEXT ( ( #303, #362, #215 ) ) REPRESENTATION_CONTEXT ( 'NONE', 'WORKASPACE' ) );
#196 =( LENGTH_UNIT ( ) NAMED_UNIT ( * ) SI_UNIT ( $, .METRE. ) );
#197 = ADVANCED_FACE ( 'NONE', ( #275 ), #276, .T. ) ;
#198 = APPLICATION_PROTOCOL_DEFINITION ( 'draft international standard', 'automotive_design', 1998, #336 ) ;
#199 = COLOUR_RGB ( '',1.000000000000000000, 0.000000000000000000, 0.000000000000000000 ) ;
#200 = CIRCLE ( 'NONE', #95, 0.5000000000000000000 ) ;
#201 = FILL_AREA_STYLE_COLOUR ( '', #274 ) ;
#202 = SURFACE_SIDE_STYLE ('',( #65 ) ) ;
#203 = VECTOR ( 'NONE', #49, 39.37007874015748143 ) ;
#204 = DIMENSIONAL_EXPONENTS ( 1.000000000000000000, 0.000000000000000000, 0.000000000000000000, 0.000000000000000000, 0.000000000000000000, 0.000000000000000000, 0.000000000000000000 ) ;
#205 = FACE_OUTER_BOUND ( 'NONE', #142, .T. ) ;
#206 = LENGTH_MEASURE_WITH_UNIT ( LENGTH_MEASURE( 0.02539999999999999897 ), #196 );
#207 = VERTEX_POINT ( 'NONE', #180 ) ;
#208 = FACE_OUTER_BOUND ( 'NONE', #150, .T. ) ;
#209 = ORIENTED_EDGE ( 'NONE', *, *, #112, .F. ) ;
#210 = EDGE_CURVE ( 'NONE', #235, #207, #25, .T. ) ;
#211 = ORIENTED_EDGE ( 'NONE', *, *, #62, .F. ) ;
#212 = DIRECTION ( 'NONE',  ( -1.224646799147353454E-16, 1.000000000000000000, 0.000000000000000000 ) ) ;
#213 = CARTESIAN_POINT ( 'NONE',  ( -3.061616997868383018E-17, 0.000000000000000000, 0.000000000000000000 ) ) ;
#214 = COLOUR_RGB ( '',0.7921568627450980005, 0.8196078431372548767, 0.9333333333333333481 ) ;
#215 =( NAMED_UNIT ( * ) SI_UNIT ( $, .STERADIAN. ) SOLID_ANGLE_UNIT ( ) );
#216 = AXIS2_PLACEMENT_3D ( 'NONE', #34, #285, #173 ) ;
#217 = ADVANCED_FACE ( 'NONE', ( #35 ), #228, .F. ) ;
#218 = DIRECTION ( 'NONE',  ( -1.224646799147353454E-16, 1.000000000000000000, -0.000000000000000000 ) ) ;
#219 =( LENGTH_UNIT ( ) NAMED_UNIT ( * ) SI_UNIT ( $, .METRE. ) );
#220 = AXIS2_PLACEMENT_3D ( 'NONE', #88, #218, #137 ) ;
#221 = SURFACE_SIDE_STYLE ('',( #94 ) ) ;
#222 =( NAMED_UNIT ( * ) PLANE_ANGLE_UNIT ( ) SI_UNIT ( $, .RADIAN. ) );
#223 = EDGE_CURVE ( 'NONE', #207, #38, #61, .T. ) ;
#224 = CARTESIAN_POINT ( 'NONE',  ( 0.000000000000000000, 0.5000000000000000000, -0.5000000000000000000 ) ) ;
#225 = UNCERTAINTY_MEASURE_WITH_UNIT (LENGTH_MEASURE( 1.000000000000000082E-05 ), #13, 'distance_accuracy_value', 'NONE');
#226 =( LENGTH_UNIT ( ) NAMED_UNIT ( * ) SI_UNIT ( $, .METRE. ) );
#227 = FILL_AREA_STYLE ('',( #256 ) ) ;
#228 = PLANE ( 'NONE',  #127 ) ;
#229 = CARTESIAN_POINT ( 'NONE',  ( 0.000000000000000000, 0.000000000000000000, 0.000000000000000000 ) ) ;
#230 = CARTESIAN_POINT ( 'NONE',  ( 6.123233995736764803E-17, 0.000000000000000000, 0.4999999999999998335 ) ) ;
#231 = CARTESIAN_POINT ( 'NONE',  ( 2.449293598294706414E-16, 2.000000000000000000, 0.000000000000000000 ) ) ;
#232 = EDGE_LOOP ( 'NONE', ( #186, #317, #294, #271, #131 ) ) ;
#233 = MECHANICAL_DESIGN_GEOMETRIC_PRESENTATION_REPRESENTATION (  '', ( #31 ), #245 ) ;
#234 = PRESENTATION_LAYER_ASSIGNMENT (  '', '', ( #100 ) ) ;
#235 = VERTEX_POINT ( 'NONE', #140 ) ;
#236 = CARTESIAN_POINT ( 'NONE',  ( 0.000000000000000000, 0.5000000000000000000, 0.000000000000000000 ) ) ;
#237 = DIRECTION ( 'NONE',  ( -1.224646799147353454E-16, 1.000000000000000000, -0.000000000000000000 ) ) ;
#238 = ORIENTED_EDGE ( 'NONE', *, *, #120, .F. ) ;
#239 = DIRECTION ( 'NONE',  ( -1.000000000000000000, -1.224646799147353454E-16, 0.000000000000000000 ) ) ;
#240 =( NAMED_UNIT ( * ) SI_UNIT ( $, .STERADIAN. ) SOLID_ANGLE_UNIT ( ) );
#241 = CARTESIAN_POINT ( 'NONE',  ( -6.123233995736766036E-17, 0.5000000000000000000, 0.000000000000000000 ) ) ;
#242 = PRESENTATION_STYLE_ASSIGNMENT (( #188 ) ) ;
#243 = AXIS2_PLACEMENT_3D ( 'NONE', #299, #295, #156 ) ;
#244 =( NAMED_UNIT ( * ) SI_UNIT ( $, .STERADIAN. ) SOLID_ANGLE_UNIT ( ) );
#245 =( GEOMETRIC_REPRESENTATION_CONTEXT ( 3 ) GLOBAL_UNCERTAINTY_ASSIGNED_CONTEXT ( ( #289 ) ) GLOBAL_UNIT_ASSIGNED_CONTEXT ( ( #117, #252, #255 ) ) REPRESENTATION_CONTEXT ( 'NONE', 'WORKASPACE' ) );
#246 =( GEOMETRIC_REPRESENTATION_CONTEXT ( 3 ) GLOBAL_UNCERTAINTY_ASSIGNED_CONTEXT ( ( #128 ) ) GLOBAL_UNIT_ASSIGNED_CONTEXT ( ( #80, #12, #240 ) ) REPRESENTATION_CONTEXT ( 'NONE', 'WORKASPACE' ) );
#247 = FILL_AREA_STYLE ('',( #29 ) ) ;
#248 = AXIS2_PLACEMENT_3D ( 'NONE', #147, #144, #349 ) ;
#249 = ADVANCED_FACE ( 'NONE', ( #171 ), #348, .T. ) ;
#250 = DIMENSIONAL_EXPONENTS ( 1.000000000000000000, 0.000000000000000000, 0.000000000000000000, 0.000000000000000000, 0.000000000000000000, 0.000000000000000000, 0.000000000000000000 ) ;
#251 = APPLICATION_PROTOCOL_DEFINITION ( 'draft international standard', 'automotive_design', 1998, #66 ) ;
#252 =( NAMED_UNIT ( * ) PLANE_ANGLE_UNIT ( ) SI_UNIT ( $, .RADIAN. ) );
#253 = MANIFOLD_SOLID_BREP ( 'Revolve - Tool Body (Straight Shanked)', #105 ) ;
#254 = DIRECTION ( 'NONE',  ( 1.224646799147353454E-16, -1.000000000000000000, 0.000000000000000000 ) ) ;
#255 =( NAMED_UNIT ( * ) SI_UNIT ( $, .STERADIAN. ) SOLID_ANGLE_UNIT ( ) );
#256 = FILL_AREA_STYLE_COLOUR ( '', #199 ) ;
#257 = MECHANICAL_DESIGN_GEOMETRIC_PRESENTATION_REPRESENTATION (  '', ( #331 ), #170 ) ;
#258 = SURFACE_STYLE_FILL_AREA ( #90 ) ;
#259 = DIRECTION ( 'NONE',  ( -1.224646799147353454E-16, 1.000000000000000000, -0.000000000000000000 ) ) ;
#260 = UNCERTAINTY_MEASURE_WITH_UNIT (LENGTH_MEASURE( 1.000000000000000082E-05 ), #303, 'distance_accuracy_value', 'NONE');
#261 = FILL_AREA_STYLE ('',( #316 ) ) ;
#262 = ORIENTED_EDGE ( 'NONE', *, *, #318, .T. ) ;
#263 = DIRECTION ( 'NONE',  ( 1.000000000000000000, 0.000000000000000000, -1.224646799147353207E-16 ) ) ;
#264 = DIMENSIONAL_EXPONENTS ( 1.000000000000000000, 0.000000000000000000, 0.000000000000000000, 0.000000000000000000, 0.000000000000000000, 0.000000000000000000, 0.000000000000000000 ) ;
#265 =( LENGTH_UNIT ( ) NAMED_UNIT ( * ) SI_UNIT ( $, .METRE. ) );
#266 = ADVANCED_FACE ( 'NONE', ( #325 ), #70, .F. ) ;
#267 = ORIENTED_EDGE ( 'NONE', *, *, #210, .F. ) ;
#268 = PRESENTATION_LAYER_ASSIGNMENT (  '', '', ( #292 ) ) ;
#269 = ORIENTED_EDGE ( 'NONE', *, *, #223, .T. ) ;
#270 = CARTESIAN_POINT ( 'NONE',  ( 2.449293598294706414E-16, 2.000000000000000000, 0.000000000000000000 ) ) ;
#271 = ORIENTED_EDGE ( 'NONE', *, *, #367, .F. ) ;
#272 = EDGE_CURVE ( 'NONE', #190, #321, #332, .T. ) ;
#273 = SPHERICAL_SURFACE ( 'NONE', #194, 0.5000000000000000000 ) ;
#274 = COLOUR_RGB ( '',1.000000000000000000, 0.000000000000000000, 0.000000000000000000 ) ;
#275 = FACE_OUTER_BOUND ( 'NONE', #48, .T. ) ;
#276 = CYLINDRICAL_SURFACE ( 'NONE', #72, 0.4999999999999998335 ) ;
#277 = DIRECTION ( 'NONE',  ( -1.000000000000000000, 0.000000000000000000, 0.000000000000000000 ) ) ;
#278 = SURFACE_STYLE_FILL_AREA ( #247 ) ;
#279 = CIRCLE ( 'NONE', #373, 0.5000000000000000000 ) ;
#280 = SURFACE_STYLE_USAGE ( .BOTH. , #27 ) ;
#281 = CARTESIAN_POINT ( 'NONE',  ( -6.123233995736770966E-17, 4.500000000000000000, 0.000000000000000000 ) ) ;
#282 = FACE_OUTER_BOUND ( 'NONE', #232, .T. ) ;
#283 =( NAMED_UNIT ( * ) SI_UNIT ( $, .STERADIAN. ) SOLID_ANGLE_UNIT ( ) );
#284 = CIRCLE ( 'NONE', #311, 0.4999999999999997780 ) ;
#285 = DIRECTION ( 'NONE',  ( -0.000000000000000000, -1.000000000000000000, -0.000000000000000000 ) ) ;
#286 = ORIENTED_EDGE ( 'NONE', *, *, #179, .T. ) ;
#287 = LENGTH_MEASURE_WITH_UNIT ( LENGTH_MEASURE( 0.02539999999999999897 ), #146 );
#288 = VERTEX_POINT ( 'NONE', #361 ) ;
#289 = UNCERTAINTY_MEASURE_WITH_UNIT (LENGTH_MEASURE( 1.000000000000000082E-05 ), #117, 'distance_accuracy_value', 'NONE');
#290 = CARTESIAN_POINT ( 'NONE',  ( 0.000000000000000000, 0.000000000000000000, -0.4999999999999998335 ) ) ;
#291 = PRESENTATION_STYLE_ASSIGNMENT (( #176 ) ) ;
#292 = STYLED_ITEM ( 'NONE', ( #96 ), #253 ) ;
#293 =( NAMED_UNIT ( * ) PLANE_ANGLE_UNIT ( ) SI_UNIT ( $, .RADIAN. ) );
#294 = ORIENTED_EDGE ( 'NONE', *, *, #98, .F. ) ;
#295 = DIRECTION ( 'NONE',  ( -0.000000000000000000, -1.000000000000000000, -0.000000000000000000 ) ) ;
#296 = EDGE_CURVE ( 'NONE', #330, #190, #113, .T. ) ;
#297 = ORIENTED_EDGE ( 'NONE', *, *, #313, .T. ) ;
#298 = CARTESIAN_POINT ( 'NONE',  ( -0.4999999999999998335, 4.500000000000000000, 0.000000000000000000 ) ) ;
#299 = CARTESIAN_POINT ( 'NONE',  ( 0.000000000000000000, 2.000000000000000000, 0.000000000000000000 ) ) ;
#300 = ORIENTED_EDGE ( 'NONE', *, *, #120, .T. ) ;
#301 = CIRCLE ( 'NONE', #107, 0.5000000000000000000 ) ;
#302 = DIRECTION ( 'NONE',  ( -1.224646799147353454E-16, 1.000000000000000000, -0.000000000000000000 ) ) ;
#303 =( CONVERSION_BASED_UNIT ( 'INCH', #126 ) LENGTH_UNIT ( ) NAMED_UNIT ( #204 ) );
#304 = PRODUCT_DEFINITION_SHAPE ( 'NONE', 'NONE',  #63 ) ;
#305 = EDGE_LOOP ( 'NONE', ( #44, #46 ) ) ;
#306 = CARTESIAN_POINT ( 'NONE',  ( 0.000000000000000000, 0.000000000000000000, 0.000000000000000000 ) ) ;
#307 = DIRECTION ( 'NONE',  ( -0.000000000000000000, -1.000000000000000000, -0.000000000000000000 ) ) ;
#308 = PRESENTATION_LAYER_ASSIGNMENT (  '', '', ( #158 ) ) ;
#309 = DIRECTION ( 'NONE',  ( 1.000000000000000000, 0.000000000000000000, 0.000000000000000000 ) ) ;
#310 =( NAMED_UNIT ( * ) PLANE_ANGLE_UNIT ( ) SI_UNIT ( $, .RADIAN. ) );
#311 = AXIS2_PLACEMENT_3D ( 'NONE', #181, #259, #118 ) ;
#312 = PRESENTATION_LAYER_ASSIGNMENT (  '', '', ( #106 ) ) ;
#313 = EDGE_CURVE ( 'NONE', #354, #84, #279, .T. ) ;
#314 = DIRECTION ( 'NONE',  ( -0.000000000000000000, -1.000000000000000000, -0.000000000000000000 ) ) ;
#315 =( NAMED_UNIT ( * ) SI_UNIT ( $, .STERADIAN. ) SOLID_ANGLE_UNIT ( ) );
#316 = FILL_AREA_STYLE_COLOUR ( '', #162 ) ;
#317 = ORIENTED_EDGE ( 'NONE', *, *, #6, .T. ) ;
#318 = EDGE_CURVE ( 'NONE', #84, #184, #200, .T. ) ;
#319 = DIMENSIONAL_EXPONENTS ( 1.000000000000000000, 0.000000000000000000, 0.000000000000000000, 0.000000000000000000, 0.000000000000000000, 0.000000000000000000, 0.000000000000000000 ) ;
#320 = DIRECTION ( 'NONE',  ( 0.000000000000000000, 1.000000000000000000, 0.000000000000000000 ) ) ;
#321 = VERTEX_POINT ( 'NONE', #298 ) ;
#322 = CIRCLE ( 'NONE', #248, 0.5000000000000000000 ) ;
#323 = AXIS2_PLACEMENT_3D ( 'NONE', #270, #358, #155 ) ;
#324 = ADVANCED_FACE ( 'NONE', ( #208 ), #327, .T. ) ;
#325 = FACE_OUTER_BOUND ( 'NONE', #77, .T. ) ;
#326 = ORIENTED_EDGE ( 'NONE', *, *, #296, .F. ) ;
#327 = CYLINDRICAL_SURFACE ( 'NONE', #83, 0.4999999999999996114 ) ;
#328 = ORIENTED_EDGE ( 'NONE', *, *, #318, .F. ) ;
#329 = CARTESIAN_POINT ( 'NONE',  ( 0.4999999999999995004, 4.500000000000000000, 6.123233995736761105E-17 ) ) ;
#330 = VERTEX_POINT ( 'NONE', #192 ) ;
#331 = STYLED_ITEM ( 'NONE', ( #169 ), #249 ) ;
#332 = LINE ( 'NONE', #187, #203 ) ;
#333 =( LENGTH_UNIT ( ) NAMED_UNIT ( * ) SI_UNIT ( $, .METRE. ) );
#334 = VECTOR ( 'NONE', #39, 39.37007874015748143 ) ;
#335 = FACE_OUTER_BOUND ( 'NONE', #148, .T. ) ;
#336 = APPLICATION_CONTEXT ( 'automotive_design' ) ;
#337 = FILL_AREA_STYLE ('',( #85 ) ) ;
#338 = AXIS2_PLACEMENT_3D ( 'NONE', #281, #110, #56 ) ;
#339 = PRESENTATION_STYLE_ASSIGNMENT (( #280 ) ) ;
#340 = DIRECTION ( 'NONE',  ( 0.000000000000000000, 0.000000000000000000, 1.000000000000000000 ) ) ;
#341 =( NAMED_UNIT ( * ) SI_UNIT ( $, .STERADIAN. ) SOLID_ANGLE_UNIT ( ) );
#342 = SURFACE_STYLE_USAGE ( .BOTH. , #115 ) ;
#343 = DIMENSIONAL_EXPONENTS ( 1.000000000000000000, 0.000000000000000000, 0.000000000000000000, 0.000000000000000000, 0.000000000000000000, 0.000000000000000000, 0.000000000000000000 ) ;
#344 = FILL_AREA_STYLE_COLOUR ( '', #214 ) ;
#345 =( NAMED_UNIT ( * ) PLANE_ANGLE_UNIT ( ) SI_UNIT ( $, .RADIAN. ) );
#346 = AXIS2_PLACEMENT_3D ( 'NONE', #28, #161, #277 ) ;
#347 = SURFACE_SIDE_STYLE ('',( #183 ) ) ;
#348 = PLANE ( 'NONE',  #163 ) ;
#349 = DIRECTION ( 'NONE',  ( -1.000000000000000000, 0.000000000000000000, 0.000000000000000000 ) ) ;
#350 = PRESENTATION_STYLE_ASSIGNMENT (( #2 ) ) ;
#351 = UNCERTAINTY_MEASURE_WITH_UNIT (LENGTH_MEASURE( 1.000000000000000082E-05 ), #1, 'distance_accuracy_value', 'NONE');
#352 =( GEOMETRIC_REPRESENTATION_CONTEXT ( 3 ) GLOBAL_UNCERTAINTY_ASSIGNED_CONTEXT ( ( #225 ) ) GLOBAL_UNIT_ASSIGNED_CONTEXT ( ( #13, #310, #244 ) ) REPRESENTATION_CONTEXT ( 'NONE', 'WORKASPACE' ) );
#353 =( GEOMETRIC_REPRESENTATION_CONTEXT ( 3 ) GLOBAL_UNCERTAINTY_ASSIGNED_CONTEXT ( ( #121 ) ) GLOBAL_UNIT_ASSIGNED_CONTEXT ( ( #60, #345, #283 ) ) REPRESENTATION_CONTEXT ( 'NONE', 'WORKASPACE' ) );
#354 = VERTEX_POINT ( 'NONE', #47 ) ;
#355 =( CONVERSION_BASED_UNIT ( 'INCH', #64 ) LENGTH_UNIT ( ) NAMED_UNIT ( #250 ) );
#356 = DIMENSIONAL_EXPONENTS ( 1.000000000000000000, 0.000000000000000000, 0.000000000000000000, 0.000000000000000000, 0.000000000000000000, 0.000000000000000000, 0.000000000000000000 ) ;
#357 = ORIENTED_EDGE ( 'NONE', *, *, #272, .T. ) ;
#358 = DIRECTION ( 'NONE',  ( -1.224646799147353454E-16, 1.000000000000000000, -0.000000000000000000 ) ) ;
#359 = DIRECTION ( 'NONE',  ( 0.000000000000000000, 0.000000000000000000, -1.000000000000000000 ) ) ;
#360 = ORIENTED_EDGE ( 'NONE', *, *, #7, .F. ) ;
#361 = CARTESIAN_POINT ( 'NONE',  ( 0.4999999999999997224, 4.500000000000000000, 6.123233995736762338E-17 ) ) ;
#362 =( NAMED_UNIT ( * ) PLANE_ANGLE_UNIT ( ) SI_UNIT ( $, .RADIAN. ) );
#363 = CIRCLE ( 'NONE', #157, 0.5000000000000000000 ) ;
#364 = COLOUR_RGB ( '',1.000000000000000000, 0.000000000000000000, 0.000000000000000000 ) ;
#365 = LENGTH_MEASURE_WITH_UNIT ( LENGTH_MEASURE( 0.02539999999999999897 ), #226 );
#366 = FACE_OUTER_BOUND ( 'NONE', #18, .T. ) ;
#367 = EDGE_CURVE ( 'NONE', #38, #76, #301, .T. ) ;
#368 = DIRECTION ( 'NONE',  ( 0.000000000000000000, 0.000000000000000000, 1.000000000000000000 ) ) ;
#369 = AXIS2_PLACEMENT_3D ( 'NONE', #231, #212, #239 ) ;
#370 = DIRECTION ( 'NONE',  ( 1.000000000000000000, 0.000000000000000000, 0.000000000000000000 ) ) ;
#371 = PRESENTATION_LAYER_ASSIGNMENT (  '', '', ( #145 ) ) ;
#372 = CARTESIAN_POINT ( 'NONE',  ( 0.000000000000000000, 2.000000000000000000, 0.000000000000000000 ) ) ;
#373 = AXIS2_PLACEMENT_3D ( 'NONE', #236, #20, #11 ) ;
ENDSEC;
END-ISO-10303-21;
