ISO-10303-21;
HEADER;
FILE_DESCRIPTION (( 'STEP AP214' ),
    '1' );
FILE_NAME ('Micro_SME-022-2X.STEP',
    '2021-09-02T10:55:45',
    ( '' ),
    ( '' ),
    'SwSTEP 2.0',
    'SolidWorks 2020',
    '' );
FILE_SCHEMA (( 'AUTOMOTIVE_DESIGN' ));
ENDSEC;

DATA;
#1 = CIRCLE ( 'NONE', #257, 0.01098899999999999530 ) ;
#2 = FACE_OUTER_BOUND ( 'NONE', #283, .T. ) ;
#3 = DIRECTION ( 'NONE',  ( 1.000000000000000000, 0.0000000000000000000, 0.0000000000000000000 ) ) ;
#4 = ADVANCED_FACE ( 'NONE', ( #36 ), #296, .F. ) ;
#5 = CARTESIAN_POINT ( 'NONE',  ( 0.0000000000000000000, 0.0000000000000000000, 1.500000000000000222 ) ) ;
#6 = VECTOR ( 'NONE', #78, 39.37007874015747433 ) ;
#7 = VERTEX_POINT ( 'NONE', #135 ) ;
#8 =( CONVERSION_BASED_UNIT ( 'INCH', #200 ) LENGTH_UNIT ( ) NAMED_UNIT ( #205 ) );
#9 = ORIENTED_EDGE ( 'NONE', *, *, #134, .T. ) ;
#10 =( GEOMETRIC_REPRESENTATION_CONTEXT ( 3 ) GLOBAL_UNCERTAINTY_ASSIGNED_CONTEXT ( ( #102 ) ) GLOBAL_UNIT_ASSIGNED_CONTEXT ( ( #258, #173, #48 ) ) REPRESENTATION_CONTEXT ( 'NONE', 'WORKASPACE' ) );
#11 = FILL_AREA_STYLE ('',( #132 ) ) ;
#12 = ADVANCED_FACE ( 'NONE', ( #40 ), #93, .T. ) ;
#13 = DIRECTION ( 'NONE',  ( 1.000000000000000000, 0.0000000000000000000, -0.0000000000000000000 ) ) ;
#14 = APPLICATION_PROTOCOL_DEFINITION ( 'draft international standard', 'automotive_design', 1998, #131 ) ;
#15 = AXIS2_PLACEMENT_3D ( 'NONE', #117, #70, #13 ) ;
#16 = DIRECTION ( 'NONE',  ( -1.000000000000000000, 0.0000000000000000000, 0.0000000000000000000 ) ) ;
#17 = CARTESIAN_POINT ( 'NONE',  ( 0.0000000000000000000, 0.0000000000000000000, 0.0000000000000000000 ) ) ;
#18 = LINE ( 'NONE', #118, #76 ) ;
#19 = FACE_OUTER_BOUND ( 'NONE', #108, .T. ) ;
#20 = CIRCLE ( 'NONE', #61, 0.06250000000000002776 ) ;
#21 = CARTESIAN_POINT ( 'NONE',  ( 0.04750000000000064587, 6.735557395310483192E-18, 1.500000000000000222 ) ) ;
#22 = CARTESIAN_POINT ( 'NONE',  ( 0.0000000000000000000, 0.0000000000000000000, 1.500000000000000222 ) ) ;
#23 = FACE_OUTER_BOUND ( 'NONE', #129, .T. ) ;
#24 = PRODUCT_DEFINITION_SHAPE ( 'NONE', 'NONE',  #97 ) ;
#25 = DIRECTION ( 'NONE',  ( 1.224646799147353700E-16, 0.0000000000000000000, 1.000000000000000000 ) ) ;
#26 =( NAMED_UNIT ( * ) PLANE_ANGLE_UNIT ( ) SI_UNIT ( $, .RADIAN. ) );
#27 = AXIS2_PLACEMENT_3D ( 'NONE', #234, #25, #285 ) ;
#28 = DIRECTION ( 'NONE',  ( -1.224646799147353700E-16, -0.0000000000000000000, -1.000000000000000000 ) ) ;
#29 = ORIENTED_EDGE ( 'NONE', *, *, #261, .T. ) ;
#30 =( LENGTH_UNIT ( ) NAMED_UNIT ( * ) SI_UNIT ( $, .METRE. ) );
#31 = ORIENTED_EDGE ( 'NONE', *, *, #58, .T. ) ;
#32 = DIMENSIONAL_EXPONENTS ( 1.000000000000000000, 0.0000000000000000000, 0.0000000000000000000, 0.0000000000000000000, 0.0000000000000000000, 0.0000000000000000000, 0.0000000000000000000 ) ;
#33 = VERTEX_POINT ( 'NONE', #115 ) ;
#34 = CARTESIAN_POINT ( 'NONE',  ( 0.01098900000000000571, 0.0000000000000000000, 0.03300000000000000155 ) ) ;
#35 = VERTEX_POINT ( 'NONE', #298 ) ;
#36 = FACE_OUTER_BOUND ( 'NONE', #130, .T. ) ;
#37 = EDGE_LOOP ( 'NONE', ( #241, #267, #154, #294 ) ) ;
#38 = AXIS2_PLACEMENT_3D ( 'NONE', #287, #28, #107 ) ;
#39 = DIRECTION ( 'NONE',  ( 0.7071067811865462405, 8.659560562354916834E-17, -0.7071067811865486830 ) ) ;
#40 = FACE_OUTER_BOUND ( 'NONE', #37, .T. ) ;
#41 = PRODUCT_CONTEXT ( 'NONE', #142, 'mechanical' ) ;
#42 = DIRECTION ( 'NONE',  ( -1.000000000000000000, 0.0000000000000000000, 0.0000000000000000000 ) ) ;
#43 = CARTESIAN_POINT ( 'NONE',  ( -0.04750000000000064587, 0.0000000000000000000, 1.500000000000000222 ) ) ;
#44 = CIRCLE ( 'NONE', #291, 0.04750000000000064587 ) ;
#45 =( GEOMETRIC_REPRESENTATION_CONTEXT ( 3 ) GLOBAL_UNCERTAINTY_ASSIGNED_CONTEXT ( ( #143 ) ) GLOBAL_UNIT_ASSIGNED_CONTEXT ( ( #8, #86, #157 ) ) REPRESENTATION_CONTEXT ( 'NONE', 'WORKASPACE' ) );
#46 = CARTESIAN_POINT ( 'NONE',  ( -0.01098899999999999703, 4.499903431126993417E-18, 0.03300000000000000155 ) ) ;
#47 = DIRECTION ( 'NONE',  ( -1.224646799147353700E-16, -0.0000000000000000000, -1.000000000000000000 ) ) ;
#48 =( NAMED_UNIT ( * ) SI_UNIT ( $, .STERADIAN. ) SOLID_ANGLE_UNIT ( ) );
#49 = CIRCLE ( 'NONE', #297, 0.06250000000000002776 ) ;
#50 = MECHANICAL_DESIGN_GEOMETRIC_PRESENTATION_REPRESENTATION (  '', ( #251 ), #45 ) ;
#51 = EDGE_CURVE ( 'NONE', #139, #161, #230, .T. ) ;
#52 = CARTESIAN_POINT ( 'NONE',  ( 0.0000000000000000000, 0.0000000000000000000, 1.500000000000000222 ) ) ;
#53 =( LENGTH_UNIT ( ) NAMED_UNIT ( * ) SI_UNIT ( $, .METRE. ) );
#54 = VERTEX_POINT ( 'NONE', #141 ) ;
#55 = STYLED_ITEM ( 'NONE', ( #124 ), #120 ) ;
#56 = SURFACE_STYLE_USAGE ( .BOTH. , #59 ) ;
#57 = DIRECTION ( 'NONE',  ( -0.0000000000000000000, -0.0000000000000000000, -1.000000000000000000 ) ) ;
#58 = EDGE_CURVE ( 'NONE', #85, #226, #252, .T. ) ;
#59 = SURFACE_SIDE_STYLE ('',( #83 ) ) ;
#60 = ORIENTED_EDGE ( 'NONE', *, *, #69, .T. ) ;
#61 = AXIS2_PLACEMENT_3D ( 'NONE', #65, #274, #273 ) ;
#62 = ORIENTED_EDGE ( 'NONE', *, *, #160, .F. ) ;
#63 = DIRECTION ( 'NONE',  ( -1.000000000000000000, 0.0000000000000000000, 1.224646799147353700E-16 ) ) ;
#64 = EDGE_CURVE ( 'NONE', #119, #85, #18, .T. ) ;
#65 = CARTESIAN_POINT ( 'NONE',  ( 3.981735749243193389E-17, 0.0000000000000000000, 0.3251333978103264077 ) ) ;
#66 = AXIS2_PLACEMENT_3D ( 'NONE', #163, #248, #16 ) ;
#67 = ORIENTED_EDGE ( 'NONE', *, *, #69, .F. ) ;
#68 = DIRECTION ( 'NONE',  ( -0.0000000000000000000, -0.0000000000000000000, -1.000000000000000000 ) ) ;
#69 = EDGE_CURVE ( 'NONE', #87, #139, #213, .T. ) ;
#70 = DIRECTION ( 'NONE',  ( 0.0000000000000000000, 0.0000000000000000000, 1.000000000000000000 ) ) ;
#71 = DIRECTION ( 'NONE',  ( 1.000000000000000000, 0.0000000000000000000, 0.0000000000000000000 ) ) ;
#72 = AXIS2_PLACEMENT_3D ( 'NONE', #5, #74, #171 ) ;
#73 = CARTESIAN_POINT ( 'NONE',  ( 4.041334437186267420E-18, 0.0000000000000000000, 0.03300000000000000155 ) ) ;
#74 = DIRECTION ( 'NONE',  ( -0.0000000000000000000, -0.0000000000000000000, -1.000000000000000000 ) ) ;
#75 = SURFACE_STYLE_USAGE ( .BOTH. , #125 ) ;
#76 = VECTOR ( 'NONE', #39, 39.37007874015748854 ) ;
#77 = PRODUCT_DEFINITION_FORMATION_WITH_SPECIFIED_SOURCE ( 'ANY', '', #231, .NOT_KNOWN. ) ;
#78 = DIRECTION ( 'NONE',  ( -0.1736481776669311639, 2.126576849575783008E-17, 0.9848077530122080203 ) ) ;
#79 = EDGE_CURVE ( 'NONE', #54, #85, #197, .T. ) ;
#80 = CARTESIAN_POINT ( 'NONE',  ( -0.06250000000000002776, 0.0000000000000000000, 1.500000000000000222 ) ) ;
#81 = ORIENTED_EDGE ( 'NONE', *, *, #126, .T. ) ;
#82 = PRODUCT_RELATED_PRODUCT_CATEGORY ( 'part', '', ( #231 ) ) ;
#83 = SURFACE_STYLE_FILL_AREA ( #11 ) ;
#84 = CIRCLE ( 'NONE', #172, 0.04750000000000064587 ) ;
#85 = VERTEX_POINT ( 'NONE', #96 ) ;
#86 =( NAMED_UNIT ( * ) PLANE_ANGLE_UNIT ( ) SI_UNIT ( $, .RADIAN. ) );
#87 = VERTEX_POINT ( 'NONE', #90 ) ;
#88 = ORIENTED_EDGE ( 'NONE', *, *, #196, .T. ) ;
#89 = VECTOR ( 'NONE', #284, 39.37007874015748854 ) ;
#90 = CARTESIAN_POINT ( 'NONE',  ( 0.01098900000000000571, 0.0000000000000000000, 0.03300000000000000155 ) ) ;
#91 = ORIENTED_EDGE ( 'NONE', *, *, #140, .T. ) ;
#92 = DIRECTION ( 'NONE',  ( 0.0000000000000000000, 0.0000000000000000000, 1.000000000000000000 ) ) ;
#93 = CONICAL_SURFACE ( 'NONE', #114, 0.04750000000000064587, 0.7853981633974466137 ) ;
#94 = DIRECTION ( 'NONE',  ( 0.0000000000000000000, 0.0000000000000000000, -1.000000000000000000 ) ) ;
#95 = ADVANCED_FACE ( 'NONE', ( #19 ), #136, .T. ) ;
#96 = CARTESIAN_POINT ( 'NONE',  ( 0.06250000000000002776, 7.654042494670959086E-18, 1.485000000000000764 ) ) ;
#97 = PRODUCT_DEFINITION ( 'UNKNOWN', '', #77, #260 ) ;
#98 = DIRECTION ( 'NONE',  ( 0.0000000000000000000, 0.0000000000000000000, 1.000000000000000000 ) ) ;
#99 = CARTESIAN_POINT ( 'NONE',  ( -0.01098899999999999703, 1.345764367583026786E-18, 0.03300000000000000155 ) ) ;
#100 = ADVANCED_FACE ( 'NONE', ( #278 ), #207, .T. ) ;
#101 = LENGTH_MEASURE_WITH_UNIT ( LENGTH_MEASURE( 0.02539999999999999897 ), #282 );
#102 = UNCERTAINTY_MEASURE_WITH_UNIT (LENGTH_MEASURE( 1.000000000000000082E-05 ), #258, 'distance_accuracy_value', 'NONE');
#103 = CARTESIAN_POINT ( 'NONE',  ( 0.01098900000000000050, 1.345764367583026593E-18, -1.345764367583026979E-18 ) ) ;
#104 = AXIS2_PLACEMENT_3D ( 'NONE', #147, #299, #237 ) ;
#105 = ADVANCED_FACE ( 'NONE', ( #185 ), #293, .T. ) ;
#106 = ORIENTED_EDGE ( 'NONE', *, *, #111, .F. ) ;
#107 = DIRECTION ( 'NONE',  ( -1.000000000000000000, 0.0000000000000000000, 1.224646799147353947E-16 ) ) ;
#108 = EDGE_LOOP ( 'NONE', ( #158, #60, #270, #133 ) ) ;
#109 = AXIS2_PLACEMENT_3D ( 'NONE', #188, #272, #63 ) ;
#110 = EDGE_CURVE ( 'NONE', #139, #87, #146, .T. ) ;
#111 = EDGE_CURVE ( 'NONE', #33, #226, #20, .T. ) ;
#112 = ORIENTED_EDGE ( 'NONE', *, *, #277, .T. ) ;
#113 = DIRECTION ( 'NONE',  ( -1.000000000000000000, 0.0000000000000000000, 0.0000000000000000000 ) ) ;
#114 = AXIS2_PLACEMENT_3D ( 'NONE', #249, #232, #42 ) ;
#115 = CARTESIAN_POINT ( 'NONE',  ( -0.06249999999999997918, 0.0000000000000000000, 0.3251333978103264077 ) ) ;
#116 = SHAPE_DEFINITION_REPRESENTATION ( #24, #247 ) ;
#117 = CARTESIAN_POINT ( 'NONE',  ( 0.0000000000000000000, 0.0000000000000000000, 1.500000000000000222 ) ) ;
#118 = CARTESIAN_POINT ( 'NONE',  ( 0.04750000000000064587, 5.817072295950006528E-18, 1.500000000000000222 ) ) ;
#119 = VERTEX_POINT ( 'NONE', #21 ) ;
#120 = MANIFOLD_SOLID_BREP ( 'Cut-Revolve1', #209 ) ;
#121 = FILL_AREA_STYLE_COLOUR ( '', #224 ) ;
#122 = CARTESIAN_POINT ( 'NONE',  ( -0.01098899999999999530, 0.0000000000000000000, 2.691528735166053187E-18 ) ) ;
#123 = SURFACE_STYLE_FILL_AREA ( #216 ) ;
#124 = PRESENTATION_STYLE_ASSIGNMENT (( #75 ) ) ;
#125 = SURFACE_SIDE_STYLE ('',( #123 ) ) ;
#126 = EDGE_CURVE ( 'NONE', #35, #54, #145, .T. ) ;
#127 = AXIS2_PLACEMENT_3D ( 'NONE', #254, #138, #113 ) ;
#128 = DIRECTION ( 'NONE',  ( 0.0000000000000000000, 0.0000000000000000000, -1.000000000000000000 ) ) ;
#129 = EDGE_LOOP ( 'NONE', ( #62, #67, #112, #9 ) ) ;
#130 = EDGE_LOOP ( 'NONE', ( #180, #29 ) ) ;
#131 = APPLICATION_CONTEXT ( 'automotive_design' ) ;
#132 = FILL_AREA_STYLE_COLOUR ( '', #179 ) ;
#133 = ORIENTED_EDGE ( 'NONE', *, *, #261, .F. ) ;
#134 = EDGE_CURVE ( 'NONE', #226, #33, #189, .T. ) ;
#135 = CARTESIAN_POINT ( 'NONE',  ( 0.01098899999999999530, 1.345764367583026208E-18, -2.369500423704768587E-34 ) ) ;
#136 = CYLINDRICAL_SURFACE ( 'NONE', #262, 0.01098900000000000050 ) ;
#137 = CONICAL_SURFACE ( 'NONE', #183, 0.01098900000000000224, 0.1745329251994338637 ) ;
#138 = DIRECTION ( 'NONE',  ( -1.224646799147353700E-16, -0.0000000000000000000, -1.000000000000000000 ) ) ;
#139 = VERTEX_POINT ( 'NONE', #46 ) ;
#140 = EDGE_CURVE ( 'NONE', #85, #54, #49, .T. ) ;
#141 = CARTESIAN_POINT ( 'NONE',  ( -0.06250000000000002776, 0.0000000000000000000, 1.485000000000000764 ) ) ;
#142 = APPLICATION_CONTEXT ( 'automotive_design' ) ;
#143 = UNCERTAINTY_MEASURE_WITH_UNIT (LENGTH_MEASURE( 1.000000000000000082E-05 ), #8, 'distance_accuracy_value', 'NONE');
#144 = FACE_OUTER_BOUND ( 'NONE', #198, .T. ) ;
#145 = LINE ( 'NONE', #43, #89 ) ;
#146 = CIRCLE ( 'NONE', #66, 0.01098900000000000224 ) ;
#147 = CARTESIAN_POINT ( 'NONE',  ( 3.981735749243193389E-17, 0.0000000000000000000, 0.3251333978103264077 ) ) ;
#148 = EDGE_CURVE ( 'NONE', #35, #119, #84, .T. ) ;
#149 = LINE ( 'NONE', #103, #218 ) ;
#150 = LENGTH_MEASURE_WITH_UNIT ( LENGTH_MEASURE( 0.02539999999999999897 ), #53 );
#151 = VECTOR ( 'NONE', #68, 39.37007874015748143 ) ;
#152 = ORIENTED_EDGE ( 'NONE', *, *, #215, .F. ) ;
#153 = APPLICATION_PROTOCOL_DEFINITION ( 'draft international standard', 'automotive_design', 1998, #142 ) ;
#154 = ORIENTED_EDGE ( 'NONE', *, *, #79, .F. ) ;
#155 = FACE_OUTER_BOUND ( 'NONE', #156, .T. ) ;
#156 = EDGE_LOOP ( 'NONE', ( #264, #221, #81, #289 ) ) ;
#157 =( NAMED_UNIT ( * ) SI_UNIT ( $, .STERADIAN. ) SOLID_ANGLE_UNIT ( ) );
#158 = ORIENTED_EDGE ( 'NONE', *, *, #201, .F. ) ;
#159 = CONICAL_SURFACE ( 'NONE', #225, 0.04750000000000064587, 0.7853981633974466137 ) ;
#160 = EDGE_CURVE ( 'NONE', #139, #33, #235, .T. ) ;
#161 = VERTEX_POINT ( 'NONE', #122 ) ;
#162 = CARTESIAN_POINT ( 'NONE',  ( 0.0000000000000000000, 0.0000000000000000000, 0.0000000000000000000 ) ) ;
#163 = CARTESIAN_POINT ( 'NONE',  ( 4.041334437186267420E-18, 0.0000000000000000000, 0.03300000000000000155 ) ) ;
#164 = ORIENTED_EDGE ( 'NONE', *, *, #58, .F. ) ;
#165 = VECTOR ( 'NONE', #206, 39.37007874015748143 ) ;
#166 = ORIENTED_EDGE ( 'NONE', *, *, #201, .T. ) ;
#167 = ORIENTED_EDGE ( 'NONE', *, *, #111, .T. ) ;
#168 = ORIENTED_EDGE ( 'NONE', *, *, #277, .F. ) ;
#169 = PRESENTATION_LAYER_ASSIGNMENT (  '', '', ( #251 ) ) ;
#170 = DIRECTION ( 'NONE',  ( 0.0000000000000000000, 0.0000000000000000000, 1.000000000000000000 ) ) ;
#171 = DIRECTION ( 'NONE',  ( -1.000000000000000000, 0.0000000000000000000, 0.0000000000000000000 ) ) ;
#172 = AXIS2_PLACEMENT_3D ( 'NONE', #52, #98, #255 ) ;
#173 =( NAMED_UNIT ( * ) PLANE_ANGLE_UNIT ( ) SI_UNIT ( $, .RADIAN. ) );
#174 = DIRECTION ( 'NONE',  ( 0.1736481776669313581, 0.0000000000000000000, 0.9848077530122077983 ) ) ;
#175 = EDGE_LOOP ( 'NONE', ( #222, #166, #152, #202 ) ) ;
#176 = DIRECTION ( 'NONE',  ( -1.000000000000000000, 0.0000000000000000000, 0.0000000000000000000 ) ) ;
#177 = CIRCLE ( 'NONE', #38, 0.01098899999999999530 ) ;
#178 = EDGE_LOOP ( 'NONE', ( #269, #31, #106, #245 ) ) ;
#179 = COLOUR_RGB ( '',0.7921568627450980005, 0.8196078431372548767, 0.9333333333333333481 ) ;
#180 = ORIENTED_EDGE ( 'NONE', *, *, #215, .T. ) ;
#181 = ADVANCED_FACE ( 'NONE', ( #23 ), #137, .T. ) ;
#182 = ORIENTED_EDGE ( 'NONE', *, *, #160, .T. ) ;
#183 = AXIS2_PLACEMENT_3D ( 'NONE', #73, #281, #3 ) ;
#184 = DIRECTION ( 'NONE',  ( 1.000000000000000000, 0.0000000000000000000, 0.0000000000000000000 ) ) ;
#185 = FACE_OUTER_BOUND ( 'NONE', #175, .T. ) ;
#186 = DIRECTION ( 'NONE',  ( 0.0000000000000000000, 0.0000000000000000000, 1.000000000000000000 ) ) ;
#187 = ORIENTED_EDGE ( 'NONE', *, *, #134, .F. ) ;
#188 = CARTESIAN_POINT ( 'NONE',  ( 0.0000000000000000000, 0.0000000000000000000, 0.0000000000000000000 ) ) ;
#189 = CIRCLE ( 'NONE', #104, 0.06250000000000002776 ) ;
#190 = DIRECTION ( 'NONE',  ( 1.000000000000000000, 0.0000000000000000000, 0.0000000000000000000 ) ) ;
#191 = DIRECTION ( 'NONE',  ( -1.000000000000000000, 0.0000000000000000000, 1.224646799147353700E-16 ) ) ;
#192 = CARTESIAN_POINT ( 'NONE',  ( 0.06250000000000006939, 7.654042494670963708E-18, 0.3251333978103264077 ) ) ;
#193 = DIRECTION ( 'NONE',  ( 0.0000000000000000000, 0.0000000000000000000, -1.000000000000000000 ) ) ;
#194 = CYLINDRICAL_SURFACE ( 'NONE', #72, 0.06250000000000002776 ) ;
#195 = ORIENTED_EDGE ( 'NONE', *, *, #110, .F. ) ;
#196 = EDGE_CURVE ( 'NONE', #119, #35, #44, .T. ) ;
#197 = CIRCLE ( 'NONE', #244, 0.06250000000000002776 ) ;
#198 = EDGE_LOOP ( 'NONE', ( #195, #182, #167, #168 ) ) ;
#199 =( GEOMETRIC_REPRESENTATION_CONTEXT ( 3 ) GLOBAL_UNCERTAINTY_ASSIGNED_CONTEXT ( ( #212 ) ) GLOBAL_UNIT_ASSIGNED_CONTEXT ( ( #203, #26, #286 ) ) REPRESENTATION_CONTEXT ( 'NONE', 'WORKASPACE' ) );
#200 = LENGTH_MEASURE_WITH_UNIT ( LENGTH_MEASURE( 0.02539999999999999897 ), #30 );
#201 = EDGE_CURVE ( 'NONE', #87, #7, #149, .T. ) ;
#202 = ORIENTED_EDGE ( 'NONE', *, *, #51, .F. ) ;
#203 =( CONVERSION_BASED_UNIT ( 'INCH', #150 ) LENGTH_UNIT ( ) NAMED_UNIT ( #32 ) );
#204 = DIRECTION ( 'NONE',  ( 1.000000000000000000, 0.0000000000000000000, -0.0000000000000000000 ) ) ;
#205 = DIMENSIONAL_EXPONENTS ( 1.000000000000000000, 0.0000000000000000000, 0.0000000000000000000, 0.0000000000000000000, 0.0000000000000000000, 0.0000000000000000000, 0.0000000000000000000 ) ;
#206 = DIRECTION ( 'NONE',  ( -1.224646799147353700E-16, -0.0000000000000000000, -1.000000000000000000 ) ) ;
#207 = PLANE ( 'NONE',  #15 ) ;
#208 = CARTESIAN_POINT ( 'NONE',  ( 0.0000000000000000000, 0.0000000000000000000, 1.485000000000000764 ) ) ;
#209 = CLOSED_SHELL ( 'NONE', ( #105, #211, #12, #253, #223, #100, #295, #181, #95, #4 ) ) ;
#210 = ORIENTED_EDGE ( 'NONE', *, *, #271, .T. ) ;
#211 = ADVANCED_FACE ( 'NONE', ( #144 ), #265, .T. ) ;
#212 = UNCERTAINTY_MEASURE_WITH_UNIT (LENGTH_MEASURE( 1.000000000000000082E-05 ), #203, 'distance_accuracy_value', 'NONE');
#213 = CIRCLE ( 'NONE', #127, 0.01098900000000000224 ) ;
#214 = DIRECTION ( 'NONE',  ( -1.224646799147353700E-16, -0.0000000000000000000, -1.000000000000000000 ) ) ;
#215 = EDGE_CURVE ( 'NONE', #161, #7, #1, .T. ) ;
#216 = FILL_AREA_STYLE ('',( #121 ) ) ;
#217 = DIRECTION ( 'NONE',  ( -1.000000000000000000, 0.0000000000000000000, 1.224646799147353947E-16 ) ) ;
#218 = VECTOR ( 'NONE', #47, 39.37007874015748143 ) ;
#219 = AXIS2_PLACEMENT_3D ( 'NONE', #162, #186, #184 ) ;
#220 = LINE ( 'NONE', #34, #246 ) ;
#221 = ORIENTED_EDGE ( 'NONE', *, *, #148, .F. ) ;
#222 = ORIENTED_EDGE ( 'NONE', *, *, #110, .T. ) ;
#223 = ADVANCED_FACE ( 'NONE', ( #2 ), #194, .T. ) ;
#224 = COLOUR_RGB ( '',0.7921568627450980005, 0.8196078431372548767, 0.9333333333333333481 ) ;
#225 = AXIS2_PLACEMENT_3D ( 'NONE', #290, #128, #176 ) ;
#226 = VERTEX_POINT ( 'NONE', #192 ) ;
#227 = DIRECTION ( 'NONE',  ( -1.224646799147353700E-16, -0.0000000000000000000, -1.000000000000000000 ) ) ;
#228 = CARTESIAN_POINT ( 'NONE',  ( 0.06250000000000002776, 7.654042494670959086E-18, 1.500000000000000222 ) ) ;
#229 = CARTESIAN_POINT ( 'NONE',  ( -0.01098900000000000050, 0.0000000000000000000, 1.345764367583026979E-18 ) ) ;
#230 = LINE ( 'NONE', #229, #165 ) ;
#231 = PRODUCT ( 'Micro_SME-022-2X', 'Micro_SME-022-2X', '', ( #41 ) ) ;
#232 = DIRECTION ( 'NONE',  ( 0.0000000000000000000, 0.0000000000000000000, -1.000000000000000000 ) ) ;
#233 = PRESENTATION_LAYER_ASSIGNMENT (  '', '', ( #55 ) ) ;
#234 = CARTESIAN_POINT ( 'NONE',  ( 4.041334437186267420E-18, 0.0000000000000000000, 0.03300000000000000155 ) ) ;
#235 = LINE ( 'NONE', #99, #6 ) ;
#236 = CARTESIAN_POINT ( 'NONE',  ( 1.648086025167116200E-34, 0.0000000000000000000, 1.345764367583026593E-18 ) ) ;
#237 = DIRECTION ( 'NONE',  ( 1.000000000000000000, 0.0000000000000000000, 0.0000000000000000000 ) ) ;
#238 = CYLINDRICAL_SURFACE ( 'NONE', #250, 0.06250000000000002776 ) ;
#239 = DIRECTION ( 'NONE',  ( -0.0000000000000000000, -0.0000000000000000000, -1.000000000000000000 ) ) ;
#240 = PRESENTATION_STYLE_ASSIGNMENT (( #56 ) ) ;
#241 = ORIENTED_EDGE ( 'NONE', *, *, #196, .F. ) ;
#242 = EDGE_LOOP ( 'NONE', ( #292, #88 ) ) ;
#243 = CARTESIAN_POINT ( 'NONE',  ( 0.0000000000000000000, 0.0000000000000000000, 1.500000000000000222 ) ) ;
#244 = AXIS2_PLACEMENT_3D ( 'NONE', #208, #94, #190 ) ;
#245 = ORIENTED_EDGE ( 'NONE', *, *, #271, .F. ) ;
#246 = VECTOR ( 'NONE', #174, 39.37007874015748143 ) ;
#247 = ADVANCED_BREP_SHAPE_REPRESENTATION ( 'Micro_SME-022-2X', ( #120, #219 ), #199 ) ;
#248 = DIRECTION ( 'NONE',  ( -1.224646799147353700E-16, -0.0000000000000000000, -1.000000000000000000 ) ) ;
#249 = CARTESIAN_POINT ( 'NONE',  ( 0.0000000000000000000, 0.0000000000000000000, 1.500000000000000222 ) ) ;
#250 = AXIS2_PLACEMENT_3D ( 'NONE', #243, #239, #266 ) ;
#251 = STYLED_ITEM ( 'NONE', ( #240 ), #247 ) ;
#252 = LINE ( 'NONE', #228, #151 ) ;
#253 = ADVANCED_FACE ( 'NONE', ( #279 ), #238, .T. ) ;
#254 = CARTESIAN_POINT ( 'NONE',  ( 4.041334437186267420E-18, 0.0000000000000000000, 0.03300000000000000155 ) ) ;
#255 = DIRECTION ( 'NONE',  ( 1.000000000000000000, 0.0000000000000000000, 0.0000000000000000000 ) ) ;
#256 = AXIS2_PLACEMENT_3D ( 'NONE', #276, #92, #204 ) ;
#257 = AXIS2_PLACEMENT_3D ( 'NONE', #236, #214, #217 ) ;
#258 =( CONVERSION_BASED_UNIT ( 'INCH', #101 ) LENGTH_UNIT ( ) NAMED_UNIT ( #268 ) );
#259 = DIRECTION ( 'NONE',  ( 1.000000000000000000, 0.0000000000000000000, 0.0000000000000000000 ) ) ;
#260 = PRODUCT_DEFINITION_CONTEXT ( 'detailed design', #131, 'design' ) ;
#261 = EDGE_CURVE ( 'NONE', #7, #161, #177, .T. ) ;
#262 = AXIS2_PLACEMENT_3D ( 'NONE', #17, #227, #191 ) ;
#263 = CARTESIAN_POINT ( 'NONE',  ( 0.0000000000000000000, 0.0000000000000000000, 1.485000000000000764 ) ) ;
#264 = ORIENTED_EDGE ( 'NONE', *, *, #64, .F. ) ;
#265 = CONICAL_SURFACE ( 'NONE', #27, 0.01098900000000000224, 0.1745329251994338637 ) ;
#266 = DIRECTION ( 'NONE',  ( -1.000000000000000000, 0.0000000000000000000, 0.0000000000000000000 ) ) ;
#267 = ORIENTED_EDGE ( 'NONE', *, *, #64, .T. ) ;
#268 = DIMENSIONAL_EXPONENTS ( 1.000000000000000000, 0.0000000000000000000, 0.0000000000000000000, 0.0000000000000000000, 0.0000000000000000000, 0.0000000000000000000, 0.0000000000000000000 ) ;
#269 = ORIENTED_EDGE ( 'NONE', *, *, #79, .T. ) ;
#270 = ORIENTED_EDGE ( 'NONE', *, *, #51, .T. ) ;
#271 = EDGE_CURVE ( 'NONE', #54, #33, #288, .T. ) ;
#272 = DIRECTION ( 'NONE',  ( -1.224646799147353700E-16, -0.0000000000000000000, -1.000000000000000000 ) ) ;
#273 = DIRECTION ( 'NONE',  ( 1.000000000000000000, 0.0000000000000000000, 0.0000000000000000000 ) ) ;
#274 = DIRECTION ( 'NONE',  ( -1.224646799147353700E-16, -0.0000000000000000000, -1.000000000000000000 ) ) ;
#275 = MECHANICAL_DESIGN_GEOMETRIC_PRESENTATION_REPRESENTATION (  '', ( #55 ), #10 ) ;
#276 = CARTESIAN_POINT ( 'NONE',  ( 0.0000000000000000000, 0.0000000000000000000, 0.0000000000000000000 ) ) ;
#277 = EDGE_CURVE ( 'NONE', #87, #226, #220, .T. ) ;
#278 = FACE_OUTER_BOUND ( 'NONE', #242, .T. ) ;
#279 = FACE_OUTER_BOUND ( 'NONE', #178, .T. ) ;
#280 = VECTOR ( 'NONE', #57, 39.37007874015748143 ) ;
#281 = DIRECTION ( 'NONE',  ( 1.224646799147353700E-16, 0.0000000000000000000, 1.000000000000000000 ) ) ;
#282 =( LENGTH_UNIT ( ) NAMED_UNIT ( * ) SI_UNIT ( $, .METRE. ) );
#283 = EDGE_LOOP ( 'NONE', ( #164, #91, #210, #187 ) ) ;
#284 = DIRECTION ( 'NONE',  ( -0.7071067811865462405, 0.0000000000000000000, -0.7071067811865486830 ) ) ;
#285 = DIRECTION ( 'NONE',  ( 1.000000000000000000, 0.0000000000000000000, 0.0000000000000000000 ) ) ;
#286 =( NAMED_UNIT ( * ) SI_UNIT ( $, .STERADIAN. ) SOLID_ANGLE_UNIT ( ) );
#287 = CARTESIAN_POINT ( 'NONE',  ( 1.648086025167116200E-34, 0.0000000000000000000, 1.345764367583026593E-18 ) ) ;
#288 = LINE ( 'NONE', #80, #280 ) ;
#289 = ORIENTED_EDGE ( 'NONE', *, *, #140, .F. ) ;
#290 = CARTESIAN_POINT ( 'NONE',  ( 0.0000000000000000000, 0.0000000000000000000, 1.500000000000000222 ) ) ;
#291 = AXIS2_PLACEMENT_3D ( 'NONE', #22, #170, #259 ) ;
#292 = ORIENTED_EDGE ( 'NONE', *, *, #148, .T. ) ;
#293 = CYLINDRICAL_SURFACE ( 'NONE', #109, 0.01098900000000000050 ) ;
#294 = ORIENTED_EDGE ( 'NONE', *, *, #126, .F. ) ;
#295 = ADVANCED_FACE ( 'NONE', ( #155 ), #159, .T. ) ;
#296 = PLANE ( 'NONE',  #256 ) ;
#297 = AXIS2_PLACEMENT_3D ( 'NONE', #263, #193, #71 ) ;
#298 = CARTESIAN_POINT ( 'NONE',  ( -0.04750000000000064587, 0.0000000000000000000, 1.500000000000000222 ) ) ;
#299 = DIRECTION ( 'NONE',  ( -1.224646799147353700E-16, -0.0000000000000000000, -1.000000000000000000 ) ) ;
ENDSEC;
END-ISO-10303-21;
