ISO-10303-21;
HEADER;
FILE_DESCRIPTION (( 'STEP AP214' ),
    '1' );
FILE_NAME ('81463.STEP',
    '2023-06-30T22:28:38',
    ( '' ),
    ( '' ),
    'SwSTEP 2.0',
    'SolidWorks 2023',
    '' );
FILE_SCHEMA (( 'AUTOMOTIVE_DESIGN' ));
ENDSEC;

DATA;
#1 = DIRECTION ( 'NONE',  ( -0.000000000000000000, -1.000000000000000000, -0.000000000000000000 ) ) ;
#2 = ORIENTED_EDGE ( 'NONE', *, *, #236, .T. ) ;
#3 =( CONVERSION_BASED_UNIT ( 'INCH', #291 ) LENGTH_UNIT ( ) NAMED_UNIT ( #126 ) );
#4 = APPLICATION_CONTEXT ( 'automotive_design' ) ;
#5 = CARTESIAN_POINT ( 'NONE',  ( 0.000000000000000000, 0.7500000000000001110, 0.000000000000000000 ) ) ;
#6 = PRESENTATION_LAYER_ASSIGNMENT (  '', '', ( #166 ) ) ;
#7 = DIRECTION ( 'NONE',  ( -1.224646799147352961E-16, 1.000000000000000000, -0.000000000000000000 ) ) ;
#8 = CIRCLE ( 'NONE', #101, 0.1562499999999999167 ) ;
#9 = PRODUCT ( '81463', '81463', '', ( #186 ) ) ;
#10 = CARTESIAN_POINT ( 'NONE',  ( 0.000000000000000000, 0.000000000000000000, 0.000000000000000000 ) ) ;
#11 = PRESENTATION_STYLE_ASSIGNMENT (( #66 ) ) ;
#12 = VERTEX_POINT ( 'NONE', #320 ) ;
#13 = CARTESIAN_POINT ( 'NONE',  ( -1.913510623667739463E-17, 0.1562500000000000000, 0.000000000000000000 ) ) ;
#14 = EDGE_CURVE ( 'NONE', #357, #12, #277, .T. ) ;
#15 = AXIS2_PLACEMENT_3D ( 'NONE', #331, #73, #161 ) ;
#16 = AXIS2_PLACEMENT_3D ( 'NONE', #233, #80, #196 ) ;
#17 = DIMENSIONAL_EXPONENTS ( 1.000000000000000000, 0.000000000000000000, 0.000000000000000000, 0.000000000000000000, 0.000000000000000000, 0.000000000000000000, 0.000000000000000000 ) ;
#18 = PRESENTATION_STYLE_ASSIGNMENT (( #62 ) ) ;
#19 = EDGE_CURVE ( 'NONE', #173, #121, #198, .T. ) ;
#20 =( NAMED_UNIT ( * ) PLANE_ANGLE_UNIT ( ) SI_UNIT ( $, .RADIAN. ) );
#21 =( GEOMETRIC_REPRESENTATION_CONTEXT ( 3 ) GLOBAL_UNCERTAINTY_ASSIGNED_CONTEXT ( ( #114 ) ) GLOBAL_UNIT_ASSIGNED_CONTEXT ( ( #3, #96, #264 ) ) REPRESENTATION_CONTEXT ( 'NONE', 'WORKASPACE' ) );
#22 = SURFACE_SIDE_STYLE ('',( #276 ) ) ;
#23 = PRESENTATION_STYLE_ASSIGNMENT (( #51 ) ) ;
#24 = LINE ( 'NONE', #364, #136 ) ;
#25 = SURFACE_STYLE_FILL_AREA ( #305 ) ;
#26 = ORIENTED_EDGE ( 'NONE', *, *, #342, .T. ) ;
#27 = VECTOR ( 'NONE', #245, 39.37007874015748143 ) ;
#28 = CARTESIAN_POINT ( 'NONE',  ( 0.1562499999999999167, 2.500000000000000000, 0.000000000000000000 ) ) ;
#29 = SPHERICAL_SURFACE ( 'NONE', #117, 0.1562500000000000000 ) ;
#30 =( NAMED_UNIT ( * ) SI_UNIT ( $, .STERADIAN. ) SOLID_ANGLE_UNIT ( ) );
#31 = ORIENTED_EDGE ( 'NONE', *, *, #129, .T. ) ;
#32 = CARTESIAN_POINT ( 'NONE',  ( -6.123233995736766036E-17, 2.500000000000000000, 0.000000000000000000 ) ) ;
#33 = EDGE_CURVE ( 'NONE', #226, #243, #8, .T. ) ;
#34 = ORIENTED_EDGE ( 'NONE', *, *, #19, .F. ) ;
#35 = AXIS2_PLACEMENT_3D ( 'NONE', #32, #149, #261 ) ;
#36 = CIRCLE ( 'NONE', #84, 0.1562499999999999722 ) ;
#37 = DIRECTION ( 'NONE',  ( -1.000000000000000000, 0.000000000000000000, 0.000000000000000000 ) ) ;
#38 = EDGE_CURVE ( 'NONE', #152, #173, #182, .T. ) ;
#39 =( NAMED_UNIT ( * ) PLANE_ANGLE_UNIT ( ) SI_UNIT ( $, .RADIAN. ) );
#40 = ORIENTED_EDGE ( 'NONE', *, *, #352, .T. ) ;
#41 = AXIS2_PLACEMENT_3D ( 'NONE', #107, #282, #363 ) ;
#42 = STYLED_ITEM ( 'NONE', ( #23 ), #259 ) ;
#43 = SHAPE_DEFINITION_REPRESENTATION ( #154, #137 ) ;
#44 = ORIENTED_EDGE ( 'NONE', *, *, #134, .T. ) ;
#45 = ADVANCED_FACE ( 'NONE', ( #125 ), #159, .T. ) ;
#46 = SURFACE_STYLE_FILL_AREA ( #131 ) ;
#47 = LINE ( 'NONE', #297, #27 ) ;
#48 = FACE_OUTER_BOUND ( 'NONE', #190, .T. ) ;
#49 = CARTESIAN_POINT ( 'NONE',  ( -0.1562499999999996392, 0.7499999999999998890, 0.000000000000000000 ) ) ;
#50 = PRESENTATION_LAYER_ASSIGNMENT (  '', '', ( #42 ) ) ;
#51 = SURFACE_STYLE_USAGE ( .BOTH. , #260 ) ;
#52 = ADVANCED_FACE ( 'NONE', ( #216 ), #104, .T. ) ;
#53 = SURFACE_STYLE_USAGE ( .BOTH. , #365 ) ;
#54 = SURFACE_STYLE_FILL_AREA ( #286 ) ;
#55 = ORIENTED_EDGE ( 'NONE', *, *, #367, .T. ) ;
#56 =( CONVERSION_BASED_UNIT ( 'INCH', #187 ) LENGTH_UNIT ( ) NAMED_UNIT ( #81 ) );
#57 = CARTESIAN_POINT ( 'NONE',  ( -0.1562500000000000000, 0.1562500000000000278, 1.913510623667738847E-17 ) ) ;
#58 = STYLED_ITEM ( 'NONE', ( #112 ), #227 ) ;
#59 = PRESENTATION_LAYER_ASSIGNMENT (  '', '', ( #315 ) ) ;
#60 = FILL_AREA_STYLE_COLOUR ( '', #237 ) ;
#61 = ORIENTED_EDGE ( 'NONE', *, *, #183, .T. ) ;
#62 = SURFACE_STYLE_USAGE ( .BOTH. , #319 ) ;
#63 = DIRECTION ( 'NONE',  ( 0.000000000000000000, 0.000000000000000000, -1.000000000000000000 ) ) ;
#64 = COLOUR_RGB ( '',1.000000000000000000, 0.000000000000000000, 0.000000000000000000 ) ;
#65 =( NAMED_UNIT ( * ) SI_UNIT ( $, .STERADIAN. ) SOLID_ANGLE_UNIT ( ) );
#66 = SURFACE_STYLE_USAGE ( .BOTH. , #246 ) ;
#67 = AXIS2_PLACEMENT_3D ( 'NONE', #322, #294, #37 ) ;
#68 = STYLED_ITEM ( 'NONE', ( #18 ), #335 ) ;
#69 = DIRECTION ( 'NONE',  ( 0.000000000000000000, 0.000000000000000000, 1.000000000000000000 ) ) ;
#70 = CARTESIAN_POINT ( 'NONE',  ( 1.530808498934191078E-16, 0.7499999999999998890, 0.000000000000000000 ) ) ;
#71 = VERTEX_POINT ( 'NONE', #244 ) ;
#72 = ORIENTED_EDGE ( 'NONE', *, *, #113, .T. ) ;
#73 = DIRECTION ( 'NONE',  ( -1.224646799147352961E-16, 1.000000000000000000, -0.000000000000000000 ) ) ;
#74 = DIRECTION ( 'NONE',  ( 1.000000000000000000, 0.000000000000000000, 0.000000000000000000 ) ) ;
#75 = AXIS2_PLACEMENT_3D ( 'NONE', #28, #111, #222 ) ;
#76 = LENGTH_MEASURE_WITH_UNIT ( LENGTH_MEASURE( 0.02539999999999999897 ), #217 );
#77 = STYLED_ITEM ( 'NONE', ( #201 ), #321 ) ;
#78 = LENGTH_MEASURE_WITH_UNIT ( LENGTH_MEASURE( 0.02539999999999999897 ), #192 );
#79 = PRODUCT_DEFINITION_CONTEXT ( 'detailed design', #4, 'design' ) ;
#80 = DIRECTION ( 'NONE',  ( 0.000000000000000000, 1.000000000000000000, 0.000000000000000000 ) ) ;
#81 = DIMENSIONAL_EXPONENTS ( 1.000000000000000000, 0.000000000000000000, 0.000000000000000000, 0.000000000000000000, 0.000000000000000000, 0.000000000000000000, 0.000000000000000000 ) ;
#82 =( NAMED_UNIT ( * ) SI_UNIT ( $, .STERADIAN. ) SOLID_ANGLE_UNIT ( ) );
#83 = STYLED_ITEM ( 'NONE', ( #358 ), #45 ) ;
#84 = AXIS2_PLACEMENT_3D ( 'NONE', #239, #355, #103 ) ;
#85 = ADVANCED_FACE ( 'NONE', ( #48 ), #361, .T. ) ;
#86 = FILL_AREA_STYLE_COLOUR ( '', #177 ) ;
#87 = DIRECTION ( 'NONE',  ( 0.000000000000000000, 0.000000000000000000, -1.000000000000000000 ) ) ;
#88 = EDGE_LOOP ( 'NONE', ( #238, #61, #180, #72 ) ) ;
#89 =( NAMED_UNIT ( * ) SI_UNIT ( $, .STERADIAN. ) SOLID_ANGLE_UNIT ( ) );
#90 = ORIENTED_EDGE ( 'NONE', *, *, #236, .F. ) ;
#91 = DIRECTION ( 'NONE',  ( 0.000000000000000000, 0.000000000000000000, -1.000000000000000000 ) ) ;
#92 = FACE_OUTER_BOUND ( 'NONE', #93, .T. ) ;
#93 = EDGE_LOOP ( 'NONE', ( #160, #44, #143, #349, #309 ) ) ;
#94 = AXIS2_PLACEMENT_3D ( 'NONE', #13, #102, #241 ) ;
#95 = AXIS2_PLACEMENT_3D ( 'NONE', #145, #1, #87 ) ;
#96 =( NAMED_UNIT ( * ) PLANE_ANGLE_UNIT ( ) SI_UNIT ( $, .RADIAN. ) );
#97 = DIMENSIONAL_EXPONENTS ( 1.000000000000000000, 0.000000000000000000, 0.000000000000000000, 0.000000000000000000, 0.000000000000000000, 0.000000000000000000, 0.000000000000000000 ) ;
#98 = SURFACE_STYLE_FILL_AREA ( #348 ) ;
#99 = VERTEX_POINT ( 'NONE', #49 ) ;
#100 = DIRECTION ( 'NONE',  ( -0.000000000000000000, -1.000000000000000000, -0.000000000000000000 ) ) ;
#101 = AXIS2_PLACEMENT_3D ( 'NONE', #5, #122, #63 ) ;
#102 = DIRECTION ( 'NONE',  ( 0.000000000000000000, 0.000000000000000000, 1.000000000000000000 ) ) ;
#103 = DIRECTION ( 'NONE',  ( -1.000000000000000000, 0.000000000000000000, 0.000000000000000000 ) ) ;
#104 = CYLINDRICAL_SURFACE ( 'NONE', #15, 0.1562499999999998612 ) ;
#105 = PRODUCT_DEFINITION_FORMATION_WITH_SPECIFIED_SOURCE ( 'ANY', '', #9, .NOT_KNOWN. ) ;
#106 = EDGE_CURVE ( 'NONE', #99, #121, #343, .T. ) ;
#107 = CARTESIAN_POINT ( 'NONE',  ( -6.123233995736766036E-17, 2.500000000000000000, 0.000000000000000000 ) ) ;
#108 = FACE_OUTER_BOUND ( 'NONE', #230, .T. ) ;
#109 = CLOSED_SHELL ( 'NONE', ( #85, #240, #52, #171 ) ) ;
#110 = CIRCLE ( 'NONE', #116, 0.1562500000000000000 ) ;
#111 = DIRECTION ( 'NONE',  ( 1.224646799147352961E-16, -1.000000000000000000, 0.000000000000000000 ) ) ;
#112 = PRESENTATION_STYLE_ASSIGNMENT (( #281 ) ) ;
#113 = EDGE_CURVE ( 'NONE', #12, #283, #223, .T. ) ;
#114 = UNCERTAINTY_MEASURE_WITH_UNIT (LENGTH_MEASURE( 1.000000000000000082E-05 ), #3, 'distance_accuracy_value', 'NONE');
#115 = CARTESIAN_POINT ( 'NONE',  ( -1.913510623667739463E-17, 0.1562500000000000000, 0.000000000000000000 ) ) ;
#116 = AXIS2_PLACEMENT_3D ( 'NONE', #250, #279, #119 ) ;
#117 = AXIS2_PLACEMENT_3D ( 'NONE', #147, #203, #288 ) ;
#118 = ORIENTED_EDGE ( 'NONE', *, *, #359, .T. ) ;
#119 = DIRECTION ( 'NONE',  ( 0.000000000000000000, 0.000000000000000000, -1.000000000000000000 ) ) ;
#120 =( CONVERSION_BASED_UNIT ( 'INCH', #254 ) LENGTH_UNIT ( ) NAMED_UNIT ( #269 ) );
#121 = VERTEX_POINT ( 'NONE', #140 ) ;
#122 = DIRECTION ( 'NONE',  ( -0.000000000000000000, -1.000000000000000000, -0.000000000000000000 ) ) ;
#123 = AXIS2_PLACEMENT_3D ( 'NONE', #298, #272, #300 ) ;
#124 =( GEOMETRIC_REPRESENTATION_CONTEXT ( 3 ) GLOBAL_UNCERTAINTY_ASSIGNED_CONTEXT ( ( #163 ) ) GLOBAL_UNIT_ASSIGNED_CONTEXT ( ( #120, #39, #65 ) ) REPRESENTATION_CONTEXT ( 'NONE', 'WORKASPACE' ) );
#125 = FACE_OUTER_BOUND ( 'NONE', #88, .T. ) ;
#126 = DIMENSIONAL_EXPONENTS ( 1.000000000000000000, 0.000000000000000000, 0.000000000000000000, 0.000000000000000000, 0.000000000000000000, 0.000000000000000000, 0.000000000000000000 ) ;
#127 = FILL_AREA_STYLE_COLOUR ( '', #64 ) ;
#128 = COLOUR_RGB ( '',1.000000000000000000, 0.000000000000000000, 0.000000000000000000 ) ;
#129 = EDGE_CURVE ( 'NONE', #12, #71, #110, .T. ) ;
#130 = ORIENTED_EDGE ( 'NONE', *, *, #33, .T. ) ;
#131 = FILL_AREA_STYLE ('',( #127 ) ) ;
#132 = VECTOR ( 'NONE', #7, 39.37007874015748143 ) ;
#133 = MECHANICAL_DESIGN_GEOMETRIC_PRESENTATION_REPRESENTATION (  '', ( #42 ), #268 ) ;
#134 = EDGE_CURVE ( 'NONE', #226, #71, #24, .T. ) ;
#135 = DIRECTION ( 'NONE',  ( -0.000000000000000000, -1.000000000000000000, -0.000000000000000000 ) ) ;
#136 = VECTOR ( 'NONE', #310, 39.37007874015748143 ) ;
#137 = ADVANCED_BREP_SHAPE_REPRESENTATION ( '81463', ( #335, #227, #293 ), #124 ) ;
#138 = MECHANICAL_DESIGN_GEOMETRIC_PRESENTATION_REPRESENTATION (  '', ( #315 ), #303 ) ;
#139 = DIRECTION ( 'NONE',  ( -0.000000000000000000, -1.000000000000000000, -0.000000000000000000 ) ) ;
#140 = CARTESIAN_POINT ( 'NONE',  ( -0.1562500000000000278, 2.500000000000000000, 0.000000000000000000 ) ) ;
#141 = CYLINDRICAL_SURFACE ( 'NONE', #156, 0.1562499999999999445 ) ;
#142 =( GEOMETRIC_REPRESENTATION_CONTEXT ( 3 ) GLOBAL_UNCERTAINTY_ASSIGNED_CONTEXT ( ( #249 ) ) GLOBAL_UNIT_ASSIGNED_CONTEXT ( ( #56, #337, #280 ) ) REPRESENTATION_CONTEXT ( 'NONE', 'WORKASPACE' ) );
#143 = ORIENTED_EDGE ( 'NONE', *, *, #129, .F. ) ;
#144 = LENGTH_MEASURE_WITH_UNIT ( LENGTH_MEASURE( 0.02539999999999999897 ), #285 );
#145 = CARTESIAN_POINT ( 'NONE',  ( 0.000000000000000000, 0.000000000000000000, 0.000000000000000000 ) ) ;
#146 = EDGE_LOOP ( 'NONE', ( #90, #158 ) ) ;
#147 = CARTESIAN_POINT ( 'NONE',  ( -1.913510623667739463E-17, 0.1562500000000000000, 0.000000000000000000 ) ) ;
#148 = FILL_AREA_STYLE_COLOUR ( '', #221 ) ;
#149 = DIRECTION ( 'NONE',  ( -1.224646799147352961E-16, 1.000000000000000000, -0.000000000000000000 ) ) ;
#150 = CARTESIAN_POINT ( 'NONE',  ( 0.1562499999999998057, 2.500000000000000000, 1.913510623667737923E-17 ) ) ;
#151 = DIMENSIONAL_EXPONENTS ( 1.000000000000000000, 0.000000000000000000, 0.000000000000000000, 0.000000000000000000, 0.000000000000000000, 0.000000000000000000, 0.000000000000000000 ) ;
#152 = VERTEX_POINT ( 'NONE', #253 ) ;
#153 = FACE_OUTER_BOUND ( 'NONE', #146, .T. ) ;
#154 = PRODUCT_DEFINITION_SHAPE ( 'NONE', 'NONE',  #214 ) ;
#155 = VERTEX_POINT ( 'NONE', #57 ) ;
#156 = AXIS2_PLACEMENT_3D ( 'NONE', #199, #229, #370 ) ;
#157 = MECHANICAL_DESIGN_GEOMETRIC_PRESENTATION_REPRESENTATION (  '', ( #68 ), #351 ) ;
#158 = ORIENTED_EDGE ( 'NONE', *, *, #352, .F. ) ;
#159 = SPHERICAL_SURFACE ( 'NONE', #94, 0.1562500000000000000 ) ;
#160 = ORIENTED_EDGE ( 'NONE', *, *, #231, .T. ) ;
#161 = DIRECTION ( 'NONE',  ( -1.000000000000000000, 0.000000000000000000, 0.000000000000000000 ) ) ;
#162 = CIRCLE ( 'NONE', #350, 0.1562500000000000000 ) ;
#163 = UNCERTAINTY_MEASURE_WITH_UNIT (LENGTH_MEASURE( 1.000000000000000082E-05 ), #120, 'distance_accuracy_value', 'NONE');
#164 = EDGE_CURVE ( 'NONE', #155, #283, #323, .T. ) ;
#165 = CARTESIAN_POINT ( 'NONE',  ( -1.913510623667739463E-17, 0.1562500000000000000, 0.000000000000000000 ) ) ;
#166 = STYLED_ITEM ( 'NONE', ( #11 ), #252 ) ;
#167 = FILL_AREA_STYLE ('',( #86 ) ) ;
#168 = EDGE_LOOP ( 'NONE', ( #371, #258 ) ) ;
#169 = FILL_AREA_STYLE ('',( #60 ) ) ;
#170 =( LENGTH_UNIT ( ) NAMED_UNIT ( * ) SI_UNIT ( $, .METRE. ) );
#171 = ADVANCED_FACE ( 'NONE', ( #304 ), #174, .F. ) ;
#172 = FILL_AREA_STYLE_COLOUR ( '', #128 ) ;
#173 = VERTEX_POINT ( 'NONE', #366 ) ;
#174 = PLANE ( 'NONE',  #75 ) ;
#175 = AXIS2_PLACEMENT_3D ( 'NONE', #115, #197, #369 ) ;
#176 = FACE_OUTER_BOUND ( 'NONE', #341, .T. ) ;
#177 = COLOUR_RGB ( '',1.000000000000000000, 0.000000000000000000, 0.000000000000000000 ) ;
#178 = ORIENTED_EDGE ( 'NONE', *, *, #183, .F. ) ;
#179 =( NAMED_UNIT ( * ) PLANE_ANGLE_UNIT ( ) SI_UNIT ( $, .RADIAN. ) );
#180 = ORIENTED_EDGE ( 'NONE', *, *, #14, .T. ) ;
#181 = SURFACE_STYLE_USAGE ( .BOTH. , #206 ) ;
#182 = LINE ( 'NONE', #150, #132 ) ;
#183 = EDGE_CURVE ( 'NONE', #155, #357, #162, .T. ) ;
#184 =( LENGTH_UNIT ( ) NAMED_UNIT ( * ) SI_UNIT ( $, .METRE. ) );
#185 = ORIENTED_EDGE ( 'NONE', *, *, #359, .F. ) ;
#186 = PRODUCT_CONTEXT ( 'NONE', #275, 'mechanical' ) ;
#187 = LENGTH_MEASURE_WITH_UNIT ( LENGTH_MEASURE( 0.02539999999999999897 ), #356 );
#188 = PRESENTATION_LAYER_ASSIGNMENT (  '', '', ( #58 ) ) ;
#189 = SURFACE_STYLE_USAGE ( .BOTH. , #218 ) ;
#190 = EDGE_LOOP ( 'NONE', ( #2, #290, #185, #330 ) ) ;
#191 = PRODUCT_RELATED_PRODUCT_CATEGORY ( 'part', '', ( #9 ) ) ;
#192 =( LENGTH_UNIT ( ) NAMED_UNIT ( * ) SI_UNIT ( $, .METRE. ) );
#193 = PRESENTATION_LAYER_ASSIGNMENT (  '', '', ( #68 ) ) ;
#194 = DIRECTION ( 'NONE',  ( 0.000000000000000000, 0.000000000000000000, -1.000000000000000000 ) ) ;
#195 =( CONVERSION_BASED_UNIT ( 'INCH', #78 ) LENGTH_UNIT ( ) NAMED_UNIT ( #235 ) );
#196 = DIRECTION ( 'NONE',  ( 0.000000000000000000, -0.000000000000000000, 1.000000000000000000 ) ) ;
#197 = DIRECTION ( 'NONE',  ( 1.224646799147353207E-16, -0.000000000000000000, 1.000000000000000000 ) ) ;
#198 = CIRCLE ( 'NONE', #35, 0.1562499999999999722 ) ;
#199 = CARTESIAN_POINT ( 'NONE',  ( 0.000000000000000000, 0.000000000000000000, 0.000000000000000000 ) ) ;
#200 = DIRECTION ( 'NONE',  ( 0.000000000000000000, 0.000000000000000000, -1.000000000000000000 ) ) ;
#201 = PRESENTATION_STYLE_ASSIGNMENT (( #53 ) ) ;
#202 = AXIS2_PLACEMENT_3D ( 'NONE', #205, #318, #289 ) ;
#203 = DIRECTION ( 'NONE',  ( 0.000000000000000000, 0.000000000000000000, 1.000000000000000000 ) ) ;
#204 = FILL_AREA_STYLE_COLOUR ( '', #234 ) ;
#205 = CARTESIAN_POINT ( 'NONE',  ( 0.000000000000000000, 0.1562500000000000278, 0.000000000000000000 ) ) ;
#206 = SURFACE_SIDE_STYLE ('',( #54 ) ) ;
#207 = ORIENTED_EDGE ( 'NONE', *, *, #19, .T. ) ;
#208 = DIRECTION ( 'NONE',  ( 0.000000000000000000, 0.000000000000000000, -1.000000000000000000 ) ) ;
#209 = PRESENTATION_LAYER_ASSIGNMENT (  '', '', ( #83 ) ) ;
#210 = DIRECTION ( 'NONE',  ( -1.224646799147352961E-16, 1.000000000000000000, -0.000000000000000000 ) ) ;
#211 = MECHANICAL_DESIGN_GEOMETRIC_PRESENTATION_REPRESENTATION (  '', ( #166 ), #142 ) ;
#212 = FILL_AREA_STYLE ('',( #270 ) ) ;
#213 = DIRECTION ( 'NONE',  ( -1.000000000000000000, 0.000000000000000000, 0.000000000000000000 ) ) ;
#214 = PRODUCT_DEFINITION ( 'UNKNOWN', '', #105, #79 ) ;
#215 = ORIENTED_EDGE ( 'NONE', *, *, #106, .T. ) ;
#216 = FACE_OUTER_BOUND ( 'NONE', #256, .T. ) ;
#217 =( LENGTH_UNIT ( ) NAMED_UNIT ( * ) SI_UNIT ( $, .METRE. ) );
#218 = SURFACE_SIDE_STYLE ('',( #46 ) ) ;
#219 = UNCERTAINTY_MEASURE_WITH_UNIT (LENGTH_MEASURE( 1.000000000000000082E-05 ), #344, 'distance_accuracy_value', 'NONE');
#220 = MECHANICAL_DESIGN_GEOMETRIC_PRESENTATION_REPRESENTATION (  '', ( #83 ), #338 ) ;
#221 = COLOUR_RGB ( '',0.7921568627450980005, 0.8196078431372548767, 0.9333333333333333481 ) ;
#222 = DIRECTION ( 'NONE',  ( 1.000000000000000000, 1.224646799147352961E-16, 0.000000000000000000 ) ) ;
#223 = CIRCLE ( 'NONE', #299, 0.1562500000000000000 ) ;
#224 = CIRCLE ( 'NONE', #324, 0.1562499999999997780 ) ;
#225 = FACE_OUTER_BOUND ( 'NONE', #168, .T. ) ;
#226 = VERTEX_POINT ( 'NONE', #372 ) ;
#227 = MANIFOLD_SOLID_BREP ( 'Revolve - Tool Body (Straight Shanked)', #109 ) ;
#228 = LENGTH_MEASURE_WITH_UNIT ( LENGTH_MEASURE( 0.02539999999999999897 ), #255 );
#229 = DIRECTION ( 'NONE',  ( -0.000000000000000000, -1.000000000000000000, -0.000000000000000000 ) ) ;
#230 = EDGE_LOOP ( 'NONE', ( #26, #265, #263, #31 ) ) ;
#231 = EDGE_CURVE ( 'NONE', #243, #226, #267, .T. ) ;
#232 = CIRCLE ( 'NONE', #67, 0.1562499999999997780 ) ;
#233 = CARTESIAN_POINT ( 'NONE',  ( 0.000000000000000000, 0.7500000000000001110, 0.000000000000000000 ) ) ;
#234 = COLOUR_RGB ( '',1.000000000000000000, 0.000000000000000000, 0.000000000000000000 ) ;
#235 = DIMENSIONAL_EXPONENTS ( 1.000000000000000000, 0.000000000000000000, 0.000000000000000000, 0.000000000000000000, 0.000000000000000000, 0.000000000000000000, 0.000000000000000000 ) ;
#236 = EDGE_CURVE ( 'NONE', #99, #152, #232, .T. ) ;
#237 = COLOUR_RGB ( '',0.7921568627450980005, 0.8196078431372548767, 0.9333333333333333481 ) ;
#238 = ORIENTED_EDGE ( 'NONE', *, *, #164, .F. ) ;
#239 = CARTESIAN_POINT ( 'NONE',  ( -6.123233995736766036E-17, 2.500000000000000000, 0.000000000000000000 ) ) ;
#240 = ADVANCED_FACE ( 'NONE', ( #153 ), #266, .F. ) ;
#241 = DIRECTION ( 'NONE',  ( 1.000000000000000000, 0.000000000000000000, 0.000000000000000000 ) ) ;
#242 =( LENGTH_UNIT ( ) NAMED_UNIT ( * ) SI_UNIT ( $, .METRE. ) );
#243 = VERTEX_POINT ( 'NONE', #326 ) ;
#244 = CARTESIAN_POINT ( 'NONE',  ( 1.913510623667739463E-17, 0.1562500000000000278, 0.1562500000000000000 ) ) ;
#245 = DIRECTION ( 'NONE',  ( -0.000000000000000000, -1.000000000000000000, -0.000000000000000000 ) ) ;
#246 = SURFACE_SIDE_STYLE ('',( #296 ) ) ;
#247 =( NAMED_UNIT ( * ) PLANE_ANGLE_UNIT ( ) SI_UNIT ( $, .RADIAN. ) );
#248 = VECTOR ( 'NONE', #346, 39.37007874015748143 ) ;
#249 = UNCERTAINTY_MEASURE_WITH_UNIT (LENGTH_MEASURE( 1.000000000000000082E-05 ), #56, 'distance_accuracy_value', 'NONE');
#250 = CARTESIAN_POINT ( 'NONE',  ( 0.000000000000000000, 0.1562500000000000278, 0.000000000000000000 ) ) ;
#251 = CARTESIAN_POINT ( 'NONE',  ( -9.567553118338697316E-18, 0.000000000000000000, 0.000000000000000000 ) ) ;
#252 = ADVANCED_FACE ( 'NONE', ( #108 ), #29, .T. ) ;
#253 = CARTESIAN_POINT ( 'NONE',  ( 0.1562499999999999167, 0.7499999999999998890, 1.913510623667738231E-17 ) ) ;
#254 = LENGTH_MEASURE_WITH_UNIT ( LENGTH_MEASURE( 0.02539999999999999897 ), #242 );
#255 =( LENGTH_UNIT ( ) NAMED_UNIT ( * ) SI_UNIT ( $, .METRE. ) );
#256 = EDGE_LOOP ( 'NONE', ( #287, #40, #215, #34 ) ) ;
#257 =( CONVERSION_BASED_UNIT ( 'INCH', #144 ) LENGTH_UNIT ( ) NAMED_UNIT ( #332 ) );
#258 = ORIENTED_EDGE ( 'NONE', *, *, #33, .F. ) ;
#259 = ADVANCED_FACE ( 'NONE', ( #92 ), #141, .T. ) ;
#260 = SURFACE_SIDE_STYLE ('',( #25 ) ) ;
#261 = DIRECTION ( 'NONE',  ( -1.000000000000000000, 0.000000000000000000, 0.000000000000000000 ) ) ;
#262 =( GEOMETRIC_REPRESENTATION_CONTEXT ( 3 ) GLOBAL_UNCERTAINTY_ASSIGNED_CONTEXT ( ( #334 ) ) GLOBAL_UNIT_ASSIGNED_CONTEXT ( ( #316, #179, #82 ) ) REPRESENTATION_CONTEXT ( 'NONE', 'WORKASPACE' ) );
#263 = ORIENTED_EDGE ( 'NONE', *, *, #113, .F. ) ;
#264 =( NAMED_UNIT ( * ) SI_UNIT ( $, .STERADIAN. ) SOLID_ANGLE_UNIT ( ) );
#265 = ORIENTED_EDGE ( 'NONE', *, *, #164, .T. ) ;
#266 = PLANE ( 'NONE',  #123 ) ;
#267 = CIRCLE ( 'NONE', #353, 0.1562499999999999167 ) ;
#268 =( GEOMETRIC_REPRESENTATION_CONTEXT ( 3 ) GLOBAL_UNCERTAINTY_ASSIGNED_CONTEXT ( ( #362 ) ) GLOBAL_UNIT_ASSIGNED_CONTEXT ( ( #257, #307, #89 ) ) REPRESENTATION_CONTEXT ( 'NONE', 'WORKASPACE' ) );
#269 = DIMENSIONAL_EXPONENTS ( 1.000000000000000000, 0.000000000000000000, 0.000000000000000000, 0.000000000000000000, 0.000000000000000000, 0.000000000000000000, 0.000000000000000000 ) ;
#270 = FILL_AREA_STYLE_COLOUR ( '', #327 ) ;
#271 = AXIS2_PLACEMENT_3D ( 'NONE', #328, #135, #194 ) ;
#272 = DIRECTION ( 'NONE',  ( -1.224646799147352961E-16, 1.000000000000000000, 0.000000000000000000 ) ) ;
#273 = APPLICATION_PROTOCOL_DEFINITION ( 'draft international standard', 'automotive_design', 1998, #275 ) ;
#274 =( CONVERSION_BASED_UNIT ( 'INCH', #76 ) LENGTH_UNIT ( ) NAMED_UNIT ( #97 ) );
#275 = APPLICATION_CONTEXT ( 'automotive_design' ) ;
#276 = SURFACE_STYLE_FILL_AREA ( #169 ) ;
#277 = CIRCLE ( 'NONE', #202, 0.1562500000000000000 ) ;
#278 = MECHANICAL_DESIGN_GEOMETRIC_PRESENTATION_REPRESENTATION (  '', ( #77 ), #262 ) ;
#279 = DIRECTION ( 'NONE',  ( -0.000000000000000000, -1.000000000000000000, -0.000000000000000000 ) ) ;
#280 =( NAMED_UNIT ( * ) SI_UNIT ( $, .STERADIAN. ) SOLID_ANGLE_UNIT ( ) );
#281 = SURFACE_STYLE_USAGE ( .BOTH. , #22 ) ;
#282 = DIRECTION ( 'NONE',  ( -1.224646799147352961E-16, 1.000000000000000000, -0.000000000000000000 ) ) ;
#283 = VERTEX_POINT ( 'NONE', #251 ) ;
#284 = CARTESIAN_POINT ( 'NONE',  ( 0.000000000000000000, 0.1562500000000000278, 0.000000000000000000 ) ) ;
#285 =( LENGTH_UNIT ( ) NAMED_UNIT ( * ) SI_UNIT ( $, .METRE. ) );
#286 = FILL_AREA_STYLE ('',( #204 ) ) ;
#287 = ORIENTED_EDGE ( 'NONE', *, *, #38, .F. ) ;
#288 = DIRECTION ( 'NONE',  ( 1.000000000000000000, 0.000000000000000000, 0.000000000000000000 ) ) ;
#289 = DIRECTION ( 'NONE',  ( 0.000000000000000000, 0.000000000000000000, -1.000000000000000000 ) ) ;
#290 = ORIENTED_EDGE ( 'NONE', *, *, #38, .T. ) ;
#291 = LENGTH_MEASURE_WITH_UNIT ( LENGTH_MEASURE( 0.02539999999999999897 ), #184 );
#292 = CLOSED_SHELL ( 'NONE', ( #252, #259, #321, #325, #45 ) ) ;
#293 = AXIS2_PLACEMENT_3D ( 'NONE', #10, #69, #74 ) ;
#294 = DIRECTION ( 'NONE',  ( -1.224646799147352961E-16, 1.000000000000000000, -0.000000000000000000 ) ) ;
#295 = APPLICATION_PROTOCOL_DEFINITION ( 'draft international standard', 'automotive_design', 1998, #4 ) ;
#296 = SURFACE_STYLE_FILL_AREA ( #212 ) ;
#297 = CARTESIAN_POINT ( 'NONE',  ( 0.000000000000000000, 0.000000000000000000, -0.1562499999999999445 ) ) ;
#298 = CARTESIAN_POINT ( 'NONE',  ( 1.530808498934191571E-16, 0.7500000000000001110, 0.000000000000000000 ) ) ;
#299 = AXIS2_PLACEMENT_3D ( 'NONE', #165, #200, #336 ) ;
#300 = DIRECTION ( 'NONE',  ( -1.000000000000000000, -1.224646799147352961E-16, 0.000000000000000000 ) ) ;
#301 = UNCERTAINTY_MEASURE_WITH_UNIT (LENGTH_MEASURE( 1.000000000000000082E-05 ), #195, 'distance_accuracy_value', 'NONE');
#302 = UNCERTAINTY_MEASURE_WITH_UNIT (LENGTH_MEASURE( 1.000000000000000082E-05 ), #274, 'distance_accuracy_value', 'NONE');
#303 =( GEOMETRIC_REPRESENTATION_CONTEXT ( 3 ) GLOBAL_UNCERTAINTY_ASSIGNED_CONTEXT ( ( #219 ) ) GLOBAL_UNIT_ASSIGNED_CONTEXT ( ( #344, #317, #30 ) ) REPRESENTATION_CONTEXT ( 'NONE', 'WORKASPACE' ) );
#304 = FACE_OUTER_BOUND ( 'NONE', #345, .T. ) ;
#305 = FILL_AREA_STYLE ('',( #172 ) ) ;
#306 = ORIENTED_EDGE ( 'NONE', *, *, #134, .F. ) ;
#307 =( NAMED_UNIT ( * ) PLANE_ANGLE_UNIT ( ) SI_UNIT ( $, .RADIAN. ) );
#308 = PRESENTATION_STYLE_ASSIGNMENT (( #181 ) ) ;
#309 = ORIENTED_EDGE ( 'NONE', *, *, #367, .F. ) ;
#310 = DIRECTION ( 'NONE',  ( -0.000000000000000000, -1.000000000000000000, -0.000000000000000000 ) ) ;
#311 = LENGTH_MEASURE_WITH_UNIT ( LENGTH_MEASURE( 0.02539999999999999897 ), #170 );
#312 = CYLINDRICAL_SURFACE ( 'NONE', #95, 0.1562499999999999445 ) ;
#313 = CARTESIAN_POINT ( 'NONE',  ( 0.000000000000000000, 0.7500000000000001110, 0.000000000000000000 ) ) ;
#314 = CIRCLE ( 'NONE', #271, 0.1562500000000000000 ) ;
#315 = STYLED_ITEM ( 'NONE', ( #308 ), #325 ) ;
#316 =( CONVERSION_BASED_UNIT ( 'INCH', #311 ) LENGTH_UNIT ( ) NAMED_UNIT ( #17 ) );
#317 =( NAMED_UNIT ( * ) PLANE_ANGLE_UNIT ( ) SI_UNIT ( $, .RADIAN. ) );
#318 = DIRECTION ( 'NONE',  ( -0.000000000000000000, -1.000000000000000000, -0.000000000000000000 ) ) ;
#319 = SURFACE_SIDE_STYLE ('',( #98 ) ) ;
#320 = CARTESIAN_POINT ( 'NONE',  ( 0.1562500000000000000, 0.1562500000000000278, 0.000000000000000000 ) ) ;
#321 = ADVANCED_FACE ( 'NONE', ( #225 ), #347, .T. ) ;
#322 = CARTESIAN_POINT ( 'NONE',  ( 1.530808498934191078E-16, 0.7499999999999998890, 0.000000000000000000 ) ) ;
#323 = CIRCLE ( 'NONE', #175, 0.1562500000000000000 ) ;
#324 = AXIS2_PLACEMENT_3D ( 'NONE', #70, #210, #213 ) ;
#325 = ADVANCED_FACE ( 'NONE', ( #176 ), #312, .T. ) ;
#326 = CARTESIAN_POINT ( 'NONE',  ( 0.000000000000000000, 0.7500000000000001110, -0.1562499999999999167 ) ) ;
#327 = COLOUR_RGB ( '',1.000000000000000000, 0.000000000000000000, 0.000000000000000000 ) ;
#328 = CARTESIAN_POINT ( 'NONE',  ( 0.000000000000000000, 0.1562500000000000278, 0.000000000000000000 ) ) ;
#329 = CARTESIAN_POINT ( 'NONE',  ( 0.000000000000000000, 0.1562500000000000278, -0.1562500000000000000 ) ) ;
#330 = ORIENTED_EDGE ( 'NONE', *, *, #106, .F. ) ;
#331 = CARTESIAN_POINT ( 'NONE',  ( -6.123233995736766036E-17, 2.500000000000000000, 0.000000000000000000 ) ) ;
#332 = DIMENSIONAL_EXPONENTS ( 1.000000000000000000, 0.000000000000000000, 0.000000000000000000, 0.000000000000000000, 0.000000000000000000, 0.000000000000000000, 0.000000000000000000 ) ;
#333 =( NAMED_UNIT ( * ) SI_UNIT ( $, .STERADIAN. ) SOLID_ANGLE_UNIT ( ) );
#334 = UNCERTAINTY_MEASURE_WITH_UNIT (LENGTH_MEASURE( 1.000000000000000082E-05 ), #316, 'distance_accuracy_value', 'NONE');
#335 = MANIFOLD_SOLID_BREP ( 'Revolve - Cutting Edge', #292 ) ;
#336 = DIRECTION ( 'NONE',  ( -1.000000000000000000, 0.000000000000000000, 0.000000000000000000 ) ) ;
#337 =( NAMED_UNIT ( * ) PLANE_ANGLE_UNIT ( ) SI_UNIT ( $, .RADIAN. ) );
#338 =( GEOMETRIC_REPRESENTATION_CONTEXT ( 3 ) GLOBAL_UNCERTAINTY_ASSIGNED_CONTEXT ( ( #301 ) ) GLOBAL_UNIT_ASSIGNED_CONTEXT ( ( #195, #20, #354 ) ) REPRESENTATION_CONTEXT ( 'NONE', 'WORKASPACE' ) );
#339 = PRESENTATION_LAYER_ASSIGNMENT (  '', '', ( #77 ) ) ;
#340 = CARTESIAN_POINT ( 'NONE',  ( -0.1562499999999999445, 2.500000000000000000, 0.000000000000000000 ) ) ;
#341 = EDGE_LOOP ( 'NONE', ( #306, #130, #55, #178, #360 ) ) ;
#342 = EDGE_CURVE ( 'NONE', #71, #155, #314, .T. ) ;
#343 = LINE ( 'NONE', #340, #248 ) ;
#344 =( CONVERSION_BASED_UNIT ( 'INCH', #228 ) LENGTH_UNIT ( ) NAMED_UNIT ( #151 ) );
#345 = EDGE_LOOP ( 'NONE', ( #118, #207 ) ) ;
#346 = DIRECTION ( 'NONE',  ( -1.224646799147352961E-16, 1.000000000000000000, -0.000000000000000000 ) ) ;
#347 = PLANE ( 'NONE',  #16 ) ;
#348 = FILL_AREA_STYLE ('',( #148 ) ) ;
#349 = ORIENTED_EDGE ( 'NONE', *, *, #14, .F. ) ;
#350 = AXIS2_PLACEMENT_3D ( 'NONE', #284, #139, #91 ) ;
#351 =( GEOMETRIC_REPRESENTATION_CONTEXT ( 3 ) GLOBAL_UNCERTAINTY_ASSIGNED_CONTEXT ( ( #302 ) ) GLOBAL_UNIT_ASSIGNED_CONTEXT ( ( #274, #247, #333 ) ) REPRESENTATION_CONTEXT ( 'NONE', 'WORKASPACE' ) );
#352 = EDGE_CURVE ( 'NONE', #152, #99, #224, .T. ) ;
#353 = AXIS2_PLACEMENT_3D ( 'NONE', #313, #100, #208 ) ;
#354 =( NAMED_UNIT ( * ) SI_UNIT ( $, .STERADIAN. ) SOLID_ANGLE_UNIT ( ) );
#355 = DIRECTION ( 'NONE',  ( -1.224646799147352961E-16, 1.000000000000000000, -0.000000000000000000 ) ) ;
#356 =( LENGTH_UNIT ( ) NAMED_UNIT ( * ) SI_UNIT ( $, .METRE. ) );
#357 = VERTEX_POINT ( 'NONE', #329 ) ;
#358 = PRESENTATION_STYLE_ASSIGNMENT (( #189 ) ) ;
#359 = EDGE_CURVE ( 'NONE', #121, #173, #36, .T. ) ;
#360 = ORIENTED_EDGE ( 'NONE', *, *, #342, .F. ) ;
#361 = CYLINDRICAL_SURFACE ( 'NONE', #41, 0.1562499999999998612 ) ;
#362 = UNCERTAINTY_MEASURE_WITH_UNIT (LENGTH_MEASURE( 1.000000000000000082E-05 ), #257, 'distance_accuracy_value', 'NONE');
#363 = DIRECTION ( 'NONE',  ( -1.000000000000000000, 0.000000000000000000, 0.000000000000000000 ) ) ;
#364 = CARTESIAN_POINT ( 'NONE',  ( 1.913510623667738539E-17, 0.000000000000000000, 0.1562499999999999445 ) ) ;
#365 = SURFACE_SIDE_STYLE ('',( #373 ) ) ;
#366 = CARTESIAN_POINT ( 'NONE',  ( 0.1562499999999999167, 2.500000000000000000, 1.913510623667738231E-17 ) ) ;
#367 = EDGE_CURVE ( 'NONE', #243, #357, #47, .T. ) ;
#368 = MECHANICAL_DESIGN_GEOMETRIC_PRESENTATION_REPRESENTATION (  '', ( #58 ), #21 ) ;
#369 = DIRECTION ( 'NONE',  ( 1.000000000000000000, 0.000000000000000000, -1.224646799147353207E-16 ) ) ;
#370 = DIRECTION ( 'NONE',  ( 0.000000000000000000, 0.000000000000000000, -1.000000000000000000 ) ) ;
#371 = ORIENTED_EDGE ( 'NONE', *, *, #231, .F. ) ;
#372 = CARTESIAN_POINT ( 'NONE',  ( 1.913510623667738231E-17, 0.7500000000000001110, 0.1562499999999999167 ) ) ;
#373 = SURFACE_STYLE_FILL_AREA ( #167 ) ;
ENDSEC;
END-ISO-10303-21;
