ISO-10303-21;
HEADER;
FILE_DESCRIPTION (( 'STEP AP214' ),
    '1' );
FILE_NAME ('Micro_BEM-078-04.STEP',
    '2021-09-03T12:59:52',
    ( '' ),
    ( '' ),
    'SwSTEP 2.0',
    'SolidWorks 2020',
    '' );
FILE_SCHEMA (( 'AUTOMOTIVE_DESIGN' ));
ENDSEC;

DATA;
#1 = ORIENTED_EDGE ( 'NONE', *, *, #205, .F. ) ;
#2 = CIRCLE ( 'NONE', #44, 0.04750000000000064587 ) ;
#3 = FACE_OUTER_BOUND ( 'NONE', #90, .T. ) ;
#4 = CIRCLE ( 'NONE', #249, 0.03901095000000000257 ) ;
#5 = CARTESIAN_POINT ( 'NONE',  ( -0.04750000000000064587, 0.0000000000000000000, 1.500000000000000222 ) ) ;
#6 = ORIENTED_EDGE ( 'NONE', *, *, #224, .F. ) ;
#7 = VECTOR ( 'NONE', #160, 39.37007874015747433 ) ;
#8 = LENGTH_MEASURE_WITH_UNIT ( LENGTH_MEASURE( 0.02539999999999999897 ), #273 );
#9 = ADVANCED_BREP_SHAPE_REPRESENTATION ( 'Micro_BEM-078-04', ( #95, #97 ), #67 ) ;
#10 = ORIENTED_EDGE ( 'NONE', *, *, #205, .T. ) ;
#11 = CARTESIAN_POINT ( 'NONE',  ( -0.06249999999999997918, 0.0000000000000000000, 0.3212130222250907940 ) ) ;
#12 = CARTESIAN_POINT ( 'NONE',  ( 0.0000000000000000000, 0.0000000000000000000, 0.0000000000000000000 ) ) ;
#13 = CARTESIAN_POINT ( 'NONE',  ( 0.03901095000000000951, 4.777463504919744426E-18, 0.03901094999999999563 ) ) ;
#14 = VECTOR ( 'NONE', #15, 39.37007874015748143 ) ;
#15 = DIRECTION ( 'NONE',  ( -1.224646799147353700E-16, -0.0000000000000000000, -1.000000000000000000 ) ) ;
#16 = CARTESIAN_POINT ( 'NONE',  ( 3.933724995124051744E-17, 0.0000000000000000000, 0.3212130222250907940 ) ) ;
#17 = CARTESIAN_POINT ( 'NONE',  ( 4.777463504919746737E-18, 0.0000000000000000000, 0.03901095000000000257 ) ) ;
#18 = AXIS2_PLACEMENT_3D ( 'NONE', #26, #241, #222 ) ;
#19 = DIRECTION ( 'NONE',  ( 0.0000000000000000000, 0.0000000000000000000, 1.000000000000000000 ) ) ;
#20 = AXIS2_PLACEMENT_3D ( 'NONE', #99, #277, #54 ) ;
#21 = EDGE_LOOP ( 'NONE', ( #292, #104, #117, #46 ) ) ;
#22 = UNCERTAINTY_MEASURE_WITH_UNIT (LENGTH_MEASURE( 1.000000000000000082E-05 ), #232, 'distance_accuracy_value', 'NONE');
#23 = DIRECTION ( 'NONE',  ( 1.224646799147353207E-16, 1.000000000000000000, -0.0000000000000000000 ) ) ;
#24 = CYLINDRICAL_SURFACE ( 'NONE', #75, 0.06250000000000002776 ) ;
#25 = EDGE_CURVE ( 'NONE', #307, #105, #248, .T. ) ;
#26 = CARTESIAN_POINT ( 'NONE',  ( 4.777463504919746737E-18, 0.0000000000000000000, 0.03901095000000000257 ) ) ;
#27 = AXIS2_PLACEMENT_3D ( 'NONE', #72, #149, #223 ) ;
#28 = DIRECTION ( 'NONE',  ( 1.224646799147353700E-16, 0.0000000000000000000, 1.000000000000000000 ) ) ;
#29 = ORIENTED_EDGE ( 'NONE', *, *, #77, .T. ) ;
#30 = EDGE_CURVE ( 'NONE', #281, #103, #308, .T. ) ;
#31 =( CONVERSION_BASED_UNIT ( 'INCH', #8 ) LENGTH_UNIT ( ) NAMED_UNIT ( #192 ) );
#32 = EDGE_LOOP ( 'NONE', ( #141, #227, #68, #144 ) ) ;
#33 = EDGE_LOOP ( 'NONE', ( #100, #266, #279 ) ) ;
#34 = FACE_OUTER_BOUND ( 'NONE', #225, .T. ) ;
#35 = DIRECTION ( 'NONE',  ( 0.7071067811865462405, 8.659560562354916834E-17, -0.7071067811865486830 ) ) ;
#36 = VECTOR ( 'NONE', #63, 39.37007874015748143 ) ;
#37 = CARTESIAN_POINT ( 'NONE',  ( 0.0000000000000000000, 0.0000000000000000000, 1.500000000000000222 ) ) ;
#38 = CARTESIAN_POINT ( 'NONE',  ( 0.04750000000000064587, 5.817072295950006528E-18, 1.500000000000000222 ) ) ;
#39 = CARTESIAN_POINT ( 'NONE',  ( 0.06250000000000002776, 7.654042494670959086E-18, 1.485000000000000764 ) ) ;
#40 = DIRECTION ( 'NONE',  ( -1.224646799147353700E-16, -0.0000000000000000000, -1.000000000000000000 ) ) ;
#41 = ADVANCED_FACE ( 'NONE', ( #276 ), #304, .T. ) ;
#42 = CARTESIAN_POINT ( 'NONE',  ( 0.0000000000000000000, 0.0000000000000000000, 1.485000000000000764 ) ) ;
#43 = DIMENSIONAL_EXPONENTS ( 1.000000000000000000, 0.0000000000000000000, 0.0000000000000000000, 0.0000000000000000000, 0.0000000000000000000, 0.0000000000000000000, 0.0000000000000000000 ) ;
#44 = AXIS2_PLACEMENT_3D ( 'NONE', #316, #325, #217 ) ;
#45 = CARTESIAN_POINT ( 'NONE',  ( -0.03901094999999998175, 4.777463504919744426E-18, 0.1880000000000000282 ) ) ;
#46 = ORIENTED_EDGE ( 'NONE', *, *, #93, .F. ) ;
#47 = CARTESIAN_POINT ( 'NONE',  ( 0.0000000000000000000, 0.0000000000000000000, 1.500000000000000222 ) ) ;
#48 = ADVANCED_FACE ( 'NONE', ( #34 ), #239, .T. ) ;
#49 = DIRECTION ( 'NONE',  ( -1.000000000000000000, 0.0000000000000000000, 1.224646799147353947E-16 ) ) ;
#50 = CARTESIAN_POINT ( 'NONE',  ( 4.777463504919746737E-18, 0.0000000000000000000, 0.03901095000000000257 ) ) ;
#51 = APPLICATION_CONTEXT ( 'automotive_design' ) ;
#52 = ORIENTED_EDGE ( 'NONE', *, *, #187, .T. ) ;
#53 = AXIS2_PLACEMENT_3D ( 'NONE', #158, #64, #96 ) ;
#54 = DIRECTION ( 'NONE',  ( -1.000000000000000000, 0.0000000000000000000, 0.0000000000000000000 ) ) ;
#55 = AXIS2_PLACEMENT_3D ( 'NONE', #80, #182, #131 ) ;
#56 = APPLICATION_PROTOCOL_DEFINITION ( 'draft international standard', 'automotive_design', 1998, #51 ) ;
#57 = DIRECTION ( 'NONE',  ( -0.7071067811865462405, 0.0000000000000000000, -0.7071067811865486830 ) ) ;
#58 = CARTESIAN_POINT ( 'NONE',  ( 0.06250000000000006939, 7.654042494670963708E-18, 0.3212130222250907940 ) ) ;
#59 = CIRCLE ( 'NONE', #311, 0.06250000000000002776 ) ;
#60 = FACE_OUTER_BOUND ( 'NONE', #191, .T. ) ;
#61 = DIRECTION ( 'NONE',  ( 1.224646799147353700E-16, 0.0000000000000000000, 1.000000000000000000 ) ) ;
#62 = VECTOR ( 'NONE', #57, 39.37007874015748854 ) ;
#63 = DIRECTION ( 'NONE',  ( -0.0000000000000000000, -0.0000000000000000000, -1.000000000000000000 ) ) ;
#64 = DIRECTION ( 'NONE',  ( 1.224646799147353700E-16, 0.0000000000000000000, 1.000000000000000000 ) ) ;
#65 = FACE_OUTER_BOUND ( 'NONE', #274, .T. ) ;
#66 = DIRECTION ( 'NONE',  ( 1.000000000000000000, 0.0000000000000000000, -0.0000000000000000000 ) ) ;
#67 =( GEOMETRIC_REPRESENTATION_CONTEXT ( 3 ) GLOBAL_UNCERTAINTY_ASSIGNED_CONTEXT ( ( #280 ) ) GLOBAL_UNIT_ASSIGNED_CONTEXT ( ( #318, #269, #250 ) ) REPRESENTATION_CONTEXT ( 'NONE', 'WORKASPACE' ) );
#68 = ORIENTED_EDGE ( 'NONE', *, *, #77, .F. ) ;
#69 = PLANE ( 'NONE',  #272 ) ;
#70 = SPHERICAL_SURFACE ( 'NONE', #18, 0.03901095000000000257 ) ;
#71 = ORIENTED_EDGE ( 'NONE', *, *, #93, .T. ) ;
#72 = CARTESIAN_POINT ( 'NONE',  ( 0.0000000000000000000, 0.0000000000000000000, 1.485000000000000764 ) ) ;
#73 = ORIENTED_EDGE ( 'NONE', *, *, #25, .T. ) ;
#74 = VERTEX_POINT ( 'NONE', #301 ) ;
#75 = AXIS2_PLACEMENT_3D ( 'NONE', #211, #135, #157 ) ;
#76 = ORIENTED_EDGE ( 'NONE', *, *, #88, .T. ) ;
#77 = EDGE_CURVE ( 'NONE', #124, #103, #234, .T. ) ;
#78 = CIRCLE ( 'NONE', #27, 0.06250000000000002776 ) ;
#79 = CARTESIAN_POINT ( 'NONE',  ( 3.933724995124051744E-17, 0.0000000000000000000, 0.3212130222250907940 ) ) ;
#80 = CARTESIAN_POINT ( 'NONE',  ( 4.777463504919746737E-18, 0.0000000000000000000, 0.03901095000000000257 ) ) ;
#81 = AXIS2_PLACEMENT_3D ( 'NONE', #190, #215, #112 ) ;
#82 = ADVANCED_FACE ( 'NONE', ( #3 ), #226, .T. ) ;
#83 = PRESENTATION_LAYER_ASSIGNMENT (  '', '', ( #256 ) ) ;
#84 = DIRECTION ( 'NONE',  ( -1.000000000000000000, 0.0000000000000000000, 0.0000000000000000000 ) ) ;
#85 = DIRECTION ( 'NONE',  ( -1.224646799147353700E-16, -0.0000000000000000000, -1.000000000000000000 ) ) ;
#86 = EDGE_CURVE ( 'NONE', #179, #105, #78, .T. ) ;
#87 = FILL_AREA_STYLE_COLOUR ( '', #283 ) ;
#88 = EDGE_CURVE ( 'NONE', #229, #115, #162, .T. ) ;
#89 = DIRECTION ( 'NONE',  ( -1.000000000000000000, 1.224646799147353207E-16, 0.0000000000000000000 ) ) ;
#90 = EDGE_LOOP ( 'NONE', ( #324, #127, #29, #175 ) ) ;
#91 = DIRECTION ( 'NONE',  ( 1.000000000000000000, 0.0000000000000000000, 0.0000000000000000000 ) ) ;
#92 = ORIENTED_EDGE ( 'NONE', *, *, #86, .T. ) ;
#93 = EDGE_CURVE ( 'NONE', #161, #138, #106, .T. ) ;
#94 = AXIS2_PLACEMENT_3D ( 'NONE', #17, #23, #89 ) ;
#95 = MANIFOLD_SOLID_BREP ( 'Fillet1', #305 ) ;
#96 = DIRECTION ( 'NONE',  ( -1.000000000000000000, 0.0000000000000000000, 2.188366338220633428E-16 ) ) ;
#97 = AXIS2_PLACEMENT_3D ( 'NONE', #306, #119, #253 ) ;
#98 = LINE ( 'NONE', #45, #7 ) ;
#99 = CARTESIAN_POINT ( 'NONE',  ( 0.0000000000000000000, 0.0000000000000000000, 1.500000000000000222 ) ) ;
#100 = ORIENTED_EDGE ( 'NONE', *, *, #88, .F. ) ;
#101 = AXIS2_PLACEMENT_3D ( 'NONE', #79, #129, #231 ) ;
#102 =( GEOMETRIC_REPRESENTATION_CONTEXT ( 3 ) GLOBAL_UNCERTAINTY_ASSIGNED_CONTEXT ( ( #295 ) ) GLOBAL_UNIT_ASSIGNED_CONTEXT ( ( #31, #244, #126 ) ) REPRESENTATION_CONTEXT ( 'NONE', 'WORKASPACE' ) );
#103 = VERTEX_POINT ( 'NONE', #58 ) ;
#104 = ORIENTED_EDGE ( 'NONE', *, *, #262, .T. ) ;
#105 = VERTEX_POINT ( 'NONE', #156 ) ;
#106 = LINE ( 'NONE', #314, #14 ) ;
#107 = FILL_AREA_STYLE ('',( #87 ) ) ;
#108 = LENGTH_MEASURE_WITH_UNIT ( LENGTH_MEASURE( 0.02539999999999999897 ), #183 );
#109 = CIRCLE ( 'NONE', #296, 0.03901095000000000257 ) ;
#110 = CARTESIAN_POINT ( 'NONE',  ( -0.03901094999999998175, 6.215752999795353296E-18, 0.1880000000000000282 ) ) ;
#111 = CIRCLE ( 'NONE', #299, 0.06250000000000002776 ) ;
#112 = DIRECTION ( 'NONE',  ( -1.000000000000000000, 0.0000000000000000000, 0.0000000000000000000 ) ) ;
#113 = AXIS2_PLACEMENT_3D ( 'NONE', #254, #302, #174 ) ;
#114 = DIRECTION ( 'NONE',  ( -1.224646799147353700E-16, -0.0000000000000000000, -1.000000000000000000 ) ) ;
#115 = VERTEX_POINT ( 'NONE', #13 ) ;
#116 = DIRECTION ( 'NONE',  ( 1.000000000000000000, 0.0000000000000000000, 0.0000000000000000000 ) ) ;
#117 = ORIENTED_EDGE ( 'NONE', *, *, #252, .T. ) ;
#118 = DIRECTION ( 'NONE',  ( 0.0000000000000000000, 0.0000000000000000000, 1.000000000000000000 ) ) ;
#119 = DIRECTION ( 'NONE',  ( 0.0000000000000000000, 0.0000000000000000000, 1.000000000000000000 ) ) ;
#120 = DIRECTION ( 'NONE',  ( 1.000000000000000000, 0.0000000000000000000, 0.0000000000000000000 ) ) ;
#121 = PRODUCT_RELATED_PRODUCT_CATEGORY ( 'part', '', ( #178 ) ) ;
#122 = SURFACE_STYLE_FILL_AREA ( #275 ) ;
#123 = ORIENTED_EDGE ( 'NONE', *, *, #224, .T. ) ;
#124 = VERTEX_POINT ( 'NONE', #11 ) ;
#125 = EDGE_CURVE ( 'NONE', #161, #281, #109, .T. ) ;
#126 =( NAMED_UNIT ( * ) SI_UNIT ( $, .STERADIAN. ) SOLID_ANGLE_UNIT ( ) );
#127 = ORIENTED_EDGE ( 'NONE', *, *, #245, .T. ) ;
#128 = PRESENTATION_STYLE_ASSIGNMENT (( #300 ) ) ;
#129 = DIRECTION ( 'NONE',  ( -1.224646799147353700E-16, -0.0000000000000000000, -1.000000000000000000 ) ) ;
#130 = DIRECTION ( 'NONE',  ( 0.0000000000000000000, 0.0000000000000000000, -1.000000000000000000 ) ) ;
#131 = DIRECTION ( 'NONE',  ( 1.000000000000000000, 0.0000000000000000000, 0.0000000000000000000 ) ) ;
#132 = CONICAL_SURFACE ( 'NONE', #180, 0.03901095000000000257, 0.1745329251994338915 ) ;
#133 = ADVANCED_FACE ( 'NONE', ( #60 ), #139, .T. ) ;
#134 = EDGE_CURVE ( 'NONE', #138, #115, #4, .T. ) ;
#135 = DIRECTION ( 'NONE',  ( -0.0000000000000000000, -0.0000000000000000000, -1.000000000000000000 ) ) ;
#136 = CIRCLE ( 'NONE', #53, 0.03901095000000000257 ) ;
#137 =( LENGTH_UNIT ( ) NAMED_UNIT ( * ) SI_UNIT ( $, .METRE. ) );
#138 = VERTEX_POINT ( 'NONE', #154 ) ;
#139 = CONICAL_SURFACE ( 'NONE', #268, 0.04750000000000064587, 0.7853981633974466137 ) ;
#140 = CARTESIAN_POINT ( 'NONE',  ( 0.03901095000000003032, 0.0000000000000000000, 0.1880000000000000282 ) ) ;
#141 = ORIENTED_EDGE ( 'NONE', *, *, #287, .T. ) ;
#142 = CARTESIAN_POINT ( 'NONE',  ( 0.0000000000000000000, 0.0000000000000000000, 1.500000000000000222 ) ) ;
#143 = ORIENTED_EDGE ( 'NONE', *, *, #170, .T. ) ;
#144 = ORIENTED_EDGE ( 'NONE', *, *, #187, .F. ) ;
#145 = PRODUCT_DEFINITION_FORMATION_WITH_SPECIFIED_SOURCE ( 'ANY', '', #178, .NOT_KNOWN. ) ;
#146 = DIRECTION ( 'NONE',  ( 0.0000000000000000000, -1.000000000000000000, 0.0000000000000000000 ) ) ;
#147 = ORIENTED_EDGE ( 'NONE', *, *, #287, .F. ) ;
#148 = EDGE_CURVE ( 'NONE', #179, #103, #255, .T. ) ;
#149 = DIRECTION ( 'NONE',  ( 0.0000000000000000000, 0.0000000000000000000, -1.000000000000000000 ) ) ;
#150 = VECTOR ( 'NONE', #309, 39.37007874015748143 ) ;
#151 = APPLICATION_PROTOCOL_DEFINITION ( 'draft international standard', 'automotive_design', 1998, #289 ) ;
#152 = DIRECTION ( 'NONE',  ( 0.1736481776669313859, 0.0000000000000000000, 0.9848077530122077983 ) ) ;
#153 =( GEOMETRIC_REPRESENTATION_CONTEXT ( 3 ) GLOBAL_UNCERTAINTY_ASSIGNED_CONTEXT ( ( #22 ) ) GLOBAL_UNIT_ASSIGNED_CONTEXT ( ( #232, #208, #284 ) ) REPRESENTATION_CONTEXT ( 'NONE', 'WORKASPACE' ) );
#154 = CARTESIAN_POINT ( 'NONE',  ( -0.03901094999999999563, 0.0000000000000000000, 0.03901095000000000951 ) ) ;
#155 = FACE_OUTER_BOUND ( 'NONE', #33, .T. ) ;
#156 = CARTESIAN_POINT ( 'NONE',  ( -0.06250000000000002776, 0.0000000000000000000, 1.485000000000000764 ) ) ;
#157 = DIRECTION ( 'NONE',  ( -1.000000000000000000, 0.0000000000000000000, 0.0000000000000000000 ) ) ;
#158 = CARTESIAN_POINT ( 'NONE',  ( 4.777463504919746737E-18, 0.0000000000000000000, 0.03901095000000000257 ) ) ;
#159 = ORIENTED_EDGE ( 'NONE', *, *, #303, .F. ) ;
#160 = DIRECTION ( 'NONE',  ( -0.1736481776669311916, 2.126576849575783316E-17, 0.9848077530122080203 ) ) ;
#161 = VERTEX_POINT ( 'NONE', #110 ) ;
#162 = CIRCLE ( 'NONE', #197, 0.03901095000000000257 ) ;
#163 = FACE_OUTER_BOUND ( 'NONE', #294, .T. ) ;
#164 = ORIENTED_EDGE ( 'NONE', *, *, #30, .T. ) ;
#165 = CYLINDRICAL_SURFACE ( 'NONE', #310, 0.03901095000000000257 ) ;
#166 = ORIENTED_EDGE ( 'NONE', *, *, #25, .F. ) ;
#167 = PRODUCT_DEFINITION ( 'UNKNOWN', '', #145, #235 ) ;
#168 = ORIENTED_EDGE ( 'NONE', *, *, #262, .F. ) ;
#169 = AXIS2_PLACEMENT_3D ( 'NONE', #142, #19, #91 ) ;
#170 = EDGE_CURVE ( 'NONE', #74, #179, #261, .T. ) ;
#171 = EDGE_LOOP ( 'NONE', ( #168, #123, #71, #189 ) ) ;
#172 = PRODUCT_CONTEXT ( 'NONE', #51, 'mechanical' ) ;
#173 = COLOUR_RGB ( '',0.7921568627450980005, 0.8196078431372548767, 0.9333333333333333481 ) ;
#174 = DIRECTION ( 'NONE',  ( -1.000000000000000000, 0.0000000000000000000, 0.0000000000000000000 ) ) ;
#175 = ORIENTED_EDGE ( 'NONE', *, *, #30, .F. ) ;
#176 = AXIS2_PLACEMENT_3D ( 'NONE', #246, #28, #120 ) ;
#177 = ADVANCED_FACE ( 'NONE', ( #155 ), #209, .T. ) ;
#178 = PRODUCT ( 'Micro_BEM-078-04', 'Micro_BEM-078-04', '', ( #172 ) ) ;
#179 = VERTEX_POINT ( 'NONE', #39 ) ;
#180 = AXIS2_PLACEMENT_3D ( 'NONE', #265, #293, #116 ) ;
#181 = ADVANCED_FACE ( 'NONE', ( #282 ), #237, .T. ) ;
#182 = DIRECTION ( 'NONE',  ( 0.0000000000000000000, 1.000000000000000000, 0.0000000000000000000 ) ) ;
#183 =( LENGTH_UNIT ( ) NAMED_UNIT ( * ) SI_UNIT ( $, .METRE. ) );
#184 = SURFACE_STYLE_USAGE ( .BOTH. , #312 ) ;
#185 = LINE ( 'NONE', #288, #36 ) ;
#186 = CIRCLE ( 'NONE', #94, 0.03901095000000000257 ) ;
#187 = EDGE_CURVE ( 'NONE', #105, #124, #185, .T. ) ;
#188 = FACE_OUTER_BOUND ( 'NONE', #171, .T. ) ;
#189 = ORIENTED_EDGE ( 'NONE', *, *, #134, .T. ) ;
#190 = CARTESIAN_POINT ( 'NONE',  ( 2.302335982397025094E-17, 0.0000000000000000000, 0.1880000000000000282 ) ) ;
#191 = EDGE_LOOP ( 'NONE', ( #159, #143, #147, #166 ) ) ;
#192 = DIMENSIONAL_EXPONENTS ( 1.000000000000000000, 0.0000000000000000000, 0.0000000000000000000, 0.0000000000000000000, 0.0000000000000000000, 0.0000000000000000000, 0.0000000000000000000 ) ;
#193 = VECTOR ( 'NONE', #35, 39.37007874015748854 ) ;
#194 = DIRECTION ( 'NONE',  ( -1.224646799147353700E-16, -0.0000000000000000000, -1.000000000000000000 ) ) ;
#195 = SURFACE_SIDE_STYLE ('',( #122 ) ) ;
#196 = ORIENTED_EDGE ( 'NONE', *, *, #170, .F. ) ;
#197 = AXIS2_PLACEMENT_3D ( 'NONE', #50, #146, #130 ) ;
#198 = FILL_AREA_STYLE_COLOUR ( '', #173 ) ;
#199 = ORIENTED_EDGE ( 'NONE', *, *, #214, .T. ) ;
#200 = CARTESIAN_POINT ( 'NONE',  ( 0.03901095000000003032, 0.0000000000000000000, 0.1880000000000000282 ) ) ;
#201 = MECHANICAL_DESIGN_GEOMETRIC_PRESENTATION_REPRESENTATION (  '', ( #218 ), #102 ) ;
#202 = ORIENTED_EDGE ( 'NONE', *, *, #245, .F. ) ;
#203 = VECTOR ( 'NONE', #152, 39.37007874015748143 ) ;
#204 = EDGE_LOOP ( 'NONE', ( #242, #76, #251 ) ) ;
#205 = EDGE_CURVE ( 'NONE', #103, #124, #59, .T. ) ;
#206 = CARTESIAN_POINT ( 'NONE',  ( 2.302335982397025094E-17, 0.0000000000000000000, 0.1880000000000000282 ) ) ;
#207 = DIRECTION ( 'NONE',  ( -1.000000000000000000, 0.0000000000000000000, 1.224646799147353947E-16 ) ) ;
#208 =( NAMED_UNIT ( * ) PLANE_ANGLE_UNIT ( ) SI_UNIT ( $, .RADIAN. ) );
#209 = SPHERICAL_SURFACE ( 'NONE', #55, 0.03901095000000000257 ) ;
#210 = CARTESIAN_POINT ( 'NONE',  ( 4.777463504919746737E-18, 0.0000000000000000000, 0.03901095000000000257 ) ) ;
#211 = CARTESIAN_POINT ( 'NONE',  ( 0.0000000000000000000, 0.0000000000000000000, 1.500000000000000222 ) ) ;
#212 = ORIENTED_EDGE ( 'NONE', *, *, #86, .F. ) ;
#213 = AXIS2_PLACEMENT_3D ( 'NONE', #12, #85, #207 ) ;
#214 = EDGE_CURVE ( 'NONE', #307, #74, #322, .T. ) ;
#215 = DIRECTION ( 'NONE',  ( -1.224646799147353700E-16, -0.0000000000000000000, -1.000000000000000000 ) ) ;
#216 = CIRCLE ( 'NONE', #81, 0.03901095000000000257 ) ;
#217 = DIRECTION ( 'NONE',  ( 1.000000000000000000, 0.0000000000000000000, 0.0000000000000000000 ) ) ;
#218 = STYLED_ITEM ( 'NONE', ( #128 ), #9 ) ;
#219 = ADVANCED_FACE ( 'NONE', ( #163 ), #132, .T. ) ;
#220 = FACE_OUTER_BOUND ( 'NONE', #319, .T. ) ;
#221 = DIMENSIONAL_EXPONENTS ( 1.000000000000000000, 0.0000000000000000000, 0.0000000000000000000, 0.0000000000000000000, 0.0000000000000000000, 0.0000000000000000000, 0.0000000000000000000 ) ;
#222 = DIRECTION ( 'NONE',  ( 1.000000000000000000, 0.0000000000000000000, 0.0000000000000000000 ) ) ;
#223 = DIRECTION ( 'NONE',  ( 1.000000000000000000, 0.0000000000000000000, 0.0000000000000000000 ) ) ;
#224 = EDGE_CURVE ( 'NONE', #281, #161, #216, .T. ) ;
#225 = EDGE_LOOP ( 'NONE', ( #196, #317, #73, #212 ) ) ;
#226 = CONICAL_SURFACE ( 'NONE', #176, 0.03901095000000000257, 0.1745329251994338915 ) ;
#227 = ORIENTED_EDGE ( 'NONE', *, *, #148, .T. ) ;
#228 = SHAPE_DEFINITION_REPRESENTATION ( #285, #9 ) ;
#229 = VERTEX_POINT ( 'NONE', #297 ) ;
#230 = ADVANCED_FACE ( 'NONE', ( #65 ), #69, .T. ) ;
#231 = DIRECTION ( 'NONE',  ( 1.000000000000000000, 0.0000000000000000000, 0.0000000000000000000 ) ) ;
#232 =( CONVERSION_BASED_UNIT ( 'INCH', #108 ) LENGTH_UNIT ( ) NAMED_UNIT ( #43 ) );
#233 = CARTESIAN_POINT ( 'NONE',  ( 0.06250000000000002776, 7.654042494670959086E-18, 1.500000000000000222 ) ) ;
#234 = CIRCLE ( 'NONE', #101, 0.06250000000000002776 ) ;
#235 = PRODUCT_DEFINITION_CONTEXT ( 'detailed design', #289, 'design' ) ;
#236 = ADVANCED_FACE ( 'NONE', ( #220 ), #24, .T. ) ;
#237 = CYLINDRICAL_SURFACE ( 'NONE', #213, 0.03901095000000000257 ) ;
#238 = DIRECTION ( 'NONE',  ( 1.000000000000000000, 0.0000000000000000000, 0.0000000000000000000 ) ) ;
#239 = CONICAL_SURFACE ( 'NONE', #20, 0.04750000000000064587, 0.7853981633974466137 ) ;
#240 = DIRECTION ( 'NONE',  ( 0.0000000000000000000, 0.0000000000000000000, -1.000000000000000000 ) ) ;
#241 = DIRECTION ( 'NONE',  ( 0.0000000000000000000, 1.000000000000000000, 0.0000000000000000000 ) ) ;
#242 = ORIENTED_EDGE ( 'NONE', *, *, #298, .F. ) ;
#243 = LENGTH_MEASURE_WITH_UNIT ( LENGTH_MEASURE( 0.02539999999999999897 ), #137 );
#244 =( NAMED_UNIT ( * ) PLANE_ANGLE_UNIT ( ) SI_UNIT ( $, .RADIAN. ) );
#245 = EDGE_CURVE ( 'NONE', #161, #124, #98, .T. ) ;
#246 = CARTESIAN_POINT ( 'NONE',  ( 2.302335982397025094E-17, 0.0000000000000000000, 0.1880000000000000282 ) ) ;
#247 = ORIENTED_EDGE ( 'NONE', *, *, #148, .F. ) ;
#248 = LINE ( 'NONE', #5, #62 ) ;
#249 = AXIS2_PLACEMENT_3D ( 'NONE', #210, #61, #258 ) ;
#250 =( NAMED_UNIT ( * ) SI_UNIT ( $, .STERADIAN. ) SOLID_ANGLE_UNIT ( ) );
#251 = ORIENTED_EDGE ( 'NONE', *, *, #134, .F. ) ;
#252 = EDGE_CURVE ( 'NONE', #115, #138, #136, .T. ) ;
#253 = DIRECTION ( 'NONE',  ( 1.000000000000000000, 0.0000000000000000000, 0.0000000000000000000 ) ) ;
#254 = CARTESIAN_POINT ( 'NONE',  ( 0.0000000000000000000, 0.0000000000000000000, 1.500000000000000222 ) ) ;
#255 = LINE ( 'NONE', #233, #150 ) ;
#256 = STYLED_ITEM ( 'NONE', ( #286 ), #95 ) ;
#257 = DIRECTION ( 'NONE',  ( -1.000000000000000000, 0.0000000000000000000, 0.0000000000000000000 ) ) ;
#258 = DIRECTION ( 'NONE',  ( -1.000000000000000000, 0.0000000000000000000, 2.188366338220633428E-16 ) ) ;
#259 = DIRECTION ( 'NONE',  ( 0.0000000000000000000, 0.0000000000000000000, -1.000000000000000000 ) ) ;
#260 = PRESENTATION_LAYER_ASSIGNMENT (  '', '', ( #218 ) ) ;
#261 = LINE ( 'NONE', #38, #193 ) ;
#262 = EDGE_CURVE ( 'NONE', #281, #115, #323, .T. ) ;
#263 = CARTESIAN_POINT ( 'NONE',  ( 0.03901095000000000257, 4.777463504919744426E-18, -4.777463504919746737E-18 ) ) ;
#264 = CARTESIAN_POINT ( 'NONE',  ( 0.0000000000000000000, 0.0000000000000000000, 0.0000000000000000000 ) ) ;
#265 = CARTESIAN_POINT ( 'NONE',  ( 2.302335982397025094E-17, 0.0000000000000000000, 0.1880000000000000282 ) ) ;
#266 = ORIENTED_EDGE ( 'NONE', *, *, #298, .T. ) ;
#267 = ADVANCED_FACE ( 'NONE', ( #290 ), #70, .T. ) ;
#268 = AXIS2_PLACEMENT_3D ( 'NONE', #37, #259, #257 ) ;
#269 =( NAMED_UNIT ( * ) PLANE_ANGLE_UNIT ( ) SI_UNIT ( $, .RADIAN. ) );
#270 = ORIENTED_EDGE ( 'NONE', *, *, #303, .T. ) ;
#271 = DIRECTION ( 'NONE',  ( -1.224646799147353700E-16, -0.0000000000000000000, -1.000000000000000000 ) ) ;
#272 = AXIS2_PLACEMENT_3D ( 'NONE', #47, #118, #66 ) ;
#273 =( LENGTH_UNIT ( ) NAMED_UNIT ( * ) SI_UNIT ( $, .METRE. ) );
#274 = EDGE_LOOP ( 'NONE', ( #199, #270 ) ) ;
#275 = FILL_AREA_STYLE ('',( #198 ) ) ;
#276 = FACE_OUTER_BOUND ( 'NONE', #32, .T. ) ;
#277 = DIRECTION ( 'NONE',  ( 0.0000000000000000000, 0.0000000000000000000, -1.000000000000000000 ) ) ;
#278 = MECHANICAL_DESIGN_GEOMETRIC_PRESENTATION_REPRESENTATION (  '', ( #256 ), #153 ) ;
#279 = ORIENTED_EDGE ( 'NONE', *, *, #252, .F. ) ;
#280 = UNCERTAINTY_MEASURE_WITH_UNIT (LENGTH_MEASURE( 1.000000000000000082E-05 ), #318, 'distance_accuracy_value', 'NONE');
#281 = VERTEX_POINT ( 'NONE', #140 ) ;
#282 = FACE_OUTER_BOUND ( 'NONE', #21, .T. ) ;
#283 = COLOUR_RGB ( '',0.7921568627450980005, 0.8196078431372548767, 0.9333333333333333481 ) ;
#284 =( NAMED_UNIT ( * ) SI_UNIT ( $, .STERADIAN. ) SOLID_ANGLE_UNIT ( ) );
#285 = PRODUCT_DEFINITION_SHAPE ( 'NONE', 'NONE',  #167 ) ;
#286 = PRESENTATION_STYLE_ASSIGNMENT (( #184 ) ) ;
#287 = EDGE_CURVE ( 'NONE', #105, #179, #111, .T. ) ;
#288 = CARTESIAN_POINT ( 'NONE',  ( -0.06250000000000002776, 0.0000000000000000000, 1.500000000000000222 ) ) ;
#289 = APPLICATION_CONTEXT ( 'automotive_design' ) ;
#290 = FACE_OUTER_BOUND ( 'NONE', #204, .T. ) ;
#291 = DIRECTION ( 'NONE',  ( 1.000000000000000000, 0.0000000000000000000, 0.0000000000000000000 ) ) ;
#292 = ORIENTED_EDGE ( 'NONE', *, *, #125, .T. ) ;
#293 = DIRECTION ( 'NONE',  ( 1.224646799147353700E-16, 0.0000000000000000000, 1.000000000000000000 ) ) ;
#294 = EDGE_LOOP ( 'NONE', ( #202, #6, #164, #10 ) ) ;
#295 = UNCERTAINTY_MEASURE_WITH_UNIT (LENGTH_MEASURE( 1.000000000000000082E-05 ), #31, 'distance_accuracy_value', 'NONE');
#296 = AXIS2_PLACEMENT_3D ( 'NONE', #206, #40, #84 ) ;
#297 = CARTESIAN_POINT ( 'NONE',  ( 7.166195257379618950E-18, 0.0000000000000000000, 0.0000000000000000000 ) ) ;
#298 = EDGE_CURVE ( 'NONE', #229, #138, #186, .T. ) ;
#299 = AXIS2_PLACEMENT_3D ( 'NONE', #42, #240, #238 ) ;
#300 = SURFACE_STYLE_USAGE ( .BOTH. , #195 ) ;
#301 = CARTESIAN_POINT ( 'NONE',  ( 0.04750000000000064587, 6.735557395310483192E-18, 1.500000000000000222 ) ) ;
#302 = DIRECTION ( 'NONE',  ( -0.0000000000000000000, -0.0000000000000000000, -1.000000000000000000 ) ) ;
#303 = EDGE_CURVE ( 'NONE', #74, #307, #2, .T. ) ;
#304 = CYLINDRICAL_SURFACE ( 'NONE', #113, 0.06250000000000002776 ) ;
#305 = CLOSED_SHELL ( 'NONE', ( #177, #181, #82, #133, #41, #236, #230, #48, #219, #315, #267 ) ) ;
#306 = CARTESIAN_POINT ( 'NONE',  ( 0.0000000000000000000, 0.0000000000000000000, 0.0000000000000000000 ) ) ;
#307 = VERTEX_POINT ( 'NONE', #320 ) ;
#308 = LINE ( 'NONE', #200, #203 ) ;
#309 = DIRECTION ( 'NONE',  ( -0.0000000000000000000, -0.0000000000000000000, -1.000000000000000000 ) ) ;
#310 = AXIS2_PLACEMENT_3D ( 'NONE', #264, #271, #49 ) ;
#311 = AXIS2_PLACEMENT_3D ( 'NONE', #16, #194, #291 ) ;
#312 = SURFACE_SIDE_STYLE ('',( #313 ) ) ;
#313 = SURFACE_STYLE_FILL_AREA ( #107 ) ;
#314 = CARTESIAN_POINT ( 'NONE',  ( -0.03901095000000000257, 0.0000000000000000000, 4.777463504919746737E-18 ) ) ;
#315 = ADVANCED_FACE ( 'NONE', ( #188 ), #165, .T. ) ;
#316 = CARTESIAN_POINT ( 'NONE',  ( 0.0000000000000000000, 0.0000000000000000000, 1.500000000000000222 ) ) ;
#317 = ORIENTED_EDGE ( 'NONE', *, *, #214, .F. ) ;
#318 =( CONVERSION_BASED_UNIT ( 'INCH', #243 ) LENGTH_UNIT ( ) NAMED_UNIT ( #221 ) );
#319 = EDGE_LOOP ( 'NONE', ( #247, #92, #52, #1 ) ) ;
#320 = CARTESIAN_POINT ( 'NONE',  ( -0.04750000000000064587, 0.0000000000000000000, 1.500000000000000222 ) ) ;
#321 = VECTOR ( 'NONE', #114, 39.37007874015748143 ) ;
#322 = CIRCLE ( 'NONE', #169, 0.04750000000000064587 ) ;
#323 = LINE ( 'NONE', #263, #321 ) ;
#324 = ORIENTED_EDGE ( 'NONE', *, *, #125, .F. ) ;
#325 = DIRECTION ( 'NONE',  ( 0.0000000000000000000, 0.0000000000000000000, 1.000000000000000000 ) ) ;
ENDSEC;
END-ISO-10303-21;
