ISO-10303-21;
HEADER;
FILE_DESCRIPTION (( 'STEP AP214' ),
    '1' );
FILE_NAME ('Micro_RTC-375-2.STEP',
    '2021-09-03T18:16:22',
    ( '' ),
    ( '' ),
    'SwSTEP 2.0',
    'SolidWorks 2020',
    '' );
FILE_SCHEMA (( 'AUTOMOTIVE_DESIGN' ));
ENDSEC;

DATA;
#1 = DIMENSIONAL_EXPONENTS ( 1.000000000000000000, 0.0000000000000000000, 0.0000000000000000000, 0.0000000000000000000, 0.0000000000000000000, 0.0000000000000000000, 0.0000000000000000000 ) ;
#2 = CARTESIAN_POINT ( 'NONE',  ( 0.0000000000000000000, 0.0000000000000000000, 2.500000000000000000 ) ) ;
#3 = CARTESIAN_POINT ( 'NONE',  ( 0.003999999999999999216, 0.0000000000000000000, 2.500000000000000000 ) ) ;
#4 = AXIS2_PLACEMENT_3D ( 'NONE', #95, #148, #227 ) ;
#5 = DIRECTION ( 'NONE',  ( 0.0000000000000000000, 0.0000000000000000000, 1.000000000000000000 ) ) ;
#6 = PRODUCT_RELATED_PRODUCT_CATEGORY ( 'part', '', ( #206 ) ) ;
#7 =( GEOMETRIC_REPRESENTATION_CONTEXT ( 3 ) GLOBAL_UNCERTAINTY_ASSIGNED_CONTEXT ( ( #240 ) ) GLOBAL_UNIT_ASSIGNED_CONTEXT ( ( #200, #242, #203 ) ) REPRESENTATION_CONTEXT ( 'NONE', 'WORKASPACE' ) );
#8 = LINE ( 'NONE', #196, #73 ) ;
#9 = DIRECTION ( 'NONE',  ( -0.0000000000000000000, -0.0000000000000000000, -1.000000000000000000 ) ) ;
#10 = CIRCLE ( 'NONE', #213, 0.1875000000000000278 ) ;
#11 = FACE_OUTER_BOUND ( 'NONE', #187, .T. ) ;
#12 =( NAMED_UNIT ( * ) SI_UNIT ( $, .STERADIAN. ) SOLID_ANGLE_UNIT ( ) );
#13 = APPLICATION_CONTEXT ( 'automotive_design' ) ;
#14 = EDGE_CURVE ( 'NONE', #177, #136, #228, .T. ) ;
#15 = PRESENTATION_LAYER_ASSIGNMENT (  '', '', ( #119 ) ) ;
#16 = AXIS2_PLACEMENT_3D ( 'NONE', #69, #9, #197 ) ;
#17 = ORIENTED_EDGE ( 'NONE', *, *, #86, .F. ) ;
#18 = CARTESIAN_POINT ( 'NONE',  ( 0.1875000000000000278, 2.296212748401287726E-17, 2.500000000000000000 ) ) ;
#19 = VERTEX_POINT ( 'NONE', #178 ) ;
#20 = AXIS2_PLACEMENT_3D ( 'NONE', #106, #175, #234 ) ;
#21 = EDGE_CURVE ( 'NONE', #19, #122, #10, .T. ) ;
#22 = SURFACE_STYLE_FILL_AREA ( #216 ) ;
#23 = CIRCLE ( 'NONE', #45, 0.1875000000000000278 ) ;
#24 = VERTEX_POINT ( 'NONE', #126 ) ;
#25 = ORIENTED_EDGE ( 'NONE', *, *, #14, .T. ) ;
#26 = APPLICATION_PROTOCOL_DEFINITION ( 'draft international standard', 'automotive_design', 1998, #13 ) ;
#27 = APPLICATION_CONTEXT ( 'automotive_design' ) ;
#28 = APPLICATION_PROTOCOL_DEFINITION ( 'draft international standard', 'automotive_design', 1998, #27 ) ;
#29 = DIRECTION ( 'NONE',  ( -1.000000000000000000, 0.0000000000000000000, 0.0000000000000000000 ) ) ;
#30 = CONICAL_SURFACE ( 'NONE', #221, 0.003999999999999999216, 0.2617993877991502960 ) ;
#31 = EDGE_CURVE ( 'NONE', #246, #24, #249, .T. ) ;
#32 = EDGE_LOOP ( 'NONE', ( #233, #189, #166, #183 ) ) ;
#33 = ORIENTED_EDGE ( 'NONE', *, *, #121, .T. ) ;
#34 = VERTEX_POINT ( 'NONE', #154 ) ;
#35 = ORIENTED_EDGE ( 'NONE', *, *, #167, .T. ) ;
#36 = AXIS2_PLACEMENT_3D ( 'NONE', #2, #150, #60 ) ;
#37 = DIRECTION ( 'NONE',  ( -0.2588190451025216832, -3.169619151431776035E-17, -0.9659258262890679791 ) ) ;
#38 = DIRECTION ( 'NONE',  ( 0.0000000000000000000, 0.0000000000000000000, -1.000000000000000000 ) ) ;
#39 = DIRECTION ( 'NONE',  ( -1.000000000000000000, 0.0000000000000000000, 0.0000000000000000000 ) ) ;
#40 = AXIS2_PLACEMENT_3D ( 'NONE', #243, #181, #29 ) ;
#41 = CONICAL_SURFACE ( 'NONE', #210, 0.003999999999999999216, 0.2617993877991502960 ) ;
#42 = DIRECTION ( 'NONE',  ( 1.000000000000000000, 0.0000000000000000000, -0.0000000000000000000 ) ) ;
#43 = ADVANCED_FACE ( 'NONE', ( #156 ), #230, .F. ) ;
#44 = SURFACE_STYLE_USAGE ( .BOTH. , #99 ) ;
#45 = AXIS2_PLACEMENT_3D ( 'NONE', #123, #182, #218 ) ;
#46 = SURFACE_STYLE_USAGE ( .BOTH. , #219 ) ;
#47 = EDGE_LOOP ( 'NONE', ( #163, #238, #93, #62 ) ) ;
#48 = DIRECTION ( 'NONE',  ( -0.0000000000000000000, -0.0000000000000000000, -1.000000000000000000 ) ) ;
#49 = DIRECTION ( 'NONE',  ( -1.000000000000000000, 0.0000000000000000000, 0.0000000000000000000 ) ) ;
#50 = CARTESIAN_POINT ( 'NONE',  ( 0.0000000000000000000, 0.0000000000000000000, 2.500000000000000000 ) ) ;
#51 = DIRECTION ( 'NONE',  ( -1.000000000000000000, 0.0000000000000000000, 0.0000000000000000000 ) ) ;
#52 = MECHANICAL_DESIGN_GEOMETRIC_PRESENTATION_REPRESENTATION (  '', ( #176 ), #77 ) ;
#53 = DIRECTION ( 'NONE',  ( -0.0000000000000000000, -0.0000000000000000000, -1.000000000000000000 ) ) ;
#54 = DIRECTION ( 'NONE',  ( -0.0000000000000000000, -0.0000000000000000000, -1.000000000000000000 ) ) ;
#55 = ORIENTED_EDGE ( 'NONE', *, *, #179, .T. ) ;
#56 = VECTOR ( 'NONE', #143, 39.37007874015748143 ) ;
#57 = ORIENTED_EDGE ( 'NONE', *, *, #31, .T. ) ;
#58 = DIMENSIONAL_EXPONENTS ( 1.000000000000000000, 0.0000000000000000000, 0.0000000000000000000, 0.0000000000000000000, 0.0000000000000000000, 0.0000000000000000000, 0.0000000000000000000 ) ;
#59 = DIRECTION ( 'NONE',  ( -1.000000000000000000, 0.0000000000000000000, 0.0000000000000000000 ) ) ;
#60 = DIRECTION ( 'NONE',  ( 1.000000000000000000, 0.0000000000000000000, 0.0000000000000000000 ) ) ;
#61 = CARTESIAN_POINT ( 'NONE',  ( -0.003999999999999999216, -4.898587196589411612E-19, 2.500000000000000000 ) ) ;
#62 = ORIENTED_EDGE ( 'NONE', *, *, #167, .F. ) ;
#63 = AXIS2_PLACEMENT_3D ( 'NONE', #65, #232, #42 ) ;
#64 = CONICAL_SURFACE ( 'NONE', #36, 0.003999999999999999216, 0.2617993877991502960 ) ;
#65 = CARTESIAN_POINT ( 'NONE',  ( 0.0000000000000000000, 0.0000000000000000000, 0.0000000000000000000 ) ) ;
#66 = MANIFOLD_SOLID_BREP ( 'Mirror1', #88 ) ;
#67 = EDGE_LOOP ( 'NONE', ( #115, #57, #35, #192 ) ) ;
#68 = PRODUCT_CONTEXT ( 'NONE', #13, 'mechanical' ) ;
#69 = CARTESIAN_POINT ( 'NONE',  ( 0.0000000000000000000, 0.0000000000000000000, 0.0000000000000000000 ) ) ;
#70 =( LENGTH_UNIT ( ) NAMED_UNIT ( * ) SI_UNIT ( $, .METRE. ) );
#71 = EDGE_LOOP ( 'NONE', ( #17, #33, #217, #82 ) ) ;
#72 =( NAMED_UNIT ( * ) PLANE_ANGLE_UNIT ( ) SI_UNIT ( $, .RADIAN. ) );
#73 = VECTOR ( 'NONE', #105, 39.37007874015748143 ) ;
#74 = SURFACE_STYLE_FILL_AREA ( #84 ) ;
#75 = CYLINDRICAL_SURFACE ( 'NONE', #131, 0.1875000000000000278 ) ;
#76 = ADVANCED_FACE ( 'NONE', ( #109 ), #75, .T. ) ;
#77 =( GEOMETRIC_REPRESENTATION_CONTEXT ( 3 ) GLOBAL_UNCERTAINTY_ASSIGNED_CONTEXT ( ( #193 ) ) GLOBAL_UNIT_ASSIGNED_CONTEXT ( ( #157, #138, #12 ) ) REPRESENTATION_CONTEXT ( 'NONE', 'WORKASPACE' ) );
#78 = FACE_OUTER_BOUND ( 'NONE', #185, .T. ) ;
#79 = CIRCLE ( 'NONE', #144, 0.003999999999999999216 ) ;
#80 = LINE ( 'NONE', #18, #111 ) ;
#81 = EDGE_CURVE ( 'NONE', #122, #19, #169, .T. ) ;
#82 = ORIENTED_EDGE ( 'NONE', *, *, #226, .F. ) ;
#83 = EDGE_LOOP ( 'NONE', ( #225, #118, #199, #215 ) ) ;
#84 = FILL_AREA_STYLE ('',( #202 ) ) ;
#85 = CARTESIAN_POINT ( 'NONE',  ( 0.1875000000000000278, 2.296212748401287726E-17, 1.815168676811113713 ) ) ;
#86 = EDGE_CURVE ( 'NONE', #34, #24, #96, .T. ) ;
#87 = FACE_OUTER_BOUND ( 'NONE', #71, .T. ) ;
#88 = CLOSED_SHELL ( 'NONE', ( #149, #116, #76, #162, #100, #43, #152, #248 ) ) ;
#89 = PRODUCT_DEFINITION_FORMATION_WITH_SPECIFIED_SOURCE ( 'ANY', '', #206, .NOT_KNOWN. ) ;
#90 = PRODUCT_DEFINITION_SHAPE ( 'NONE', 'NONE',  #236 ) ;
#91 = FACE_OUTER_BOUND ( 'NONE', #67, .T. ) ;
#92 = COLOUR_RGB ( '',0.7921568627450980005, 0.8196078431372548767, 0.9333333333333333481 ) ;
#93 = ORIENTED_EDGE ( 'NONE', *, *, #21, .F. ) ;
#94 = PRESENTATION_LAYER_ASSIGNMENT (  '', '', ( #176 ) ) ;
#95 = CARTESIAN_POINT ( 'NONE',  ( 0.0000000000000000000, 0.0000000000000000000, 0.0000000000000000000 ) ) ;
#96 = LINE ( 'NONE', #61, #235 ) ;
#97 = ADVANCED_BREP_SHAPE_REPRESENTATION ( 'Micro_RTC-375-2', ( #66, #224 ), #155 ) ;
#98 = VECTOR ( 'NONE', #195, 39.37007874015748143 ) ;
#99 = SURFACE_SIDE_STYLE ('',( #22 ) ) ;
#100 = ADVANCED_FACE ( 'NONE', ( #133 ), #158, .T. ) ;
#101 = CIRCLE ( 'NONE', #16, 0.003999999999999999216 ) ;
#102 = PRODUCT_DEFINITION_CONTEXT ( 'detailed design', #27, 'design' ) ;
#103 = PRESENTATION_STYLE_ASSIGNMENT (( #44 ) ) ;
#104 = SHAPE_DEFINITION_REPRESENTATION ( #90, #97 ) ;
#105 = DIRECTION ( 'NONE',  ( -0.2588190451025216832, 3.169619151431776035E-17, 0.9659258262890679791 ) ) ;
#106 = CARTESIAN_POINT ( 'NONE',  ( 0.0000000000000000000, 0.0000000000000000000, 2.500000000000000000 ) ) ;
#107 = DIRECTION ( 'NONE',  ( -1.000000000000000000, 0.0000000000000000000, 0.0000000000000000000 ) ) ;
#108 = PRESENTATION_STYLE_ASSIGNMENT (( #46 ) ) ;
#109 = FACE_OUTER_BOUND ( 'NONE', #47, .T. ) ;
#110 = VERTEX_POINT ( 'NONE', #3 ) ;
#111 = VECTOR ( 'NONE', #151, 39.37007874015748143 ) ;
#112 = FACE_OUTER_BOUND ( 'NONE', #83, .T. ) ;
#113 = CARTESIAN_POINT ( 'NONE',  ( 0.1875000000000000278, 2.296212748401287726E-17, 0.6848313231888862873 ) ) ;
#114 = DIRECTION ( 'NONE',  ( 0.0000000000000000000, 0.0000000000000000000, 1.000000000000000000 ) ) ;
#115 = ORIENTED_EDGE ( 'NONE', *, *, #130, .F. ) ;
#116 = ADVANCED_FACE ( 'NONE', ( #78 ), #30, .T. ) ;
#117 = UNCERTAINTY_MEASURE_WITH_UNIT (LENGTH_MEASURE( 1.000000000000000082E-05 ), #141, 'distance_accuracy_value', 'NONE');
#118 = ORIENTED_EDGE ( 'NONE', *, *, #86, .T. ) ;
#119 = STYLED_ITEM ( 'NONE', ( #103 ), #66 ) ;
#120 = CYLINDRICAL_SURFACE ( 'NONE', #201, 0.1875000000000000278 ) ;
#121 = EDGE_CURVE ( 'NONE', #34, #110, #79, .T. ) ;
#122 = VERTEX_POINT ( 'NONE', #113 ) ;
#123 = CARTESIAN_POINT ( 'NONE',  ( 0.0000000000000000000, 0.0000000000000000000, 1.815168676811113713 ) ) ;
#124 = LINE ( 'NONE', #244, #56 ) ;
#125 = DIRECTION ( 'NONE',  ( 1.000000000000000000, 0.0000000000000000000, 0.0000000000000000000 ) ) ;
#126 = CARTESIAN_POINT ( 'NONE',  ( -0.1875000000000000278, 0.0000000000000000000, 1.815168676811113713 ) ) ;
#127 =( LENGTH_UNIT ( ) NAMED_UNIT ( * ) SI_UNIT ( $, .METRE. ) );
#128 = CARTESIAN_POINT ( 'NONE',  ( 0.0000000000000000000, 0.0000000000000000000, 2.500000000000000000 ) ) ;
#129 = DIRECTION ( 'NONE',  ( 0.0000000000000000000, 0.0000000000000000000, 1.000000000000000000 ) ) ;
#130 = EDGE_CURVE ( 'NONE', #246, #122, #80, .T. ) ;
#131 = AXIS2_PLACEMENT_3D ( 'NONE', #223, #54, #39 ) ;
#132 = CARTESIAN_POINT ( 'NONE',  ( 0.0000000000000000000, 0.0000000000000000000, 2.500000000000000000 ) ) ;
#133 = FACE_OUTER_BOUND ( 'NONE', #32, .T. ) ;
#134 = DIRECTION ( 'NONE',  ( 1.000000000000000000, 0.0000000000000000000, 0.0000000000000000000 ) ) ;
#135 = EDGE_CURVE ( 'NONE', #177, #122, #229, .T. ) ;
#136 = VERTEX_POINT ( 'NONE', #188 ) ;
#137 = CIRCLE ( 'NONE', #20, 0.003999999999999999216 ) ;
#138 =( NAMED_UNIT ( * ) PLANE_ANGLE_UNIT ( ) SI_UNIT ( $, .RADIAN. ) );
#139 = DIRECTION ( 'NONE',  ( -0.0000000000000000000, -0.0000000000000000000, -1.000000000000000000 ) ) ;
#140 = ORIENTED_EDGE ( 'NONE', *, *, #135, .F. ) ;
#141 =( CONVERSION_BASED_UNIT ( 'INCH', #212 ) LENGTH_UNIT ( ) NAMED_UNIT ( #1 ) );
#142 = ORIENTED_EDGE ( 'NONE', *, *, #121, .F. ) ;
#143 = DIRECTION ( 'NONE',  ( 0.2588190451025216832, 0.0000000000000000000, -0.9659258262890679791 ) ) ;
#144 = AXIS2_PLACEMENT_3D ( 'NONE', #132, #38, #170 ) ;
#145 = LINE ( 'NONE', #247, #98 ) ;
#146 = AXIS2_PLACEMENT_3D ( 'NONE', #222, #53, #107 ) ;
#147 = VECTOR ( 'NONE', #209, 39.37007874015748143 ) ;
#148 = DIRECTION ( 'NONE',  ( 0.0000000000000000000, 0.0000000000000000000, 1.000000000000000000 ) ) ;
#149 = ADVANCED_FACE ( 'NONE', ( #112 ), #64, .T. ) ;
#150 = DIRECTION ( 'NONE',  ( 0.0000000000000000000, 0.0000000000000000000, -1.000000000000000000 ) ) ;
#151 = DIRECTION ( 'NONE',  ( -0.0000000000000000000, -0.0000000000000000000, -1.000000000000000000 ) ) ;
#152 = ADVANCED_FACE ( 'NONE', ( #87 ), #41, .T. ) ;
#153 = ORIENTED_EDGE ( 'NONE', *, *, #21, .T. ) ;
#154 = CARTESIAN_POINT ( 'NONE',  ( -0.003999999999999999216, -1.172599310183590411E-17, 2.500000000000000000 ) ) ;
#155 =( GEOMETRIC_REPRESENTATION_CONTEXT ( 3 ) GLOBAL_UNCERTAINTY_ASSIGNED_CONTEXT ( ( #117 ) ) GLOBAL_UNIT_ASSIGNED_CONTEXT ( ( #141, #72, #161 ) ) REPRESENTATION_CONTEXT ( 'NONE', 'WORKASPACE' ) );
#156 = FACE_OUTER_BOUND ( 'NONE', #205, .T. ) ;
#157 =( CONVERSION_BASED_UNIT ( 'INCH', #190 ) LENGTH_UNIT ( ) NAMED_UNIT ( #58 ) );
#158 = CONICAL_SURFACE ( 'NONE', #4, 0.003999999999999999216, 0.2617993877991502960 ) ;
#159 = ORIENTED_EDGE ( 'NONE', *, *, #179, .F. ) ;
#160 = CARTESIAN_POINT ( 'NONE',  ( 0.0000000000000000000, 0.0000000000000000000, 0.6848313231888862873 ) ) ;
#161 =( NAMED_UNIT ( * ) SI_UNIT ( $, .STERADIAN. ) SOLID_ANGLE_UNIT ( ) );
#162 = ADVANCED_FACE ( 'NONE', ( #91 ), #120, .T. ) ;
#163 = ORIENTED_EDGE ( 'NONE', *, *, #226, .T. ) ;
#164 = DIRECTION ( 'NONE',  ( 0.0000000000000000000, 0.0000000000000000000, -1.000000000000000000 ) ) ;
#165 = AXIS2_PLACEMENT_3D ( 'NONE', #237, #114, #241 ) ;
#166 = ORIENTED_EDGE ( 'NONE', *, *, #135, .T. ) ;
#167 = EDGE_CURVE ( 'NONE', #24, #19, #145, .T. ) ;
#168 = LENGTH_MEASURE_WITH_UNIT ( LENGTH_MEASURE( 0.02539999999999999897 ), #127 );
#169 = CIRCLE ( 'NONE', #245, 0.1875000000000000278 ) ;
#170 = DIRECTION ( 'NONE',  ( -1.000000000000000000, 0.0000000000000000000, 0.0000000000000000000 ) ) ;
#171 = CARTESIAN_POINT ( 'NONE',  ( 0.003999999999999999216, 0.0000000000000000000, 0.0000000000000000000 ) ) ;
#172 = CARTESIAN_POINT ( 'NONE',  ( 0.0000000000000000000, 0.0000000000000000000, 0.6848313231888862873 ) ) ;
#173 = CARTESIAN_POINT ( 'NONE',  ( 0.0000000000000000000, 0.0000000000000000000, 0.0000000000000000000 ) ) ;
#174 = CARTESIAN_POINT ( 'NONE',  ( 0.003999999999999999216, 0.0000000000000000000, 0.0000000000000000000 ) ) ;
#175 = DIRECTION ( 'NONE',  ( 0.0000000000000000000, 0.0000000000000000000, -1.000000000000000000 ) ) ;
#176 = STYLED_ITEM ( 'NONE', ( #108 ), #97 ) ;
#177 = VERTEX_POINT ( 'NONE', #174 ) ;
#178 = CARTESIAN_POINT ( 'NONE',  ( -0.1875000000000000278, 0.0000000000000000000, 0.6848313231888862873 ) ) ;
#179 = EDGE_CURVE ( 'NONE', #136, #177, #101, .T. ) ;
#180 =( LENGTH_UNIT ( ) NAMED_UNIT ( * ) SI_UNIT ( $, .METRE. ) );
#181 = DIRECTION ( 'NONE',  ( 0.0000000000000000000, 0.0000000000000000000, -1.000000000000000000 ) ) ;
#182 = DIRECTION ( 'NONE',  ( 0.0000000000000000000, 0.0000000000000000000, -1.000000000000000000 ) ) ;
#183 = ORIENTED_EDGE ( 'NONE', *, *, #81, .T. ) ;
#184 = MECHANICAL_DESIGN_GEOMETRIC_PRESENTATION_REPRESENTATION (  '', ( #119 ), #7 ) ;
#185 = EDGE_LOOP ( 'NONE', ( #159, #204, #153, #140 ) ) ;
#186 = DIRECTION ( 'NONE',  ( 1.000000000000000000, 0.0000000000000000000, 0.0000000000000000000 ) ) ;
#187 = EDGE_LOOP ( 'NONE', ( #220, #142 ) ) ;
#188 = CARTESIAN_POINT ( 'NONE',  ( -0.003999999999999999216, 1.172599310183590411E-17, 0.0000000000000000000 ) ) ;
#189 = ORIENTED_EDGE ( 'NONE', *, *, #14, .F. ) ;
#190 = LENGTH_MEASURE_WITH_UNIT ( LENGTH_MEASURE( 0.02539999999999999897 ), #180 );
#191 = FILL_AREA_STYLE_COLOUR ( '', #92 ) ;
#192 = ORIENTED_EDGE ( 'NONE', *, *, #81, .F. ) ;
#193 = UNCERTAINTY_MEASURE_WITH_UNIT (LENGTH_MEASURE( 1.000000000000000082E-05 ), #157, 'distance_accuracy_value', 'NONE');
#194 = COLOUR_RGB ( '',0.7921568627450980005, 0.8196078431372548767, 0.9333333333333333481 ) ;
#195 = DIRECTION ( 'NONE',  ( -0.0000000000000000000, -0.0000000000000000000, -1.000000000000000000 ) ) ;
#196 = CARTESIAN_POINT ( 'NONE',  ( -0.003999999999999999216, 4.898587196589411612E-19, 0.0000000000000000000 ) ) ;
#197 = DIRECTION ( 'NONE',  ( -1.000000000000000000, 0.0000000000000000000, 0.0000000000000000000 ) ) ;
#198 = EDGE_CURVE ( 'NONE', #110, #34, #137, .T. ) ;
#199 = ORIENTED_EDGE ( 'NONE', *, *, #31, .F. ) ;
#200 =( CONVERSION_BASED_UNIT ( 'INCH', #168 ) LENGTH_UNIT ( ) NAMED_UNIT ( #208 ) );
#201 = AXIS2_PLACEMENT_3D ( 'NONE', #128, #48, #49 ) ;
#202 = FILL_AREA_STYLE_COLOUR ( '', #194 ) ;
#203 =( NAMED_UNIT ( * ) SI_UNIT ( $, .STERADIAN. ) SOLID_ANGLE_UNIT ( ) );
#204 = ORIENTED_EDGE ( 'NONE', *, *, #207, .T. ) ;
#205 = EDGE_LOOP ( 'NONE', ( #25, #55 ) ) ;
#206 = PRODUCT ( 'Micro_RTC-375-2', 'Micro_RTC-375-2', '', ( #68 ) ) ;
#207 = EDGE_CURVE ( 'NONE', #136, #19, #8, .T. ) ;
#208 = DIMENSIONAL_EXPONENTS ( 1.000000000000000000, 0.0000000000000000000, 0.0000000000000000000, 0.0000000000000000000, 0.0000000000000000000, 0.0000000000000000000, 0.0000000000000000000 ) ;
#209 = DIRECTION ( 'NONE',  ( 0.2588190451025216832, 0.0000000000000000000, 0.9659258262890679791 ) ) ;
#210 = AXIS2_PLACEMENT_3D ( 'NONE', #50, #164, #125 ) ;
#211 = CARTESIAN_POINT ( 'NONE',  ( 0.0000000000000000000, 0.0000000000000000000, 0.0000000000000000000 ) ) ;
#212 = LENGTH_MEASURE_WITH_UNIT ( LENGTH_MEASURE( 0.02539999999999999897 ), #70 );
#213 = AXIS2_PLACEMENT_3D ( 'NONE', #160, #239, #51 ) ;
#214 = PLANE ( 'NONE',  #165 ) ;
#215 = ORIENTED_EDGE ( 'NONE', *, *, #231, .F. ) ;
#216 = FILL_AREA_STYLE ('',( #191 ) ) ;
#217 = ORIENTED_EDGE ( 'NONE', *, *, #231, .T. ) ;
#218 = DIRECTION ( 'NONE',  ( -1.000000000000000000, 0.0000000000000000000, 0.0000000000000000000 ) ) ;
#219 = SURFACE_SIDE_STYLE ('',( #74 ) ) ;
#220 = ORIENTED_EDGE ( 'NONE', *, *, #198, .F. ) ;
#221 = AXIS2_PLACEMENT_3D ( 'NONE', #211, #129, #186 ) ;
#222 = CARTESIAN_POINT ( 'NONE',  ( 0.0000000000000000000, 0.0000000000000000000, 0.0000000000000000000 ) ) ;
#223 = CARTESIAN_POINT ( 'NONE',  ( 0.0000000000000000000, 0.0000000000000000000, 2.500000000000000000 ) ) ;
#224 = AXIS2_PLACEMENT_3D ( 'NONE', #173, #5, #134 ) ;
#225 = ORIENTED_EDGE ( 'NONE', *, *, #198, .T. ) ;
#226 = EDGE_CURVE ( 'NONE', #24, #246, #23, .T. ) ;
#227 = DIRECTION ( 'NONE',  ( 1.000000000000000000, 0.0000000000000000000, 0.0000000000000000000 ) ) ;
#228 = CIRCLE ( 'NONE', #146, 0.003999999999999999216 ) ;
#229 = LINE ( 'NONE', #171, #147 ) ;
#230 = PLANE ( 'NONE',  #63 ) ;
#231 = EDGE_CURVE ( 'NONE', #110, #246, #124, .T. ) ;
#232 = DIRECTION ( 'NONE',  ( 0.0000000000000000000, 0.0000000000000000000, 1.000000000000000000 ) ) ;
#233 = ORIENTED_EDGE ( 'NONE', *, *, #207, .F. ) ;
#234 = DIRECTION ( 'NONE',  ( -1.000000000000000000, 0.0000000000000000000, 0.0000000000000000000 ) ) ;
#235 = VECTOR ( 'NONE', #37, 39.37007874015748143 ) ;
#236 = PRODUCT_DEFINITION ( 'UNKNOWN', '', #89, #102 ) ;
#237 = CARTESIAN_POINT ( 'NONE',  ( 0.0000000000000000000, 0.0000000000000000000, 2.500000000000000000 ) ) ;
#238 = ORIENTED_EDGE ( 'NONE', *, *, #130, .T. ) ;
#239 = DIRECTION ( 'NONE',  ( -0.0000000000000000000, -0.0000000000000000000, -1.000000000000000000 ) ) ;
#240 = UNCERTAINTY_MEASURE_WITH_UNIT (LENGTH_MEASURE( 1.000000000000000082E-05 ), #200, 'distance_accuracy_value', 'NONE');
#241 = DIRECTION ( 'NONE',  ( 1.000000000000000000, 0.0000000000000000000, -0.0000000000000000000 ) ) ;
#242 =( NAMED_UNIT ( * ) PLANE_ANGLE_UNIT ( ) SI_UNIT ( $, .RADIAN. ) );
#243 = CARTESIAN_POINT ( 'NONE',  ( 0.0000000000000000000, 0.0000000000000000000, 1.815168676811113713 ) ) ;
#244 = CARTESIAN_POINT ( 'NONE',  ( 0.003999999999999999216, 0.0000000000000000000, 2.500000000000000000 ) ) ;
#245 = AXIS2_PLACEMENT_3D ( 'NONE', #172, #139, #59 ) ;
#246 = VERTEX_POINT ( 'NONE', #85 ) ;
#247 = CARTESIAN_POINT ( 'NONE',  ( -0.1875000000000000278, 0.0000000000000000000, 2.500000000000000000 ) ) ;
#248 = ADVANCED_FACE ( 'NONE', ( #11 ), #214, .T. ) ;
#249 = CIRCLE ( 'NONE', #40, 0.1875000000000000278 ) ;
ENDSEC;
END-ISO-10303-21;
