ISO-10303-21;
HEADER;
FILE_DESCRIPTION (( 'STEP AP214' ),
    '1' );
FILE_NAME ('Micro_BMS-040-2X.STEP',
    '2021-09-03T15:20:17',
    ( '' ),
    ( '' ),
    'SwSTEP 2.0',
    'SolidWorks 2020',
    '' );
FILE_SCHEMA (( 'AUTOMOTIVE_DESIGN' ));
ENDSEC;

DATA;
#1 = DIRECTION ( 'NONE',  ( -1.224646799147353454E-16, -0.0000000000000000000, -1.000000000000000000 ) ) ;
#2 = ORIENTED_EDGE ( 'NONE', *, *, #317, .F. ) ;
#3 = ORIENTED_EDGE ( 'NONE', *, *, #190, .T. ) ;
#4 = FACE_OUTER_BOUND ( 'NONE', #215, .T. ) ;
#5 = EDGE_LOOP ( 'NONE', ( #34, #243, #157 ) ) ;
#6 = MECHANICAL_DESIGN_GEOMETRIC_PRESENTATION_REPRESENTATION (  '', ( #282 ), #172 ) ;
#7 = DIRECTION ( 'NONE',  ( 1.000000000000000000, 0.0000000000000000000, 0.0000000000000000000 ) ) ;
#8 = ORIENTED_EDGE ( 'NONE', *, *, #190, .F. ) ;
#9 = SURFACE_SIDE_STYLE ('',( #103 ) ) ;
#10 = DIRECTION ( 'NONE',  ( -0.0000000000000000000, -0.0000000000000000000, -1.000000000000000000 ) ) ;
#11 = ORIENTED_EDGE ( 'NONE', *, *, #105, .F. ) ;
#12 = CARTESIAN_POINT ( 'NONE',  ( 0.0000000000000000000, 0.0000000000000000000, 1.500000000000000222 ) ) ;
#13 = CARTESIAN_POINT ( 'NONE',  ( 0.0000000000000000000, 0.0000000000000000000, 0.0000000000000000000 ) ) ;
#14 = DIRECTION ( 'NONE',  ( 1.000000000000000000, 0.0000000000000000000, 0.0000000000000000000 ) ) ;
#15 = PRODUCT_CONTEXT ( 'NONE', #312, 'mechanical' ) ;
#16 = FACE_OUTER_BOUND ( 'NONE', #192, .T. ) ;
#17 = AXIS2_PLACEMENT_3D ( 'NONE', #299, #221, #199 ) ;
#18 = DIRECTION ( 'NONE',  ( 0.0000000000000000000, 1.000000000000000000, 0.0000000000000000000 ) ) ;
#19 = CIRCLE ( 'NONE', #254, 0.01998000000000000123 ) ;
#20 = SPHERICAL_SURFACE ( 'NONE', #177, 0.01998000000000000123 ) ;
#21 = CIRCLE ( 'NONE', #91, 0.01998000000000000470 ) ;
#22 = CARTESIAN_POINT ( 'NONE',  ( 0.01998000000000000470, 2.446844304696411883E-18, 0.01997999999999999776 ) ) ;
#23 = EDGE_LOOP ( 'NONE', ( #181, #24, #158, #95 ) ) ;
#24 = ORIENTED_EDGE ( 'NONE', *, *, #25, .T. ) ;
#25 = EDGE_CURVE ( 'NONE', #133, #26, #226, .T. ) ;
#26 = VERTEX_POINT ( 'NONE', #200 ) ;
#27 = FILL_AREA_STYLE_COLOUR ( '', #97 ) ;
#28 = ORIENTED_EDGE ( 'NONE', *, *, #52, .F. ) ;
#29 = CIRCLE ( 'NONE', #71, 0.06250000000000000000 ) ;
#30 = VECTOR ( 'NONE', #193, 39.37007874015748143 ) ;
#31 = VERTEX_POINT ( 'NONE', #108 ) ;
#32 = ORIENTED_EDGE ( 'NONE', *, *, #260, .F. ) ;
#33 = DIRECTION ( 'NONE',  ( 0.0000000000000000000, 0.0000000000000000000, 1.000000000000000000 ) ) ;
#34 = ORIENTED_EDGE ( 'NONE', *, *, #139, .F. ) ;
#35 = CARTESIAN_POINT ( 'NONE',  ( 0.0000000000000000000, 0.0000000000000000000, 0.0000000000000000000 ) ) ;
#36 = CIRCLE ( 'NONE', #75, 0.04750000000000064587 ) ;
#37 = DIRECTION ( 'NONE',  ( 0.0000000000000000000, 0.0000000000000000000, -1.000000000000000000 ) ) ;
#38 = CIRCLE ( 'NONE', #102, 0.01998000000000000123 ) ;
#39 = DIRECTION ( 'NONE',  ( 0.0000000000000000000, 0.0000000000000000000, 1.000000000000000000 ) ) ;
#40 = UNCERTAINTY_MEASURE_WITH_UNIT (LENGTH_MEASURE( 1.000000000000000082E-05 ), #45, 'distance_accuracy_value', 'NONE');
#41 = APPLICATION_CONTEXT ( 'automotive_design' ) ;
#42 = DIRECTION ( 'NONE',  ( 1.000000000000000000, 0.0000000000000000000, -0.0000000000000000000 ) ) ;
#43 = LINE ( 'NONE', #90, #145 ) ;
#44 = ORIENTED_EDGE ( 'NONE', *, *, #219, .F. ) ;
#45 =( CONVERSION_BASED_UNIT ( 'INCH', #201 ) LENGTH_UNIT ( ) NAMED_UNIT ( #268 ) );
#46 = PRESENTATION_STYLE_ASSIGNMENT (( #127 ) ) ;
#47 = ADVANCED_FACE ( 'NONE', ( #306 ), #54, .T. ) ;
#48 = CARTESIAN_POINT ( 'NONE',  ( 7.347880794884121462E-18, 0.0000000000000000000, 0.05999999999999999778 ) ) ;
#49 = SPHERICAL_SURFACE ( 'NONE', #137, 0.01998000000000000123 ) ;
#50 = ORIENTED_EDGE ( 'NONE', *, *, #279, .T. ) ;
#51 = CARTESIAN_POINT ( 'NONE',  ( 3.670266457044618402E-18, 0.0000000000000000000, 0.0000000000000000000 ) ) ;
#52 = EDGE_CURVE ( 'NONE', #175, #280, #276, .T. ) ;
#53 =( NAMED_UNIT ( * ) SI_UNIT ( $, .STERADIAN. ) SOLID_ANGLE_UNIT ( ) );
#54 = CYLINDRICAL_SURFACE ( 'NONE', #169, 0.06250000000000000000 ) ;
#55 = DIRECTION ( 'NONE',  ( 0.0000000000000000000, 0.0000000000000000000, 1.000000000000000000 ) ) ;
#56 = SURFACE_SIDE_STYLE ('',( #84 ) ) ;
#57 = CONICAL_SURFACE ( 'NONE', #131, 0.01998000000000000470, 0.1745329251994338915 ) ;
#58 = CARTESIAN_POINT ( 'NONE',  ( 0.06250000000000000000, 7.654042494670956004E-18, 1.485000000000000764 ) ) ;
#59 = DIRECTION ( 'NONE',  ( 0.0000000000000000000, 0.0000000000000000000, -1.000000000000000000 ) ) ;
#60 = DIRECTION ( 'NONE',  ( 0.0000000000000000000, -1.000000000000000000, 0.0000000000000000000 ) ) ;
#61 = DIMENSIONAL_EXPONENTS ( 1.000000000000000000, 0.0000000000000000000, 0.0000000000000000000, 0.0000000000000000000, 0.0000000000000000000, 0.0000000000000000000, 0.0000000000000000000 ) ;
#62 = UNCERTAINTY_MEASURE_WITH_UNIT (LENGTH_MEASURE( 1.000000000000000082E-05 ), #245, 'distance_accuracy_value', 'NONE');
#63 = FACE_OUTER_BOUND ( 'NONE', #287, .T. ) ;
#64 = CIRCLE ( 'NONE', #266, 0.01998000000000000123 ) ;
#65 = DIRECTION ( 'NONE',  ( -1.000000000000000000, 1.224646799147353207E-16, 0.0000000000000000000 ) ) ;
#66 = ORIENTED_EDGE ( 'NONE', *, *, #267, .T. ) ;
#67 = LINE ( 'NONE', #273, #269 ) ;
#68 = CARTESIAN_POINT ( 'NONE',  ( -0.04750000000000064587, 0.0000000000000000000, 1.500000000000000222 ) ) ;
#69 = ORIENTED_EDGE ( 'NONE', *, *, #216, .T. ) ;
#70 = PRODUCT ( 'Micro_BMS-040-2X', 'Micro_BMS-040-2X', '', ( #15 ) ) ;
#71 = AXIS2_PLACEMENT_3D ( 'NONE', #189, #125, #217 ) ;
#72 = LENGTH_MEASURE_WITH_UNIT ( LENGTH_MEASURE( 0.02539999999999999897 ), #107 );
#73 = DIRECTION ( 'NONE',  ( -1.000000000000000000, 0.0000000000000000000, 0.0000000000000000000 ) ) ;
#74 = CARTESIAN_POINT ( 'NONE',  ( 7.347880794884121462E-18, 0.0000000000000000000, 0.05999999999999999778 ) ) ;
#75 = AXIS2_PLACEMENT_3D ( 'NONE', #284, #33, #136 ) ;
#76 = ORIENTED_EDGE ( 'NONE', *, *, #240, .F. ) ;
#77 = DIRECTION ( 'NONE',  ( -1.000000000000000000, 0.0000000000000000000, 2.136392637687893513E-16 ) ) ;
#78 = EDGE_CURVE ( 'NONE', #31, #100, #36, .T. ) ;
#79 = CARTESIAN_POINT ( 'NONE',  ( 7.347880794884121462E-18, 0.0000000000000000000, 0.05999999999999999778 ) ) ;
#80 = VECTOR ( 'NONE', #132, 39.37007874015748143 ) ;
#81 = VERTEX_POINT ( 'NONE', #51 ) ;
#82 = DIRECTION ( 'NONE',  ( 1.000000000000000000, 0.0000000000000000000, 0.0000000000000000000 ) ) ;
#83 = ORIENTED_EDGE ( 'NONE', *, *, #139, .T. ) ;
#84 = SURFACE_STYLE_FILL_AREA ( #227 ) ;
#85 = CARTESIAN_POINT ( 'NONE',  ( -0.06250000000000000000, 0.0000000000000000000, 1.485000000000000764 ) ) ;
#86 = EDGE_CURVE ( 'NONE', #246, #104, #174, .T. ) ;
#87 = AXIS2_PLACEMENT_3D ( 'NONE', #13, #180, #82 ) ;
#88 = DIRECTION ( 'NONE',  ( 1.000000000000000000, 0.0000000000000000000, 0.0000000000000000000 ) ) ;
#89 = APPLICATION_PROTOCOL_DEFINITION ( 'draft international standard', 'automotive_design', 1998, #312 ) ;
#90 = CARTESIAN_POINT ( 'NONE',  ( -0.01998000000000000123, 0.0000000000000000000, 2.446844304696412268E-18 ) ) ;
#91 = AXIS2_PLACEMENT_3D ( 'NONE', #140, #196, #73 ) ;
#92 = EDGE_CURVE ( 'NONE', #100, #31, #124, .T. ) ;
#93 = ORIENTED_EDGE ( 'NONE', *, *, #105, .T. ) ;
#94 = DIRECTION ( 'NONE',  ( 0.1736481776669313859, 0.0000000000000000000, 0.9848077530122077983 ) ) ;
#95 = ORIENTED_EDGE ( 'NONE', *, *, #86, .F. ) ;
#96 = CARTESIAN_POINT ( 'NONE',  ( 0.0000000000000000000, 0.0000000000000000000, 1.500000000000000222 ) ) ;
#97 = COLOUR_RGB ( '',0.7921568627450980005, 0.8196078431372548767, 0.9333333333333333481 ) ;
#98 = DIRECTION ( 'NONE',  ( 0.0000000000000000000, 1.000000000000000000, 0.0000000000000000000 ) ) ;
#99 = DIRECTION ( 'NONE',  ( 1.224646799147353454E-16, 0.0000000000000000000, 1.000000000000000000 ) ) ;
#100 = VERTEX_POINT ( 'NONE', #316 ) ;
#101 = DIRECTION ( 'NONE',  ( -0.0000000000000000000, -0.0000000000000000000, -1.000000000000000000 ) ) ;
#102 = AXIS2_PLACEMENT_3D ( 'NONE', #232, #113, #318 ) ;
#103 = SURFACE_STYLE_FILL_AREA ( #311 ) ;
#104 = VERTEX_POINT ( 'NONE', #259 ) ;
#105 = EDGE_CURVE ( 'NONE', #280, #175, #21, .T. ) ;
#106 = ADVANCED_FACE ( 'NONE', ( #277 ), #57, .T. ) ;
#107 =( LENGTH_UNIT ( ) NAMED_UNIT ( * ) SI_UNIT ( $, .METRE. ) );
#108 = CARTESIAN_POINT ( 'NONE',  ( 0.04750000000000064587, 6.735557395310482421E-18, 1.500000000000000222 ) ) ;
#109 = ORIENTED_EDGE ( 'NONE', *, *, #25, .F. ) ;
#110 =( LENGTH_UNIT ( ) NAMED_UNIT ( * ) SI_UNIT ( $, .METRE. ) );
#111 = EDGE_LOOP ( 'NONE', ( #32, #28, #69, #315 ) ) ;
#112 = PRODUCT_DEFINITION_CONTEXT ( 'detailed design', #41, 'design' ) ;
#113 = DIRECTION ( 'NONE',  ( 1.224646799147353454E-16, 0.0000000000000000000, 1.000000000000000000 ) ) ;
#114 = APPLICATION_PROTOCOL_DEFINITION ( 'draft international standard', 'automotive_design', 1998, #41 ) ;
#115 = FACE_OUTER_BOUND ( 'NONE', #151, .T. ) ;
#116 = UNCERTAINTY_MEASURE_WITH_UNIT (LENGTH_MEASURE( 1.000000000000000082E-05 ), #290, 'distance_accuracy_value', 'NONE');
#117 = PRESENTATION_STYLE_ASSIGNMENT (( #160 ) ) ;
#118 = CIRCLE ( 'NONE', #130, 0.01998000000000000123 ) ;
#119 = DIRECTION ( 'NONE',  ( 1.000000000000000000, 0.0000000000000000000, 0.0000000000000000000 ) ) ;
#120 = ADVANCED_FACE ( 'NONE', ( #261 ), #211, .T. ) ;
#121 = ADVANCED_FACE ( 'NONE', ( #292 ), #283, .T. ) ;
#122 = CARTESIAN_POINT ( 'NONE',  ( 0.01998000000000001511, 0.0000000000000000000, 0.05999999999999999778 ) ) ;
#123 = ORIENTED_EDGE ( 'NONE', *, *, #92, .F. ) ;
#124 = CIRCLE ( 'NONE', #308, 0.04750000000000064587 ) ;
#125 = DIRECTION ( 'NONE',  ( 0.0000000000000000000, 0.0000000000000000000, -1.000000000000000000 ) ) ;
#126 = LINE ( 'NONE', #307, #80 ) ;
#127 = SURFACE_STYLE_USAGE ( .BOTH. , #9 ) ;
#128 = ORIENTED_EDGE ( 'NONE', *, *, #148, .T. ) ;
#129 = ORIENTED_EDGE ( 'NONE', *, *, #303, .T. ) ;
#130 = AXIS2_PLACEMENT_3D ( 'NONE', #275, #305, #77 ) ;
#131 = AXIS2_PLACEMENT_3D ( 'NONE', #48, #142, #14 ) ;
#132 = DIRECTION ( 'NONE',  ( 0.7071067811865456854, 8.659560562354911904E-17, -0.7071067811865493491 ) ) ;
#133 = VERTEX_POINT ( 'NONE', #58 ) ;
#134 = ADVANCED_FACE ( 'NONE', ( #63 ), #296, .T. ) ;
#135 = DIRECTION ( 'NONE',  ( -0.0000000000000000000, -0.0000000000000000000, -1.000000000000000000 ) ) ;
#136 = DIRECTION ( 'NONE',  ( 1.000000000000000000, 0.0000000000000000000, 0.0000000000000000000 ) ) ;
#137 = AXIS2_PLACEMENT_3D ( 'NONE', #249, #98, #7 ) ;
#138 = CONICAL_SURFACE ( 'NONE', #324, 0.04750000000000064587, 0.7853981633974457255 ) ;
#139 = EDGE_CURVE ( 'NONE', #81, #162, #64, .T. ) ;
#140 = CARTESIAN_POINT ( 'NONE',  ( 7.347880794884121462E-18, 0.0000000000000000000, 0.05999999999999999778 ) ) ;
#141 = AXIS2_PLACEMENT_3D ( 'NONE', #79, #178, #258 ) ;
#142 = DIRECTION ( 'NONE',  ( 1.224646799147353454E-16, 0.0000000000000000000, 1.000000000000000000 ) ) ;
#143 = CARTESIAN_POINT ( 'NONE',  ( 3.687936922083284908E-17, 0.0000000000000000000, 0.3011429029701436777 ) ) ;
#144 = ADVANCED_FACE ( 'NONE', ( #115 ), #138, .T. ) ;
#145 = VECTOR ( 'NONE', #165, 39.37007874015748143 ) ;
#146 = DIRECTION ( 'NONE',  ( -1.000000000000000000, 0.0000000000000000000, 1.224646799147353454E-16 ) ) ;
#147 = STYLED_ITEM ( 'NONE', ( #117 ), #247 ) ;
#148 = EDGE_CURVE ( 'NONE', #104, #26, #231, .T. ) ;
#149 = ORIENTED_EDGE ( 'NONE', *, *, #267, .F. ) ;
#150 = DIRECTION ( 'NONE',  ( 0.0000000000000000000, 0.0000000000000000000, -1.000000000000000000 ) ) ;
#151 = EDGE_LOOP ( 'NONE', ( #228, #272, #44, #149 ) ) ;
#152 = PRODUCT_DEFINITION_SHAPE ( 'NONE', 'NONE',  #250 ) ;
#153 = EDGE_LOOP ( 'NONE', ( #241, #167 ) ) ;
#154 = PRESENTATION_LAYER_ASSIGNMENT (  '', '', ( #282 ) ) ;
#155 =( NAMED_UNIT ( * ) PLANE_ANGLE_UNIT ( ) SI_UNIT ( $, .RADIAN. ) );
#156 = PRODUCT_RELATED_PRODUCT_CATEGORY ( 'part', '', ( #70 ) ) ;
#157 = ORIENTED_EDGE ( 'NONE', *, *, #244, .F. ) ;
#158 = ORIENTED_EDGE ( 'NONE', *, *, #148, .F. ) ;
#159 = ORIENTED_EDGE ( 'NONE', *, *, #216, .F. ) ;
#160 = SURFACE_STYLE_USAGE ( .BOTH. , #56 ) ;
#161 = ORIENTED_EDGE ( 'NONE', *, *, #52, .T. ) ;
#162 = VERTEX_POINT ( 'NONE', #22 ) ;
#163 = CARTESIAN_POINT ( 'NONE',  ( 0.0000000000000000000, 0.0000000000000000000, 1.500000000000000222 ) ) ;
#164 = CARTESIAN_POINT ( 'NONE',  ( 0.0000000000000000000, 0.0000000000000000000, 1.500000000000000222 ) ) ;
#165 = DIRECTION ( 'NONE',  ( -1.224646799147353454E-16, -0.0000000000000000000, -1.000000000000000000 ) ) ;
#166 = CARTESIAN_POINT ( 'NONE',  ( 0.0000000000000000000, 0.0000000000000000000, 0.0000000000000000000 ) ) ;
#167 = ORIENTED_EDGE ( 'NONE', *, *, #78, .T. ) ;
#168 = CARTESIAN_POINT ( 'NONE',  ( 0.0000000000000000000, 0.0000000000000000000, 1.485000000000000764 ) ) ;
#169 = AXIS2_PLACEMENT_3D ( 'NONE', #202, #101, #313 ) ;
#170 =( NAMED_UNIT ( * ) SI_UNIT ( $, .STERADIAN. ) SOLID_ANGLE_UNIT ( ) );
#171 = CARTESIAN_POINT ( 'NONE',  ( 0.01998000000000000123, 2.446844304696411883E-18, -2.446844304696412268E-18 ) ) ;
#172 =( GEOMETRIC_REPRESENTATION_CONTEXT ( 3 ) GLOBAL_UNCERTAINTY_ASSIGNED_CONTEXT ( ( #40 ) ) GLOBAL_UNIT_ASSIGNED_CONTEXT ( ( #45, #155, #170 ) ) REPRESENTATION_CONTEXT ( 'NONE', 'WORKASPACE' ) );
#173 = CARTESIAN_POINT ( 'NONE',  ( -0.01997999999999999776, 5.050443399683684906E-18, 0.05999999999999999778 ) ) ;
#174 = LINE ( 'NONE', #230, #262 ) ;
#175 = VERTEX_POINT ( 'NONE', #319 ) ;
#176 = CARTESIAN_POINT ( 'NONE',  ( -0.01997999999999999776, 0.0000000000000000000, 0.01998000000000000470 ) ) ;
#177 = AXIS2_PLACEMENT_3D ( 'NONE', #263, #18, #119 ) ;
#178 = DIRECTION ( 'NONE',  ( -1.224646799147353454E-16, -0.0000000000000000000, -1.000000000000000000 ) ) ;
#179 = AXIS2_PLACEMENT_3D ( 'NONE', #96, #37, #291 ) ;
#180 = DIRECTION ( 'NONE',  ( 0.0000000000000000000, 0.0000000000000000000, 1.000000000000000000 ) ) ;
#181 = ORIENTED_EDGE ( 'NONE', *, *, #219, .T. ) ;
#182 =( NAMED_UNIT ( * ) PLANE_ANGLE_UNIT ( ) SI_UNIT ( $, .RADIAN. ) );
#183 = ORIENTED_EDGE ( 'NONE', *, *, #86, .T. ) ;
#184 = CARTESIAN_POINT ( 'NONE',  ( 0.0000000000000000000, 0.0000000000000000000, 1.500000000000000222 ) ) ;
#185 = DIRECTION ( 'NONE',  ( -1.000000000000000000, 0.0000000000000000000, 0.0000000000000000000 ) ) ;
#186 = COLOUR_RGB ( '',0.7921568627450980005, 0.8196078431372548767, 0.9333333333333333481 ) ;
#187 = AXIS2_PLACEMENT_3D ( 'NONE', #166, #322, #325 ) ;
#188 = VECTOR ( 'NONE', #10, 39.37007874015748143 ) ;
#189 = CARTESIAN_POINT ( 'NONE',  ( 0.0000000000000000000, 0.0000000000000000000, 1.485000000000000764 ) ) ;
#190 = EDGE_CURVE ( 'NONE', #133, #246, #237, .T. ) ;
#191 = CARTESIAN_POINT ( 'NONE',  ( 2.446844304696412268E-18, 0.0000000000000000000, 0.01998000000000000123 ) ) ;
#192 = EDGE_LOOP ( 'NONE', ( #109, #3, #183, #2 ) ) ;
#193 = DIRECTION ( 'NONE',  ( -0.7071067811865456854, 0.0000000000000000000, -0.7071067811865493491 ) ) ;
#194 = EDGE_LOOP ( 'NONE', ( #252, #161, #255, #129 ) ) ;
#195 = VECTOR ( 'NONE', #223, 39.37007874015748143 ) ;
#196 = DIRECTION ( 'NONE',  ( -1.224646799147353454E-16, -0.0000000000000000000, -1.000000000000000000 ) ) ;
#197 = ADVANCED_FACE ( 'NONE', ( #16 ), #239, .T. ) ;
#198 = AXIS2_PLACEMENT_3D ( 'NONE', #143, #235, #209 ) ;
#199 = DIRECTION ( 'NONE',  ( 1.000000000000000000, 0.0000000000000000000, 0.0000000000000000000 ) ) ;
#200 = CARTESIAN_POINT ( 'NONE',  ( 0.06250000000000002776, 7.654042494670959086E-18, 0.3011429029701436777 ) ) ;
#201 = LENGTH_MEASURE_WITH_UNIT ( LENGTH_MEASURE( 0.02539999999999999897 ), #253 );
#202 = CARTESIAN_POINT ( 'NONE',  ( 0.0000000000000000000, 0.0000000000000000000, 1.500000000000000222 ) ) ;
#203 = ADVANCED_FACE ( 'NONE', ( #289 ), #20, .T. ) ;
#204 = ORIENTED_EDGE ( 'NONE', *, *, #274, .F. ) ;
#205 = FILL_AREA_STYLE_COLOUR ( '', #186 ) ;
#206 = EDGE_CURVE ( 'NONE', #280, #309, #43, .T. ) ;
#207 = DIRECTION ( 'NONE',  ( 1.000000000000000000, 0.0000000000000000000, 0.0000000000000000000 ) ) ;
#208 = FACE_OUTER_BOUND ( 'NONE', #153, .T. ) ;
#209 = DIRECTION ( 'NONE',  ( 1.000000000000000000, 0.0000000000000000000, 0.0000000000000000000 ) ) ;
#210 = CIRCLE ( 'NONE', #17, 0.06250000000000000000 ) ;
#211 = CYLINDRICAL_SURFACE ( 'NONE', #320, 0.01998000000000000123 ) ;
#212 = PRESENTATION_LAYER_ASSIGNMENT (  '', '', ( #147 ) ) ;
#213 = ADVANCED_FACE ( 'NONE', ( #208 ), #264, .T. ) ;
#214 = DIRECTION ( 'NONE',  ( -1.000000000000000000, 0.0000000000000000000, 0.0000000000000000000 ) ) ;
#215 = EDGE_LOOP ( 'NONE', ( #11, #222, #128, #159 ) ) ;
#216 = EDGE_CURVE ( 'NONE', #175, #26, #242, .T. ) ;
#217 = DIRECTION ( 'NONE',  ( 1.000000000000000000, 0.0000000000000000000, 0.0000000000000000000 ) ) ;
#218 = ORIENTED_EDGE ( 'NONE', *, *, #303, .F. ) ;
#219 = EDGE_CURVE ( 'NONE', #246, #133, #29, .T. ) ;
#220 =( NAMED_UNIT ( * ) PLANE_ANGLE_UNIT ( ) SI_UNIT ( $, .RADIAN. ) );
#221 = DIRECTION ( 'NONE',  ( -1.224646799147353454E-16, -0.0000000000000000000, -1.000000000000000000 ) ) ;
#222 = ORIENTED_EDGE ( 'NONE', *, *, #260, .T. ) ;
#223 = DIRECTION ( 'NONE',  ( -1.224646799147353454E-16, -0.0000000000000000000, -1.000000000000000000 ) ) ;
#224 = ORIENTED_EDGE ( 'NONE', *, *, #206, .F. ) ;
#225 = LINE ( 'NONE', #68, #30 ) ;
#226 = LINE ( 'NONE', #256, #188 ) ;
#227 = FILL_AREA_STYLE ('',( #205 ) ) ;
#228 = ORIENTED_EDGE ( 'NONE', *, *, #78, .F. ) ;
#229 = AXIS2_PLACEMENT_3D ( 'NONE', #74, #99, #281 ) ;
#230 = CARTESIAN_POINT ( 'NONE',  ( -0.06250000000000000000, 0.0000000000000000000, 1.500000000000000222 ) ) ;
#231 = CIRCLE ( 'NONE', #198, 0.06250000000000000000 ) ;
#232 = CARTESIAN_POINT ( 'NONE',  ( 2.446844304696412268E-18, 0.0000000000000000000, 0.01998000000000000123 ) ) ;
#233 = DIRECTION ( 'NONE',  ( 0.0000000000000000000, 0.0000000000000000000, -1.000000000000000000 ) ) ;
#234 = LENGTH_MEASURE_WITH_UNIT ( LENGTH_MEASURE( 0.02539999999999999897 ), #110 );
#235 = DIRECTION ( 'NONE',  ( -1.224646799147353454E-16, -0.0000000000000000000, -1.000000000000000000 ) ) ;
#236 = AXIS2_PLACEMENT_3D ( 'NONE', #184, #39, #42 ) ;
#237 = CIRCLE ( 'NONE', #285, 0.06250000000000000000 ) ;
#238 =( GEOMETRIC_REPRESENTATION_CONTEXT ( 3 ) GLOBAL_UNCERTAINTY_ASSIGNED_CONTEXT ( ( #62 ) ) GLOBAL_UNIT_ASSIGNED_CONTEXT ( ( #245, #220, #53 ) ) REPRESENTATION_CONTEXT ( 'NONE', 'WORKASPACE' ) );
#239 = CYLINDRICAL_SURFACE ( 'NONE', #248, 0.06250000000000000000 ) ;
#240 = EDGE_CURVE ( 'NONE', #81, #309, #19, .T. ) ;
#241 = ORIENTED_EDGE ( 'NONE', *, *, #92, .T. ) ;
#242 = LINE ( 'NONE', #122, #288 ) ;
#243 = ORIENTED_EDGE ( 'NONE', *, *, #240, .T. ) ;
#244 = EDGE_CURVE ( 'NONE', #162, #309, #38, .T. ) ;
#245 =( CONVERSION_BASED_UNIT ( 'INCH', #72 ) LENGTH_UNIT ( ) NAMED_UNIT ( #293 ) );
#246 = VERTEX_POINT ( 'NONE', #85 ) ;
#247 = ADVANCED_BREP_SHAPE_REPRESENTATION ( 'Micro_BMS-040-2X', ( #310, #87 ), #238 ) ;
#248 = AXIS2_PLACEMENT_3D ( 'NONE', #164, #271, #214 ) ;
#249 = CARTESIAN_POINT ( 'NONE',  ( 2.446844304696412268E-18, 0.0000000000000000000, 0.01998000000000000123 ) ) ;
#250 = PRODUCT_DEFINITION ( 'UNKNOWN', '', #297, #112 ) ;
#251 = DIRECTION ( 'NONE',  ( -0.1736481776669311916, 2.126576849575783316E-17, 0.9848077530122080203 ) ) ;
#252 = ORIENTED_EDGE ( 'NONE', *, *, #279, .F. ) ;
#253 =( LENGTH_UNIT ( ) NAMED_UNIT ( * ) SI_UNIT ( $, .METRE. ) );
#254 = AXIS2_PLACEMENT_3D ( 'NONE', #191, #298, #65 ) ;
#255 = ORIENTED_EDGE ( 'NONE', *, *, #206, .T. ) ;
#256 = CARTESIAN_POINT ( 'NONE',  ( 0.06250000000000000000, 7.654042494670956004E-18, 1.500000000000000222 ) ) ;
#257 = SHAPE_DEFINITION_REPRESENTATION ( #152, #247 ) ;
#258 = DIRECTION ( 'NONE',  ( -1.000000000000000000, 0.0000000000000000000, 0.0000000000000000000 ) ) ;
#259 = CARTESIAN_POINT ( 'NONE',  ( -0.06249999999999996531, 0.0000000000000000000, 0.3011429029701436777 ) ) ;
#260 = EDGE_CURVE ( 'NONE', #280, #104, #67, .T. ) ;
#261 = FACE_OUTER_BOUND ( 'NONE', #194, .T. ) ;
#262 = VECTOR ( 'NONE', #135, 39.37007874015748143 ) ;
#263 = CARTESIAN_POINT ( 'NONE',  ( 2.446844304696412268E-18, 0.0000000000000000000, 0.01998000000000000123 ) ) ;
#264 = PLANE ( 'NONE',  #236 ) ;
#265 =( GEOMETRIC_REPRESENTATION_CONTEXT ( 3 ) GLOBAL_UNCERTAINTY_ASSIGNED_CONTEXT ( ( #116 ) ) GLOBAL_UNIT_ASSIGNED_CONTEXT ( ( #290, #182, #321 ) ) REPRESENTATION_CONTEXT ( 'NONE', 'WORKASPACE' ) );
#266 = AXIS2_PLACEMENT_3D ( 'NONE', #270, #60, #150 ) ;
#267 = EDGE_CURVE ( 'NONE', #100, #246, #225, .T. ) ;
#268 = DIMENSIONAL_EXPONENTS ( 1.000000000000000000, 0.0000000000000000000, 0.0000000000000000000, 0.0000000000000000000, 0.0000000000000000000, 0.0000000000000000000, 0.0000000000000000000 ) ;
#269 = VECTOR ( 'NONE', #251, 39.37007874015747433 ) ;
#270 = CARTESIAN_POINT ( 'NONE',  ( 2.446844304696412268E-18, 0.0000000000000000000, 0.01998000000000000123 ) ) ;
#271 = DIRECTION ( 'NONE',  ( -0.0000000000000000000, -0.0000000000000000000, -1.000000000000000000 ) ) ;
#272 = ORIENTED_EDGE ( 'NONE', *, *, #274, .T. ) ;
#273 = CARTESIAN_POINT ( 'NONE',  ( -0.01997999999999999776, 2.446844304696412268E-18, 0.05999999999999999778 ) ) ;
#274 = EDGE_CURVE ( 'NONE', #31, #133, #126, .T. ) ;
#275 = CARTESIAN_POINT ( 'NONE',  ( 2.446844304696412268E-18, 0.0000000000000000000, 0.01998000000000000123 ) ) ;
#276 = CIRCLE ( 'NONE', #141, 0.01998000000000000470 ) ;
#277 = FACE_OUTER_BOUND ( 'NONE', #111, .T. ) ;
#278 = FACE_OUTER_BOUND ( 'NONE', #5, .T. ) ;
#279 = EDGE_CURVE ( 'NONE', #175, #162, #301, .T. ) ;
#280 = VERTEX_POINT ( 'NONE', #173 ) ;
#281 = DIRECTION ( 'NONE',  ( 1.000000000000000000, 0.0000000000000000000, 0.0000000000000000000 ) ) ;
#282 = STYLED_ITEM ( 'NONE', ( #46 ), #310 ) ;
#283 = CONICAL_SURFACE ( 'NONE', #179, 0.04750000000000064587, 0.7853981633974457255 ) ;
#284 = CARTESIAN_POINT ( 'NONE',  ( 0.0000000000000000000, 0.0000000000000000000, 1.500000000000000222 ) ) ;
#285 = AXIS2_PLACEMENT_3D ( 'NONE', #168, #59, #88 ) ;
#286 = EDGE_LOOP ( 'NONE', ( #76, #83, #218 ) ) ;
#287 = EDGE_LOOP ( 'NONE', ( #93, #50, #295, #224 ) ) ;
#288 = VECTOR ( 'NONE', #94, 39.37007874015748143 ) ;
#289 = FACE_OUTER_BOUND ( 'NONE', #286, .T. ) ;
#290 =( CONVERSION_BASED_UNIT ( 'INCH', #234 ) LENGTH_UNIT ( ) NAMED_UNIT ( #61 ) );
#291 = DIRECTION ( 'NONE',  ( -1.000000000000000000, 0.0000000000000000000, 0.0000000000000000000 ) ) ;
#292 = FACE_OUTER_BOUND ( 'NONE', #302, .T. ) ;
#293 = DIMENSIONAL_EXPONENTS ( 1.000000000000000000, 0.0000000000000000000, 0.0000000000000000000, 0.0000000000000000000, 0.0000000000000000000, 0.0000000000000000000, 0.0000000000000000000 ) ;
#294 = CLOSED_SHELL ( 'NONE', ( #300, #134, #323, #144, #47, #197, #213, #121, #106, #120, #203 ) ) ;
#295 = ORIENTED_EDGE ( 'NONE', *, *, #244, .T. ) ;
#296 = CYLINDRICAL_SURFACE ( 'NONE', #187, 0.01998000000000000123 ) ;
#297 = PRODUCT_DEFINITION_FORMATION_WITH_SPECIFIED_SOURCE ( 'ANY', '', #70, .NOT_KNOWN. ) ;
#298 = DIRECTION ( 'NONE',  ( 1.224646799147353207E-16, 1.000000000000000000, -0.0000000000000000000 ) ) ;
#299 = CARTESIAN_POINT ( 'NONE',  ( 3.687936922083284908E-17, 0.0000000000000000000, 0.3011429029701436777 ) ) ;
#300 = ADVANCED_FACE ( 'NONE', ( #278 ), #49, .T. ) ;
#301 = LINE ( 'NONE', #171, #195 ) ;
#302 = EDGE_LOOP ( 'NONE', ( #204, #123, #66, #8 ) ) ;
#303 = EDGE_CURVE ( 'NONE', #309, #162, #118, .T. ) ;
#304 = CONICAL_SURFACE ( 'NONE', #229, 0.01998000000000000470, 0.1745329251994338915 ) ;
#305 = DIRECTION ( 'NONE',  ( 1.224646799147353454E-16, 0.0000000000000000000, 1.000000000000000000 ) ) ;
#306 = FACE_OUTER_BOUND ( 'NONE', #23, .T. ) ;
#307 = CARTESIAN_POINT ( 'NONE',  ( 0.04750000000000064587, 5.817072295950006528E-18, 1.500000000000000222 ) ) ;
#308 = AXIS2_PLACEMENT_3D ( 'NONE', #12, #55, #207 ) ;
#309 = VERTEX_POINT ( 'NONE', #176 ) ;
#310 = MANIFOLD_SOLID_BREP ( 'Fillet1', #294 ) ;
#311 = FILL_AREA_STYLE ('',( #27 ) ) ;
#312 = APPLICATION_CONTEXT ( 'automotive_design' ) ;
#313 = DIRECTION ( 'NONE',  ( -1.000000000000000000, 0.0000000000000000000, 0.0000000000000000000 ) ) ;
#314 = MECHANICAL_DESIGN_GEOMETRIC_PRESENTATION_REPRESENTATION (  '', ( #147 ), #265 ) ;
#315 = ORIENTED_EDGE ( 'NONE', *, *, #317, .T. ) ;
#316 = CARTESIAN_POINT ( 'NONE',  ( -0.04750000000000064587, 0.0000000000000000000, 1.500000000000000222 ) ) ;
#317 = EDGE_CURVE ( 'NONE', #26, #104, #210, .T. ) ;
#318 = DIRECTION ( 'NONE',  ( -1.000000000000000000, 0.0000000000000000000, 2.136392637687893513E-16 ) ) ;
#319 = CARTESIAN_POINT ( 'NONE',  ( 0.01998000000000001511, 0.0000000000000000000, 0.05999999999999999778 ) ) ;
#320 = AXIS2_PLACEMENT_3D ( 'NONE', #35, #1, #146 ) ;
#321 =( NAMED_UNIT ( * ) SI_UNIT ( $, .STERADIAN. ) SOLID_ANGLE_UNIT ( ) );
#322 = DIRECTION ( 'NONE',  ( -1.224646799147353454E-16, -0.0000000000000000000, -1.000000000000000000 ) ) ;
#323 = ADVANCED_FACE ( 'NONE', ( #4 ), #304, .T. ) ;
#324 = AXIS2_PLACEMENT_3D ( 'NONE', #163, #233, #185 ) ;
#325 = DIRECTION ( 'NONE',  ( -1.000000000000000000, 0.0000000000000000000, 1.224646799147353454E-16 ) ) ;
ENDSEC;
END-ISO-10303-21;
