ISO-10303-21;
HEADER;
FILE_DESCRIPTION (( 'STEP AP214' ),
    '1' );
FILE_NAME ('Micro_AEMM-080-4X.STEP',
    '2022-03-15T14:29:33',
    ( '' ),
    ( '' ),
    'SwSTEP 2.0',
    'SolidWorks 2022',
    '' );
FILE_SCHEMA (( 'AUTOMOTIVE_DESIGN' ));
ENDSEC;

DATA;
#1 = LENGTH_MEASURE_WITH_UNIT ( LENGTH_MEASURE( 0.02539999999999999897 ), #186 );
#2 = CIRCLE ( 'NONE', #249, 0.1573230194999999942 ) ;
#3 = SURFACE_STYLE_FILL_AREA ( #151 ) ;
#4 = ADVANCED_FACE ( 'NONE', ( #291 ), #241, .F. ) ;
#5 = AXIS2_PLACEMENT_3D ( 'NONE', #144, #140, #191 ) ;
#6 = DIRECTION ( 'NONE',  ( -0.000000000000000000, -0.000000000000000000, -1.000000000000000000 ) ) ;
#7 = AXIS2_PLACEMENT_3D ( 'NONE', #100, #276, #41 ) ;
#8 = AXIS2_PLACEMENT_3D ( 'NONE', #150, #59, #268 ) ;
#9 = DIRECTION ( 'NONE',  ( 0.000000000000000000, 0.000000000000000000, -1.000000000000000000 ) ) ;
#10 = ORIENTED_EDGE ( 'NONE', *, *, #242, .F. ) ;
#11 = VERTEX_POINT ( 'NONE', #168 ) ;
#12 = DIRECTION ( 'NONE',  ( -1.000000000000000000, 0.000000000000000000, 1.224646799147353454E-16 ) ) ;
#13 = VERTEX_POINT ( 'NONE', #28 ) ;
#14 = FACE_OUTER_BOUND ( 'NONE', #225, .T. ) ;
#15 = ORIENTED_EDGE ( 'NONE', *, *, #128, .T. ) ;
#16 = ADVANCED_FACE ( 'NONE', ( #33 ), #134, .T. ) ;
#17 = CARTESIAN_POINT ( 'NONE',  ( 0.1573230195000001330, 0.000000000000000000, 0.8661419999999999675 ) ) ;
#18 = UNCERTAINTY_MEASURE_WITH_UNIT (LENGTH_MEASURE( 1.000000000000000082E-05 ), #287, 'distance_accuracy_value', 'NONE');
#19 = CIRCLE ( 'NONE', #7, 0.1573230194999999942 ) ;
#20 = EDGE_LOOP ( 'NONE', ( #63, #15 ) ) ;
#21 = AXIS2_PLACEMENT_3D ( 'NONE', #269, #244, #124 ) ;
#22 = MECHANICAL_DESIGN_GEOMETRIC_PRESENTATION_REPRESENTATION (  '', ( #147 ), #206 ) ;
#23 = DIRECTION ( 'NONE',  ( 0.000000000000000000, 0.000000000000000000, 1.000000000000000000 ) ) ;
#24 = SHAPE_DEFINITION_REPRESENTATION ( #213, #224 ) ;
#25 = DIRECTION ( 'NONE',  ( 1.000000000000000000, 0.000000000000000000, 0.000000000000000000 ) ) ;
#26 = LINE ( 'NONE', #194, #265 ) ;
#27 = APPLICATION_PROTOCOL_DEFINITION ( 'draft international standard', 'automotive_design', 1998, #201 ) ;
#28 = CARTESIAN_POINT ( 'NONE',  ( -0.1573230194999999942, 0.000000000000000000, 3.853302645257433254E-17 ) ) ;
#29 = PRESENTATION_LAYER_ASSIGNMENT (  '', '', ( #147 ) ) ;
#30 = DIRECTION ( 'NONE',  ( -1.000000000000000000, 0.000000000000000000, 0.000000000000000000 ) ) ;
#31 =( NAMED_UNIT ( * ) SI_UNIT ( $, .STERADIAN. ) SOLID_ANGLE_UNIT ( ) );
#32 = CARTESIAN_POINT ( 'NONE',  ( -0.1574804999999998845, 0.000000000000000000, 0.8670351162965940217 ) ) ;
#33 = FACE_OUTER_BOUND ( 'NONE', #212, .T. ) ;
#34 = CYLINDRICAL_SURFACE ( 'NONE', #232, 0.1573230195000000220 ) ;
#35 = AXIS2_PLACEMENT_3D ( 'NONE', #248, #157, #227 ) ;
#36 = CARTESIAN_POINT ( 'NONE',  ( 0.000000000000000000, 0.000000000000000000, 0.000000000000000000 ) ) ;
#37 = ORIENTED_EDGE ( 'NONE', *, *, #48, .F. ) ;
#38 = EDGE_LOOP ( 'NONE', ( #81, #228, #130, #110 ) ) ;
#39 = CLOSED_SHELL ( 'NONE', ( #102, #16, #264, #61, #223, #177, #71, #215, #114, #4 ) ) ;
#40 = LINE ( 'NONE', #283, #146 ) ;
#41 = DIRECTION ( 'NONE',  ( -1.000000000000000000, 0.000000000000000000, 1.224646799147353454E-16 ) ) ;
#42 = ORIENTED_EDGE ( 'NONE', *, *, #161, .T. ) ;
#43 = DIMENSIONAL_EXPONENTS ( 1.000000000000000000, 0.000000000000000000, 0.000000000000000000, 0.000000000000000000, 0.000000000000000000, 0.000000000000000000, 0.000000000000000000 ) ;
#44 = STYLED_ITEM ( 'NONE', ( #88 ), #155 ) ;
#45 = CARTESIAN_POINT ( 'NONE',  ( -0.1424804999999990940, 0.000000000000000000, 2.480315000000000047 ) ) ;
#46 = VECTOR ( 'NONE', #293, 39.37007874015748143 ) ;
#47 = DIRECTION ( 'NONE',  ( 1.224646799147353207E-16, 0.000000000000000000, 1.000000000000000000 ) ) ;
#48 = EDGE_CURVE ( 'NONE', #297, #282, #127, .T. ) ;
#49 =( LENGTH_UNIT ( ) NAMED_UNIT ( * ) SI_UNIT ( $, .METRE. ) );
#50 = ORIENTED_EDGE ( 'NONE', *, *, #64, .F. ) ;
#51 = CARTESIAN_POINT ( 'NONE',  ( 1.060718027907086782E-16, 0.000000000000000000, 0.8661419999999999675 ) ) ;
#52 =( LENGTH_UNIT ( ) NAMED_UNIT ( * ) SI_UNIT ( $, .METRE. ) );
#53 = DIRECTION ( 'NONE',  ( 1.224646799147353207E-16, 0.000000000000000000, 1.000000000000000000 ) ) ;
#54 = EDGE_CURVE ( 'NONE', #278, #13, #69, .T. ) ;
#55 = AXIS2_PLACEMENT_3D ( 'NONE', #126, #56, #148 ) ;
#56 = DIRECTION ( 'NONE',  ( 0.000000000000000000, 0.000000000000000000, -1.000000000000000000 ) ) ;
#57 = APPLICATION_PROTOCOL_DEFINITION ( 'draft international standard', 'automotive_design', 1998, #66 ) ;
#58 = ORIENTED_EDGE ( 'NONE', *, *, #238, .T. ) ;
#59 = DIRECTION ( 'NONE',  ( -1.224646799147353207E-16, -0.000000000000000000, -1.000000000000000000 ) ) ;
#60 = DIRECTION ( 'NONE',  ( -1.224646799147353207E-16, -0.000000000000000000, -1.000000000000000000 ) ) ;
#61 = ADVANCED_FACE ( 'NONE', ( #172 ), #75, .T. ) ;
#62 = DIRECTION ( 'NONE',  ( -1.224646799147353207E-16, -0.000000000000000000, -1.000000000000000000 ) ) ;
#63 = ORIENTED_EDGE ( 'NONE', *, *, #83, .T. ) ;
#64 = EDGE_CURVE ( 'NONE', #230, #257, #156, .T. ) ;
#65 = UNCERTAINTY_MEASURE_WITH_UNIT (LENGTH_MEASURE( 1.000000000000000082E-05 ), #70, 'distance_accuracy_value', 'NONE');
#66 = APPLICATION_CONTEXT ( 'automotive_design' ) ;
#67 = PRODUCT_DEFINITION_FORMATION_WITH_SPECIFIED_SOURCE ( 'ANY', '', #137, .NOT_KNOWN. ) ;
#68 = EDGE_LOOP ( 'NONE', ( #208, #174 ) ) ;
#69 = LINE ( 'NONE', #145, #46 ) ;
#70 =( CONVERSION_BASED_UNIT ( 'INCH', #141 ) LENGTH_UNIT ( ) NAMED_UNIT ( #185 ) );
#71 = ADVANCED_FACE ( 'NONE', ( #149 ), #170, .T. ) ;
#72 = DIRECTION ( 'NONE',  ( -1.224646799147353207E-16, -0.000000000000000000, -1.000000000000000000 ) ) ;
#73 = CONICAL_SURFACE ( 'NONE', #87, 0.1573230195000000220, 0.1745329251994338360 ) ;
#74 = DIRECTION ( 'NONE',  ( -0.000000000000000000, -0.000000000000000000, -1.000000000000000000 ) ) ;
#75 = CYLINDRICAL_SURFACE ( 'NONE', #21, 0.1574804999999999955 ) ;
#76 = DIRECTION ( 'NONE',  ( 1.000000000000000000, 0.000000000000000000, -0.000000000000000000 ) ) ;
#77 = AXIS2_PLACEMENT_3D ( 'NONE', #142, #189, #192 ) ;
#78 = DIRECTION ( 'NONE',  ( -0.7071067811865627828, 0.000000000000000000, -0.7071067811865321406 ) ) ;
#79 = EDGE_LOOP ( 'NONE', ( #299, #226, #279, #288 ) ) ;
#80 = AXIS2_PLACEMENT_3D ( 'NONE', #270, #266, #97 ) ;
#81 = ORIENTED_EDGE ( 'NONE', *, *, #116, .F. ) ;
#82 = CARTESIAN_POINT ( 'NONE',  ( 0.000000000000000000, 0.000000000000000000, 0.000000000000000000 ) ) ;
#83 = EDGE_CURVE ( 'NONE', #13, #11, #2, .T. ) ;
#84 = DIRECTION ( 'NONE',  ( -1.000000000000000000, 0.000000000000000000, 1.224646799147353454E-16 ) ) ;
#85 = VECTOR ( 'NONE', #196, 39.37007874015748143 ) ;
#86 =( NAMED_UNIT ( * ) PLANE_ANGLE_UNIT ( ) SI_UNIT ( $, .RADIAN. ) );
#87 = AXIS2_PLACEMENT_3D ( 'NONE', #51, #47, #239 ) ;
#88 = PRESENTATION_STYLE_ASSIGNMENT (( #131 ) ) ;
#89 = AXIS2_PLACEMENT_3D ( 'NONE', #167, #6, #30 ) ;
#90 = ORIENTED_EDGE ( 'NONE', *, *, #237, .F. ) ;
#91 = CARTESIAN_POINT ( 'NONE',  ( 1.061811779920977108E-16, 0.000000000000000000, 0.8670351162965940217 ) ) ;
#92 = DIRECTION ( 'NONE',  ( 0.7071067811865627828, 8.659560562355118980E-17, -0.7071067811865321406 ) ) ;
#93 = AXIS2_PLACEMENT_3D ( 'NONE', #220, #173, #76 ) ;
#94 = DIRECTION ( 'NONE',  ( 1.000000000000000000, 0.000000000000000000, 0.000000000000000000 ) ) ;
#95 = CARTESIAN_POINT ( 'NONE',  ( -0.1424804999999990940, 0.000000000000000000, 2.480315000000000047 ) ) ;
#96 = SURFACE_STYLE_USAGE ( .BOTH. , #252 ) ;
#97 = DIRECTION ( 'NONE',  ( 1.000000000000000000, 0.000000000000000000, 0.000000000000000000 ) ) ;
#98 = AXIS2_PLACEMENT_3D ( 'NONE', #91, #273, #292 ) ;
#99 =( NAMED_UNIT ( * ) PLANE_ANGLE_UNIT ( ) SI_UNIT ( $, .RADIAN. ) );
#100 = CARTESIAN_POINT ( 'NONE',  ( 2.359467375330272285E-33, 0.000000000000000000, 1.926651322628716627E-17 ) ) ;
#101 = ORIENTED_EDGE ( 'NONE', *, *, #161, .F. ) ;
#102 = ADVANCED_FACE ( 'NONE', ( #14 ), #129, .T. ) ;
#103 = ORIENTED_EDGE ( 'NONE', *, *, #116, .T. ) ;
#104 =( GEOMETRIC_REPRESENTATION_CONTEXT ( 3 ) GLOBAL_UNCERTAINTY_ASSIGNED_CONTEXT ( ( #18 ) ) GLOBAL_UNIT_ASSIGNED_CONTEXT ( ( #287, #86, #160 ) ) REPRESENTATION_CONTEXT ( 'NONE', 'WORKASPACE' ) );
#105 = VERTEX_POINT ( 'NONE', #253 ) ;
#106 = DIRECTION ( 'NONE',  ( -1.224646799147353207E-16, -0.000000000000000000, -1.000000000000000000 ) ) ;
#107 = VERTEX_POINT ( 'NONE', #181 ) ;
#108 = DIRECTION ( 'NONE',  ( 0.1736481776669313304, 0.000000000000000000, 0.9848077530122077983 ) ) ;
#109 = AXIS2_PLACEMENT_3D ( 'NONE', #195, #23, #295 ) ;
#110 = ORIENTED_EDGE ( 'NONE', *, *, #128, .F. ) ;
#111 = PRODUCT_DEFINITION_CONTEXT ( 'detailed design', #201, 'design' ) ;
#112 = FILL_AREA_STYLE_COLOUR ( '', #180 ) ;
#113 = VECTOR ( 'NONE', #92, 39.37007874015748854 ) ;
#114 = ADVANCED_FACE ( 'NONE', ( #179 ), #34, .T. ) ;
#115 = CARTESIAN_POINT ( 'NONE',  ( -0.1573230194999999387, 1.927615612579982019E-17, 0.8661419999999999675 ) ) ;
#116 = EDGE_CURVE ( 'NONE', #105, #11, #40, .T. ) ;
#117 = PRESENTATION_STYLE_ASSIGNMENT (( #96 ) ) ;
#118 = LENGTH_MEASURE_WITH_UNIT ( LENGTH_MEASURE( 0.02539999999999999897 ), #52 );
#119 = CARTESIAN_POINT ( 'NONE',  ( 0.1424804999999990940, 1.744882882659133128E-17, 2.480315000000000047 ) ) ;
#120 = LINE ( 'NONE', #169, #135 ) ;
#121 = MECHANICAL_DESIGN_GEOMETRIC_PRESENTATION_REPRESENTATION (  '', ( #44 ), #104 ) ;
#122 = CIRCLE ( 'NONE', #55, 0.1574804999999999955 ) ;
#123 = CARTESIAN_POINT ( 'NONE',  ( -0.1574804999999999955, 0.000000000000000000, 2.465314999999999923 ) ) ;
#124 = DIRECTION ( 'NONE',  ( -1.000000000000000000, 0.000000000000000000, 0.000000000000000000 ) ) ;
#125 = CARTESIAN_POINT ( 'NONE',  ( -0.1574804999999999955, 0.000000000000000000, 2.480315000000000047 ) ) ;
#126 = CARTESIAN_POINT ( 'NONE',  ( 0.000000000000000000, 0.000000000000000000, 2.465314999999999923 ) ) ;
#127 = LINE ( 'NONE', #119, #113 ) ;
#128 = EDGE_CURVE ( 'NONE', #11, #13, #19, .T. ) ;
#129 = CYLINDRICAL_SURFACE ( 'NONE', #286, 0.1573230195000000220 ) ;
#130 = ORIENTED_EDGE ( 'NONE', *, *, #54, .T. ) ;
#131 = SURFACE_STYLE_USAGE ( .BOTH. , #210 ) ;
#132 = ORIENTED_EDGE ( 'NONE', *, *, #216, .F. ) ;
#133 = ORIENTED_EDGE ( 'NONE', *, *, #275, .F. ) ;
#134 = CONICAL_SURFACE ( 'NONE', #258, 0.1573230195000000220, 0.1745329251994338360 ) ;
#135 = VECTOR ( 'NONE', #74, 39.37007874015748143 ) ;
#136 = EDGE_LOOP ( 'NONE', ( #37, #90, #162, #132 ) ) ;
#137 = PRODUCT ( 'Micro_AEMM-080-4X', 'Micro_AEMM-080-4X', '', ( #235 ) ) ;
#138 =( NAMED_UNIT ( * ) PLANE_ANGLE_UNIT ( ) SI_UNIT ( $, .RADIAN. ) );
#139 = DIRECTION ( 'NONE',  ( -0.1736481776669311639, 2.126576849575782392E-17, 0.9848077530122080203 ) ) ;
#140 = DIRECTION ( 'NONE',  ( 0.000000000000000000, 0.000000000000000000, 1.000000000000000000 ) ) ;
#141 = LENGTH_MEASURE_WITH_UNIT ( LENGTH_MEASURE( 0.02539999999999999897 ), #49 );
#142 = CARTESIAN_POINT ( 'NONE',  ( 0.000000000000000000, 0.000000000000000000, 0.000000000000000000 ) ) ;
#143 = DIRECTION ( 'NONE',  ( 1.000000000000000000, 0.000000000000000000, 0.000000000000000000 ) ) ;
#144 = CARTESIAN_POINT ( 'NONE',  ( 0.000000000000000000, 0.000000000000000000, 0.000000000000000000 ) ) ;
#145 = CARTESIAN_POINT ( 'NONE',  ( -0.1573230195000000220, 0.000000000000000000, 1.926651322628716935E-17 ) ) ;
#146 = VECTOR ( 'NONE', #62, 39.37007874015748143 ) ;
#147 = STYLED_ITEM ( 'NONE', ( #117 ), #224 ) ;
#148 = DIRECTION ( 'NONE',  ( 1.000000000000000000, 0.000000000000000000, 0.000000000000000000 ) ) ;
#149 = FACE_OUTER_BOUND ( 'NONE', #136, .T. ) ;
#150 = CARTESIAN_POINT ( 'NONE',  ( 1.060718027907086782E-16, 0.000000000000000000, 0.8661419999999999675 ) ) ;
#151 = FILL_AREA_STYLE ('',( #199 ) ) ;
#152 = ORIENTED_EDGE ( 'NONE', *, *, #178, .T. ) ;
#153 = AXIS2_PLACEMENT_3D ( 'NONE', #190, #9, #197 ) ;
#154 = EDGE_LOOP ( 'NONE', ( #247, #209, #42, #251 ) ) ;
#155 = MANIFOLD_SOLID_BREP ( 'Cut-Revolve1', #39 ) ;
#156 = LINE ( 'NONE', #125, #85 ) ;
#157 = DIRECTION ( 'NONE',  ( 0.000000000000000000, 0.000000000000000000, -1.000000000000000000 ) ) ;
#158 = CIRCLE ( 'NONE', #245, 0.1424804999999990940 ) ;
#159 = PLANE ( 'NONE',  #93 ) ;
#160 =( NAMED_UNIT ( * ) SI_UNIT ( $, .STERADIAN. ) SOLID_ANGLE_UNIT ( ) );
#161 = EDGE_CURVE ( 'NONE', #105, #107, #231, .T. ) ;
#162 = ORIENTED_EDGE ( 'NONE', *, *, #267, .T. ) ;
#163 = FILL_AREA_STYLE ('',( #112 ) ) ;
#164 =( GEOMETRIC_REPRESENTATION_CONTEXT ( 3 ) GLOBAL_UNCERTAINTY_ASSIGNED_CONTEXT ( ( #65 ) ) GLOBAL_UNIT_ASSIGNED_CONTEXT ( ( #70, #99, #296 ) ) REPRESENTATION_CONTEXT ( 'NONE', 'WORKASPACE' ) );
#165 = ORIENTED_EDGE ( 'NONE', *, *, #83, .F. ) ;
#166 = CARTESIAN_POINT ( 'NONE',  ( 0.000000000000000000, 0.000000000000000000, 2.480315000000000047 ) ) ;
#167 = CARTESIAN_POINT ( 'NONE',  ( 0.000000000000000000, 0.000000000000000000, 2.480315000000000047 ) ) ;
#168 = CARTESIAN_POINT ( 'NONE',  ( 0.1573230194999999942, 1.926651322628716627E-17, 3.791200677927629740E-33 ) ) ;
#169 = CARTESIAN_POINT ( 'NONE',  ( 0.1574804999999999955, 1.928579902531247412E-17, 2.480315000000000047 ) ) ;
#170 = CONICAL_SURFACE ( 'NONE', #35, 0.1424804999999990940, 0.7853981633974699283 ) ;
#171 = LINE ( 'NONE', #45, #298 ) ;
#172 = FACE_OUTER_BOUND ( 'NONE', #284, .T. ) ;
#173 = DIRECTION ( 'NONE',  ( 0.000000000000000000, 0.000000000000000000, 1.000000000000000000 ) ) ;
#174 = ORIENTED_EDGE ( 'NONE', *, *, #277, .T. ) ;
#175 = CYLINDRICAL_SURFACE ( 'NONE', #89, 0.1574804999999999955 ) ;
#176 = AXIS2_PLACEMENT_3D ( 'NONE', #294, #217, #143 ) ;
#177 = ADVANCED_FACE ( 'NONE', ( #207 ), #159, .T. ) ;
#178 = EDGE_CURVE ( 'NONE', #278, #257, #26, .T. ) ;
#179 = FACE_OUTER_BOUND ( 'NONE', #38, .T. ) ;
#180 = COLOUR_RGB ( '',0.7921568627450980005, 0.8196078431372548767, 0.9333333333333333481 ) ;
#181 = CARTESIAN_POINT ( 'NONE',  ( 0.1574805000000000788, 1.928579902531248645E-17, 0.8670351162965940217 ) ) ;
#182 = DIRECTION ( 'NONE',  ( -1.000000000000000000, 0.000000000000000000, 1.224646799147353454E-16 ) ) ;
#183 = ORIENTED_EDGE ( 'NONE', *, *, #48, .T. ) ;
#184 = EDGE_CURVE ( 'NONE', #105, #278, #198, .T. ) ;
#185 = DIMENSIONAL_EXPONENTS ( 1.000000000000000000, 0.000000000000000000, 0.000000000000000000, 0.000000000000000000, 0.000000000000000000, 0.000000000000000000, 0.000000000000000000 ) ;
#186 =( LENGTH_UNIT ( ) NAMED_UNIT ( * ) SI_UNIT ( $, .METRE. ) );
#187 = EDGE_CURVE ( 'NONE', #282, #107, #120, .T. ) ;
#188 = CARTESIAN_POINT ( 'NONE',  ( 0.1424804999999990940, 1.836731392595189962E-17, 2.480315000000000047 ) ) ;
#189 = DIRECTION ( 'NONE',  ( 0.000000000000000000, 0.000000000000000000, 1.000000000000000000 ) ) ;
#190 = CARTESIAN_POINT ( 'NONE',  ( 0.000000000000000000, 0.000000000000000000, 2.480315000000000047 ) ) ;
#191 = DIRECTION ( 'NONE',  ( 1.000000000000000000, 0.000000000000000000, 0.000000000000000000 ) ) ;
#192 = DIRECTION ( 'NONE',  ( 1.000000000000000000, 0.000000000000000000, -0.000000000000000000 ) ) ;
#193 = COLOUR_RGB ( '',0.7921568627450980005, 0.8196078431372548767, 0.9333333333333333481 ) ;
#194 = CARTESIAN_POINT ( 'NONE',  ( -0.1573230194999999387, 1.926651322628716935E-17, 0.8661419999999999675 ) ) ;
#195 = CARTESIAN_POINT ( 'NONE',  ( 0.000000000000000000, 0.000000000000000000, 2.480315000000000047 ) ) ;
#196 = DIRECTION ( 'NONE',  ( -0.000000000000000000, -0.000000000000000000, -1.000000000000000000 ) ) ;
#197 = DIRECTION ( 'NONE',  ( -1.000000000000000000, 0.000000000000000000, 0.000000000000000000 ) ) ;
#198 = CIRCLE ( 'NONE', #234, 0.1573230195000000220 ) ;
#199 = FILL_AREA_STYLE_COLOUR ( '', #193 ) ;
#200 = ORIENTED_EDGE ( 'NONE', *, *, #187, .T. ) ;
#201 = APPLICATION_CONTEXT ( 'automotive_design' ) ;
#202 = DIRECTION ( 'NONE',  ( -1.224646799147353207E-16, -0.000000000000000000, -1.000000000000000000 ) ) ;
#203 = EDGE_LOOP ( 'NONE', ( #272, #183, #10, #256 ) ) ;
#204 = EDGE_CURVE ( 'NONE', #107, #257, #280, .T. ) ;
#205 = DIMENSIONAL_EXPONENTS ( 1.000000000000000000, 0.000000000000000000, 0.000000000000000000, 0.000000000000000000, 0.000000000000000000, 0.000000000000000000, 0.000000000000000000 ) ;
#206 =( GEOMETRIC_REPRESENTATION_CONTEXT ( 3 ) GLOBAL_UNCERTAINTY_ASSIGNED_CONTEXT ( ( #211 ) ) GLOBAL_UNIT_ASSIGNED_CONTEXT ( ( #271, #138, #31 ) ) REPRESENTATION_CONTEXT ( 'NONE', 'WORKASPACE' ) );
#207 = FACE_OUTER_BOUND ( 'NONE', #68, .T. ) ;
#208 = ORIENTED_EDGE ( 'NONE', *, *, #237, .T. ) ;
#209 = ORIENTED_EDGE ( 'NONE', *, *, #184, .F. ) ;
#210 = SURFACE_SIDE_STYLE ('',( #254 ) ) ;
#211 = UNCERTAINTY_MEASURE_WITH_UNIT (LENGTH_MEASURE( 1.000000000000000082E-05 ), #271, 'distance_accuracy_value', 'NONE');
#212 = EDGE_LOOP ( 'NONE', ( #133, #152, #58, #101 ) ) ;
#213 = PRODUCT_DEFINITION_SHAPE ( 'NONE', 'NONE',  #221 ) ;
#214 = CARTESIAN_POINT ( 'NONE',  ( 0.1574804999999999955, 1.928579902531247412E-17, 2.465314999999999923 ) ) ;
#215 = ADVANCED_FACE ( 'NONE', ( #240 ), #73, .T. ) ;
#216 = EDGE_CURVE ( 'NONE', #282, #230, #219, .T. ) ;
#217 = DIRECTION ( 'NONE',  ( 0.000000000000000000, 0.000000000000000000, -1.000000000000000000 ) ) ;
#218 = PRESENTATION_LAYER_ASSIGNMENT (  '', '', ( #44 ) ) ;
#219 = CIRCLE ( 'NONE', #176, 0.1574804999999999955 ) ;
#220 = CARTESIAN_POINT ( 'NONE',  ( 0.000000000000000000, 0.000000000000000000, 2.480315000000000047 ) ) ;
#221 = PRODUCT_DEFINITION ( 'UNKNOWN', '', #67, #111 ) ;
#222 = FACE_OUTER_BOUND ( 'NONE', #203, .T. ) ;
#223 = ADVANCED_FACE ( 'NONE', ( #243 ), #175, .T. ) ;
#224 = ADVANCED_BREP_SHAPE_REPRESENTATION ( 'Micro_AEMM-080-4X', ( #155, #5 ), #164 ) ;
#225 = EDGE_LOOP ( 'NONE', ( #261, #103, #165, #285 ) ) ;
#226 = ORIENTED_EDGE ( 'NONE', *, *, #216, .T. ) ;
#227 = DIRECTION ( 'NONE',  ( -1.000000000000000000, 0.000000000000000000, 0.000000000000000000 ) ) ;
#228 = ORIENTED_EDGE ( 'NONE', *, *, #184, .T. ) ;
#229 = VECTOR ( 'NONE', #108, 39.37007874015748143 ) ;
#230 = VERTEX_POINT ( 'NONE', #123 ) ;
#231 = LINE ( 'NONE', #17, #229 ) ;
#232 = AXIS2_PLACEMENT_3D ( 'NONE', #36, #60, #182 ) ;
#233 = CIRCLE ( 'NONE', #8, 0.1573230195000000220 ) ;
#234 = AXIS2_PLACEMENT_3D ( 'NONE', #263, #72, #246 ) ;
#235 = PRODUCT_CONTEXT ( 'NONE', #66, 'mechanical' ) ;
#236 = VERTEX_POINT ( 'NONE', #95 ) ;
#237 = EDGE_CURVE ( 'NONE', #236, #297, #259, .T. ) ;
#238 = EDGE_CURVE ( 'NONE', #257, #107, #250, .T. ) ;
#239 = DIRECTION ( 'NONE',  ( 1.000000000000000000, 0.000000000000000000, 0.000000000000000000 ) ) ;
#240 = FACE_OUTER_BOUND ( 'NONE', #154, .T. ) ;
#241 = PLANE ( 'NONE',  #77 ) ;
#242 = EDGE_CURVE ( 'NONE', #230, #282, #122, .T. ) ;
#243 = FACE_OUTER_BOUND ( 'NONE', #79, .T. ) ;
#244 = DIRECTION ( 'NONE',  ( -0.000000000000000000, -0.000000000000000000, -1.000000000000000000 ) ) ;
#245 = AXIS2_PLACEMENT_3D ( 'NONE', #166, #262, #94 ) ;
#246 = DIRECTION ( 'NONE',  ( -1.000000000000000000, 0.000000000000000000, 0.000000000000000000 ) ) ;
#247 = ORIENTED_EDGE ( 'NONE', *, *, #178, .F. ) ;
#248 = CARTESIAN_POINT ( 'NONE',  ( 0.000000000000000000, 0.000000000000000000, 2.480315000000000047 ) ) ;
#249 = AXIS2_PLACEMENT_3D ( 'NONE', #281, #202, #12 ) ;
#250 = CIRCLE ( 'NONE', #98, 0.1574804999999999955 ) ;
#251 = ORIENTED_EDGE ( 'NONE', *, *, #204, .T. ) ;
#252 = SURFACE_SIDE_STYLE ('',( #3 ) ) ;
#253 = CARTESIAN_POINT ( 'NONE',  ( 0.1573230195000001330, 0.000000000000000000, 0.8661419999999999675 ) ) ;
#254 = SURFACE_STYLE_FILL_AREA ( #163 ) ;
#255 = ORIENTED_EDGE ( 'NONE', *, *, #242, .T. ) ;
#256 = ORIENTED_EDGE ( 'NONE', *, *, #267, .F. ) ;
#257 = VERTEX_POINT ( 'NONE', #32 ) ;
#258 = AXIS2_PLACEMENT_3D ( 'NONE', #290, #53, #25 ) ;
#259 = CIRCLE ( 'NONE', #109, 0.1424804999999990940 ) ;
#260 = ORIENTED_EDGE ( 'NONE', *, *, #238, .F. ) ;
#261 = ORIENTED_EDGE ( 'NONE', *, *, #275, .T. ) ;
#262 = DIRECTION ( 'NONE',  ( 0.000000000000000000, 0.000000000000000000, 1.000000000000000000 ) ) ;
#263 = CARTESIAN_POINT ( 'NONE',  ( 1.060718027907086782E-16, 0.000000000000000000, 0.8661419999999999675 ) ) ;
#264 = ADVANCED_FACE ( 'NONE', ( #222 ), #274, .T. ) ;
#265 = VECTOR ( 'NONE', #139, 39.37007874015747433 ) ;
#266 = DIRECTION ( 'NONE',  ( -1.224646799147353207E-16, -0.000000000000000000, -1.000000000000000000 ) ) ;
#267 = EDGE_CURVE ( 'NONE', #236, #230, #171, .T. ) ;
#268 = DIRECTION ( 'NONE',  ( -1.000000000000000000, 0.000000000000000000, 0.000000000000000000 ) ) ;
#269 = CARTESIAN_POINT ( 'NONE',  ( 0.000000000000000000, 0.000000000000000000, 2.480315000000000047 ) ) ;
#270 = CARTESIAN_POINT ( 'NONE',  ( 1.061811779920977108E-16, 0.000000000000000000, 0.8670351162965940217 ) ) ;
#271 =( CONVERSION_BASED_UNIT ( 'INCH', #118 ) LENGTH_UNIT ( ) NAMED_UNIT ( #43 ) );
#272 = ORIENTED_EDGE ( 'NONE', *, *, #277, .F. ) ;
#273 = DIRECTION ( 'NONE',  ( -1.224646799147353207E-16, -0.000000000000000000, -1.000000000000000000 ) ) ;
#274 = CONICAL_SURFACE ( 'NONE', #153, 0.1424804999999990940, 0.7853981633974699283 ) ;
#275 = EDGE_CURVE ( 'NONE', #278, #105, #233, .T. ) ;
#276 = DIRECTION ( 'NONE',  ( -1.224646799147353207E-16, -0.000000000000000000, -1.000000000000000000 ) ) ;
#277 = EDGE_CURVE ( 'NONE', #297, #236, #158, .T. ) ;
#278 = VERTEX_POINT ( 'NONE', #115 ) ;
#279 = ORIENTED_EDGE ( 'NONE', *, *, #64, .T. ) ;
#280 = CIRCLE ( 'NONE', #80, 0.1574804999999999955 ) ;
#281 = CARTESIAN_POINT ( 'NONE',  ( 2.359467375330272285E-33, 0.000000000000000000, 1.926651322628716627E-17 ) ) ;
#282 = VERTEX_POINT ( 'NONE', #214 ) ;
#283 = CARTESIAN_POINT ( 'NONE',  ( 0.1573230195000000220, 1.926651322628716935E-17, -1.926651322628716935E-17 ) ) ;
#284 = EDGE_LOOP ( 'NONE', ( #255, #200, #260, #50 ) ) ;
#285 = ORIENTED_EDGE ( 'NONE', *, *, #54, .F. ) ;
#286 = AXIS2_PLACEMENT_3D ( 'NONE', #82, #106, #84 ) ;
#287 =( CONVERSION_BASED_UNIT ( 'INCH', #1 ) LENGTH_UNIT ( ) NAMED_UNIT ( #205 ) );
#288 = ORIENTED_EDGE ( 'NONE', *, *, #204, .F. ) ;
#289 = PRODUCT_RELATED_PRODUCT_CATEGORY ( 'part', '', ( #137 ) ) ;
#290 = CARTESIAN_POINT ( 'NONE',  ( 1.060718027907086782E-16, 0.000000000000000000, 0.8661419999999999675 ) ) ;
#291 = FACE_OUTER_BOUND ( 'NONE', #20, .T. ) ;
#292 = DIRECTION ( 'NONE',  ( 1.000000000000000000, 0.000000000000000000, 0.000000000000000000 ) ) ;
#293 = DIRECTION ( 'NONE',  ( -1.224646799147353207E-16, -0.000000000000000000, -1.000000000000000000 ) ) ;
#294 = CARTESIAN_POINT ( 'NONE',  ( 0.000000000000000000, 0.000000000000000000, 2.465314999999999923 ) ) ;
#295 = DIRECTION ( 'NONE',  ( 1.000000000000000000, 0.000000000000000000, 0.000000000000000000 ) ) ;
#296 =( NAMED_UNIT ( * ) SI_UNIT ( $, .STERADIAN. ) SOLID_ANGLE_UNIT ( ) );
#297 = VERTEX_POINT ( 'NONE', #188 ) ;
#298 = VECTOR ( 'NONE', #78, 39.37007874015748854 ) ;
#299 = ORIENTED_EDGE ( 'NONE', *, *, #187, .F. ) ;
ENDSEC;
END-ISO-10303-21;
