ISO-10303-21;
HEADER;
FILE_DESCRIPTION (( 'STEP AP214' ),
    '1' );
FILE_NAME ('84593.STEP',
    '2023-07-12T13:09:24',
    ( '' ),
    ( '' ),
    'SwSTEP 2.0',
    'SolidWorks 2023',
    '' );
FILE_SCHEMA (( 'AUTOMOTIVE_DESIGN' ));
ENDSEC;

DATA;
#1 = COLOUR_RGB ( '',1.000000000000000000, 0.000000000000000000, 0.000000000000000000 ) ;
#2 = ORIENTED_EDGE ( 'NONE', *, *, #96, .F. ) ;
#3 = CARTESIAN_POINT ( 'NONE',  ( 0.09375000000000002776, 0.03969283100678656917, 1.148106374200643863E-17 ) ) ;
#4 = DIRECTION ( 'NONE',  ( -1.000000000000000000, 0.000000000000000000, 0.000000000000000000 ) ) ;
#5 = DIRECTION ( 'NONE',  ( 5.969592905327508906E-33, -1.000000000000000000, -0.000000000000000000 ) ) ;
#6 = CARTESIAN_POINT ( 'NONE',  ( 1.777096411741933493E-16, 0.03969283100678655529, 0.000000000000000000 ) ) ;
#7 = DIRECTION ( 'NONE',  ( -1.000000000000000000, -9.106159978880893419E-17, 0.000000000000000000 ) ) ;
#8 = ORIENTED_EDGE ( 'NONE', *, *, #126, .F. ) ;
#9 =( LENGTH_UNIT ( ) NAMED_UNIT ( * ) SI_UNIT ( $, .METRE. ) );
#10 = ADVANCED_FACE ( 'NONE', ( #62 ), #276, .T. ) ;
#11 = DIRECTION ( 'NONE',  ( -5.969592905327508906E-33, 1.000000000000000000, 0.000000000000000000 ) ) ;
#12 = AXIS2_PLACEMENT_3D ( 'NONE', #299, #32, #7 ) ;
#13 = ORIENTED_EDGE ( 'NONE', *, *, #198, .F. ) ;
#14 = DIRECTION ( 'NONE',  ( -1.000000000000000000, -5.969592905327508222E-33, 0.000000000000000000 ) ) ;
#15 = CARTESIAN_POINT ( 'NONE',  ( -0.09375000000000013878, 2.000000000000000000, 0.000000000000000000 ) ) ;
#16 = CARTESIAN_POINT ( 'NONE',  ( -0.09375000000000002776, 0.03969283100678656917, 0.000000000000000000 ) ) ;
#17 = UNCERTAINTY_MEASURE_WITH_UNIT (LENGTH_MEASURE( 1.000000000000000082E-05 ), #153, 'distance_accuracy_value', 'NONE');
#18 = FILL_AREA_STYLE_COLOUR ( '', #117 ) ;
#19 = AXIS2_PLACEMENT_3D ( 'NONE', #53, #187, #275 ) ;
#20 = AXIS2_PLACEMENT_3D ( 'NONE', #232, #27, #236 ) ;
#21 = FACE_OUTER_BOUND ( 'NONE', #186, .T. ) ;
#22 = LINE ( 'NONE', #277, #90 ) ;
#23 = FILL_AREA_STYLE ('',( #18 ) ) ;
#24 =( CONVERSION_BASED_UNIT ( 'INCH', #255 ) LENGTH_UNIT ( ) NAMED_UNIT ( #100 ) );
#25 = SURFACE_STYLE_USAGE ( .BOTH. , #235 ) ;
#26 = DIRECTION ( 'NONE',  ( 1.000000000000000000, 5.969592905327508906E-33, 0.000000000000000000 ) ) ;
#27 = DIRECTION ( 'NONE',  ( 0.000000000000000000, 0.000000000000000000, 1.000000000000000000 ) ) ;
#28 = DIRECTION ( 'NONE',  ( -1.000000000000000000, -5.969592905327508906E-33, 0.000000000000000000 ) ) ;
#29 = CIRCLE ( 'NONE', #94, 0.09374999999999983347 ) ;
#30 = MECHANICAL_DESIGN_GEOMETRIC_PRESENTATION_REPRESENTATION (  '', ( #63 ), #122 ) ;
#31 = DIRECTION ( 'NONE',  ( -1.218900715719354978E-16, 1.000000000000000000, -0.000000000000000000 ) ) ;
#32 = DIRECTION ( 'NONE',  ( -1.218900715719354978E-16, 1.000000000000000000, -0.000000000000000000 ) ) ;
#33 = ORIENTED_EDGE ( 'NONE', *, *, #198, .T. ) ;
#34 = LENGTH_MEASURE_WITH_UNIT ( LENGTH_MEASURE( 0.02539999999999999897 ), #144 );
#35 = SURFACE_STYLE_USAGE ( .BOTH. , #61 ) ;
#36 = ORIENTED_EDGE ( 'NONE', *, *, #126, .T. ) ;
#37 = APPLICATION_PROTOCOL_DEFINITION ( 'draft international standard', 'automotive_design', 1998, #253 ) ;
#38 = SURFACE_STYLE_FILL_AREA ( #240 ) ;
#39 = DIRECTION ( 'NONE',  ( -1.218900715719354978E-16, 1.000000000000000000, -0.000000000000000000 ) ) ;
#40 = LENGTH_MEASURE_WITH_UNIT ( LENGTH_MEASURE( 0.02539999999999999897 ), #251 );
#41 = MECHANICAL_DESIGN_GEOMETRIC_PRESENTATION_REPRESENTATION (  '', ( #162 ), #54 ) ;
#42 = ORIENTED_EDGE ( 'NONE', *, *, #44, .T. ) ;
#43 = PRODUCT_DEFINITION_SHAPE ( 'NONE', 'NONE',  #119 ) ;
#44 = EDGE_CURVE ( 'NONE', #263, #250, #29, .T. ) ;
#45 = VERTEX_POINT ( 'NONE', #15 ) ;
#46 = FACE_OUTER_BOUND ( 'NONE', #57, .T. ) ;
#47 = PRESENTATION_LAYER_ASSIGNMENT (  '', '', ( #234 ) ) ;
#48 = UNCERTAINTY_MEASURE_WITH_UNIT (LENGTH_MEASURE( 1.000000000000000082E-05 ), #159, 'distance_accuracy_value', 'NONE');
#49 = STYLED_ITEM ( 'NONE', ( #173 ), #242 ) ;
#50 = AXIS2_PLACEMENT_3D ( 'NONE', #164, #104, #288 ) ;
#51 = PRODUCT_DEFINITION_CONTEXT ( 'detailed design', #253, 'design' ) ;
#52 = ORIENTED_EDGE ( 'NONE', *, *, #231, .T. ) ;
#53 = CARTESIAN_POINT ( 'NONE',  ( 4.454504931917066071E-67, -7.461991131659386346E-35, 0.000000000000000000 ) ) ;
#54 =( GEOMETRIC_REPRESENTATION_CONTEXT ( 3 ) GLOBAL_UNCERTAINTY_ASSIGNED_CONTEXT ( ( #273 ) ) GLOBAL_UNIT_ASSIGNED_CONTEXT ( ( #24, #305, #129 ) ) REPRESENTATION_CONTEXT ( 'NONE', 'WORKASPACE' ) );
#55 = CARTESIAN_POINT ( 'NONE',  ( -6.123233995736763571E-17, 2.000000000000000000, 0.000000000000000000 ) ) ;
#56 = DIMENSIONAL_EXPONENTS ( 1.000000000000000000, 0.000000000000000000, 0.000000000000000000, 0.000000000000000000, 0.000000000000000000, 0.000000000000000000, 0.000000000000000000 ) ;
#57 = EDGE_LOOP ( 'NONE', ( #52, #218 ) ) ;
#58 = PRESENTATION_STYLE_ASSIGNMENT (( #268 ) ) ;
#59 = ORIENTED_EDGE ( 'NONE', *, *, #158, .F. ) ;
#60 = SURFACE_SIDE_STYLE ('',( #184 ) ) ;
#61 = SURFACE_SIDE_STYLE ('',( #195 ) ) ;
#62 = FACE_OUTER_BOUND ( 'NONE', #75, .T. ) ;
#63 = STYLED_ITEM ( 'NONE', ( #76 ), #142 ) ;
#64 = ORIENTED_EDGE ( 'NONE', *, *, #256, .T. ) ;
#65 = PRODUCT_DEFINITION_FORMATION_WITH_SPECIFIED_SOURCE ( 'ANY', '', #87, .NOT_KNOWN. ) ;
#66 = DIRECTION ( 'NONE',  ( -0.8660254037844397068, 0.4999999999999979461, 0.000000000000000000 ) ) ;
#67 = DIRECTION ( 'NONE',  ( 0.8660254037844397068, 0.4999999999999979461, 1.060575238724908024E-16 ) ) ;
#68 = SURFACE_STYLE_FILL_AREA ( #23 ) ;
#69 = CIRCLE ( 'NONE', #88, 0.09375000000000001388 ) ;
#70 = ADVANCED_FACE ( 'NONE', ( #241 ), #113, .F. ) ;
#71 = DIRECTION ( 'NONE',  ( 1.218900715719354978E-16, -1.000000000000000000, 0.000000000000000000 ) ) ;
#72 = COLOUR_RGB ( '',1.000000000000000000, 0.000000000000000000, 0.000000000000000000 ) ;
#73 = DIRECTION ( 'NONE',  ( -5.969592905327508906E-33, 1.000000000000000000, 0.000000000000000000 ) ) ;
#74 = CARTESIAN_POINT ( 'NONE',  ( -0.09375000000000002776, 2.000000000000000000, 0.000000000000000000 ) ) ;
#75 = EDGE_LOOP ( 'NONE', ( #64, #36, #246, #252 ) ) ;
#76 = PRESENTATION_STYLE_ASSIGNMENT (( #102 ) ) ;
#77 = CARTESIAN_POINT ( 'NONE',  ( 0.02500000000000000139, 0.000000000000000000, 7.271340369937408974E-18 ) ) ;
#78 = ORIENTED_EDGE ( 'NONE', *, *, #158, .T. ) ;
#79 = DIMENSIONAL_EXPONENTS ( 1.000000000000000000, 0.000000000000000000, 0.000000000000000000, 0.000000000000000000, 0.000000000000000000, 0.000000000000000000, 0.000000000000000000 ) ;
#80 =( LENGTH_UNIT ( ) NAMED_UNIT ( * ) SI_UNIT ( $, .METRE. ) );
#81 = MECHANICAL_DESIGN_GEOMETRIC_PRESENTATION_REPRESENTATION (  '', ( #110 ), #230 ) ;
#82 = DIRECTION ( 'NONE',  ( 5.969592905327508906E-33, -1.000000000000000000, -0.000000000000000000 ) ) ;
#83 = CARTESIAN_POINT ( 'NONE',  ( 8.909009863834132142E-67, -1.492398226331877269E-34, 0.000000000000000000 ) ) ;
#84 = EDGE_LOOP ( 'NONE', ( #286, #132, #196, #59 ) ) ;
#85 = ORIENTED_EDGE ( 'NONE', *, *, #256, .F. ) ;
#86 = CARTESIAN_POINT ( 'NONE',  ( -6.123233995736763571E-17, 2.000000000000000000, 0.000000000000000000 ) ) ;
#87 = PRODUCT ( '84593', '84593', '', ( #93 ) ) ;
#88 = AXIS2_PLACEMENT_3D ( 'NONE', #147, #82, #229 ) ;
#89 = EDGE_CURVE ( 'NONE', #131, #193, #189, .T. ) ;
#90 = VECTOR ( 'NONE', #67, 39.37007874015748854 ) ;
#91 = CIRCLE ( 'NONE', #267, 0.09375000000000006939 ) ;
#92 = ADVANCED_FACE ( 'NONE', ( #46 ), #284, .F. ) ;
#93 = PRODUCT_CONTEXT ( 'NONE', #289, 'mechanical' ) ;
#94 = AXIS2_PLACEMENT_3D ( 'NONE', #297, #160, #138 ) ;
#95 = PRESENTATION_LAYER_ASSIGNMENT (  '', '', ( #110 ) ) ;
#96 = EDGE_CURVE ( 'NONE', #224, #131, #22, .T. ) ;
#97 = AXIS2_PLACEMENT_3D ( 'NONE', #148, #5, #177 ) ;
#98 = CARTESIAN_POINT ( 'NONE',  ( 0.09374999999999998612, 2.000000000000000000, 1.148106374200643555E-17 ) ) ;
#99 = ORIENTED_EDGE ( 'NONE', *, *, #262, .T. ) ;
#100 = DIMENSIONAL_EXPONENTS ( 1.000000000000000000, 0.000000000000000000, 0.000000000000000000, 0.000000000000000000, 0.000000000000000000, 0.000000000000000000, 0.000000000000000000 ) ;
#101 = ADVANCED_FACE ( 'NONE', ( #165 ), #257, .T. ) ;
#102 = SURFACE_STYLE_USAGE ( .BOTH. , #194 ) ;
#103 = FACE_OUTER_BOUND ( 'NONE', #175, .T. ) ;
#104 = DIRECTION ( 'NONE',  ( 5.969592905327508906E-33, -1.000000000000000000, -0.000000000000000000 ) ) ;
#105 = CARTESIAN_POINT ( 'NONE',  ( -0.02500000000000000139, -2.984796452663754538E-34, 0.000000000000000000 ) ) ;
#106 = CARTESIAN_POINT ( 'NONE',  ( -2.369500423704768587E-34, 0.03969283100678656917, 0.000000000000000000 ) ) ;
#107 = LENGTH_MEASURE_WITH_UNIT ( LENGTH_MEASURE( 0.02539999999999999897 ), #221 );
#108 = ORIENTED_EDGE ( 'NONE', *, *, #301, .T. ) ;
#109 = FILL_AREA_STYLE_COLOUR ( '', #171 ) ;
#110 = STYLED_ITEM ( 'NONE', ( #212 ), #166 ) ;
#111 = CARTESIAN_POINT ( 'NONE',  ( 0.09374999999999998612, 0.03969283100678665244, 1.148106374200643555E-17 ) ) ;
#112 = EDGE_LOOP ( 'NONE', ( #2, #150, #78, #33 ) ) ;
#113 = PLANE ( 'NONE',  #265 ) ;
#114 = CARTESIAN_POINT ( 'NONE',  ( -0.02500000000000000139, -2.984796452663754538E-34, 0.000000000000000000 ) ) ;
#115 =( NAMED_UNIT ( * ) SI_UNIT ( $, .STERADIAN. ) SOLID_ANGLE_UNIT ( ) );
#116 = AXIS2_PLACEMENT_3D ( 'NONE', #228, #39, #204 ) ;
#117 = COLOUR_RGB ( '',1.000000000000000000, 0.000000000000000000, 0.000000000000000000 ) ;
#118 = AXIS2_PLACEMENT_3D ( 'NONE', #266, #287, #26 ) ;
#119 = PRODUCT_DEFINITION ( 'UNKNOWN', '', #65, #51 ) ;
#120 = SURFACE_SIDE_STYLE ('',( #68 ) ) ;
#121 = UNCERTAINTY_MEASURE_WITH_UNIT (LENGTH_MEASURE( 1.000000000000000082E-05 ), #124, 'distance_accuracy_value', 'NONE');
#122 =( GEOMETRIC_REPRESENTATION_CONTEXT ( 3 ) GLOBAL_UNCERTAINTY_ASSIGNED_CONTEXT ( ( #141 ) ) GLOBAL_UNIT_ASSIGNED_CONTEXT ( ( #135, #272, #182 ) ) REPRESENTATION_CONTEXT ( 'NONE', 'WORKASPACE' ) );
#123 = PRESENTATION_LAYER_ASSIGNMENT (  '', '', ( #278 ) ) ;
#124 =( CONVERSION_BASED_UNIT ( 'INCH', #249 ) LENGTH_UNIT ( ) NAMED_UNIT ( #176 ) );
#125 =( NAMED_UNIT ( * ) SI_UNIT ( $, .STERADIAN. ) SOLID_ANGLE_UNIT ( ) );
#126 = EDGE_CURVE ( 'NONE', #263, #271, #219, .T. ) ;
#127 = CLOSED_SHELL ( 'NONE', ( #10, #70, #280, #92 ) ) ;
#128 = CIRCLE ( 'NONE', #12, 0.09374999999999983347 ) ;
#129 =( NAMED_UNIT ( * ) SI_UNIT ( $, .STERADIAN. ) SOLID_ANGLE_UNIT ( ) );
#130 = FILL_AREA_STYLE_COLOUR ( '', #72 ) ;
#131 = VERTEX_POINT ( 'NONE', #3 ) ;
#132 = ORIENTED_EDGE ( 'NONE', *, *, #96, .T. ) ;
#133 = CYLINDRICAL_SURFACE ( 'NONE', #190, 0.09374999999999995837 ) ;
#134 = UNCERTAINTY_MEASURE_WITH_UNIT (LENGTH_MEASURE( 1.000000000000000082E-05 ), #161, 'distance_accuracy_value', 'NONE');
#135 =( CONVERSION_BASED_UNIT ( 'INCH', #152 ) LENGTH_UNIT ( ) NAMED_UNIT ( #56 ) );
#136 = VECTOR ( 'NONE', #66, 39.37007874015748854 ) ;
#137 =( NAMED_UNIT ( * ) PLANE_ANGLE_UNIT ( ) SI_UNIT ( $, .RADIAN. ) );
#138 = DIRECTION ( 'NONE',  ( -1.000000000000000000, -9.106159978880893419E-17, 0.000000000000000000 ) ) ;
#139 = EDGE_LOOP ( 'NONE', ( #293, #108 ) ) ;
#140 = CARTESIAN_POINT ( 'NONE',  ( -0.09374999999999966693, 0.03969283100678663162, 0.000000000000000000 ) ) ;
#141 = UNCERTAINTY_MEASURE_WITH_UNIT (LENGTH_MEASURE( 1.000000000000000082E-05 ), #135, 'distance_accuracy_value', 'NONE');
#142 = MANIFOLD_SOLID_BREP ( 'Revolve - Cutting Edge', #258 ) ;
#143 = FILL_AREA_STYLE ('',( #254 ) ) ;
#144 =( LENGTH_UNIT ( ) NAMED_UNIT ( * ) SI_UNIT ( $, .METRE. ) );
#145 = ADVANCED_FACE ( 'NONE', ( #197 ), #167, .T. ) ;
#146 =( NAMED_UNIT ( * ) SI_UNIT ( $, .STERADIAN. ) SOLID_ANGLE_UNIT ( ) );
#147 = CARTESIAN_POINT ( 'NONE',  ( -2.369500423704768587E-34, 0.03969283100678656917, 0.000000000000000000 ) ) ;
#148 = CARTESIAN_POINT ( 'NONE',  ( 8.909009863834132142E-67, -1.492398226331877269E-34, 0.000000000000000000 ) ) ;
#149 = DIMENSIONAL_EXPONENTS ( 1.000000000000000000, 0.000000000000000000, 0.000000000000000000, 0.000000000000000000, 0.000000000000000000, 0.000000000000000000, 0.000000000000000000 ) ;
#150 = ORIENTED_EDGE ( 'NONE', *, *, #260, .F. ) ;
#151 = MECHANICAL_DESIGN_GEOMETRIC_PRESENTATION_REPRESENTATION (  '', ( #278 ), #191 ) ;
#152 = LENGTH_MEASURE_WITH_UNIT ( LENGTH_MEASURE( 0.02539999999999999897 ), #9 );
#153 =( CONVERSION_BASED_UNIT ( 'INCH', #107 ) LENGTH_UNIT ( ) NAMED_UNIT ( #149 ) );
#154 = EDGE_LOOP ( 'NONE', ( #85, #157 ) ) ;
#155 = DIMENSIONAL_EXPONENTS ( 1.000000000000000000, 0.000000000000000000, 0.000000000000000000, 0.000000000000000000, 0.000000000000000000, 0.000000000000000000, 0.000000000000000000 ) ;
#156 = FACE_OUTER_BOUND ( 'NONE', #84, .T. ) ;
#157 = ORIENTED_EDGE ( 'NONE', *, *, #44, .F. ) ;
#158 = EDGE_CURVE ( 'NONE', #200, #193, #283, .T. ) ;
#159 =( CONVERSION_BASED_UNIT ( 'INCH', #34 ) LENGTH_UNIT ( ) NAMED_UNIT ( #155 ) );
#160 = DIRECTION ( 'NONE',  ( -1.218900715719354978E-16, 1.000000000000000000, -0.000000000000000000 ) ) ;
#161 =( CONVERSION_BASED_UNIT ( 'INCH', #226 ) LENGTH_UNIT ( ) NAMED_UNIT ( #79 ) );
#162 = STYLED_ITEM ( 'NONE', ( #207 ), #101 ) ;
#163 =( GEOMETRIC_REPRESENTATION_CONTEXT ( 3 ) GLOBAL_UNCERTAINTY_ASSIGNED_CONTEXT ( ( #121 ) ) GLOBAL_UNIT_ASSIGNED_CONTEXT ( ( #124, #282, #146 ) ) REPRESENTATION_CONTEXT ( 'NONE', 'WORKASPACE' ) );
#164 = CARTESIAN_POINT ( 'NONE',  ( -2.369500423704768587E-34, 0.03969283100678656917, 0.000000000000000000 ) ) ;
#165 = FACE_OUTER_BOUND ( 'NONE', #139, .T. ) ;
#166 = ADVANCED_FACE ( 'NONE', ( #21 ), #302, .T. ) ;
#167 = CONICAL_SURFACE ( 'NONE', #214, 0.02500000000000000139, 1.047197551196600074 ) ;
#168 = APPLICATION_PROTOCOL_DEFINITION ( 'draft international standard', 'automotive_design', 1998, #289 ) ;
#169 = DIRECTION ( 'NONE',  ( 1.000000000000000000, 1.218900715719354978E-16, 0.000000000000000000 ) ) ;
#170 = CIRCLE ( 'NONE', #118, 0.02500000000000000139 ) ;
#171 = COLOUR_RGB ( '',1.000000000000000000, 0.000000000000000000, 0.000000000000000000 ) ;
#172 = FILL_AREA_STYLE ('',( #202 ) ) ;
#173 = PRESENTATION_STYLE_ASSIGNMENT (( #223 ) ) ;
#174 =( NAMED_UNIT ( * ) SI_UNIT ( $, .STERADIAN. ) SOLID_ANGLE_UNIT ( ) );
#175 = EDGE_LOOP ( 'NONE', ( #8, #42, #99, #178 ) ) ;
#176 = DIMENSIONAL_EXPONENTS ( 1.000000000000000000, 0.000000000000000000, 0.000000000000000000, 0.000000000000000000, 0.000000000000000000, 0.000000000000000000, 0.000000000000000000 ) ;
#177 = DIRECTION ( 'NONE',  ( 1.000000000000000000, 5.969592905327508906E-33, 0.000000000000000000 ) ) ;
#178 = ORIENTED_EDGE ( 'NONE', *, *, #210, .F. ) ;
#179 = SHAPE_DEFINITION_REPRESENTATION ( #43, #308 ) ;
#180 = COLOUR_RGB ( '',0.7921568627450980005, 0.8196078431372548767, 0.9333333333333333481 ) ;
#181 = CIRCLE ( 'NONE', #97, 0.02500000000000000139 ) ;
#182 =( NAMED_UNIT ( * ) SI_UNIT ( $, .STERADIAN. ) SOLID_ANGLE_UNIT ( ) );
#183 = LINE ( 'NONE', #74, #279 ) ;
#184 = SURFACE_STYLE_FILL_AREA ( #290 ) ;
#185 =( LENGTH_UNIT ( ) NAMED_UNIT ( * ) SI_UNIT ( $, .METRE. ) );
#186 = EDGE_LOOP ( 'NONE', ( #13, #274 ) ) ;
#187 = DIRECTION ( 'NONE',  ( 5.969592905327508222E-33, -1.000000000000000000, -0.000000000000000000 ) ) ;
#188 = AXIS2_PLACEMENT_3D ( 'NONE', #285, #245, #269 ) ;
#189 = CIRCLE ( 'NONE', #50, 0.09375000000000001388 ) ;
#190 = AXIS2_PLACEMENT_3D ( 'NONE', #55, #244, #213 ) ;
#191 =( GEOMETRIC_REPRESENTATION_CONTEXT ( 3 ) GLOBAL_UNCERTAINTY_ASSIGNED_CONTEXT ( ( #17 ) ) GLOBAL_UNIT_ASSIGNED_CONTEXT ( ( #153, #199, #174 ) ) REPRESENTATION_CONTEXT ( 'NONE', 'WORKASPACE' ) );
#192 = VECTOR ( 'NONE', #247, 39.37007874015748143 ) ;
#193 = VERTEX_POINT ( 'NONE', #16 ) ;
#194 = SURFACE_SIDE_STYLE ('',( #294 ) ) ;
#195 = SURFACE_STYLE_FILL_AREA ( #217 ) ;
#196 = ORIENTED_EDGE ( 'NONE', *, *, #89, .T. ) ;
#197 = FACE_OUTER_BOUND ( 'NONE', #112, .T. ) ;
#198 = EDGE_CURVE ( 'NONE', #193, #131, #69, .T. ) ;
#199 =( NAMED_UNIT ( * ) PLANE_ANGLE_UNIT ( ) SI_UNIT ( $, .RADIAN. ) );
#200 = VERTEX_POINT ( 'NONE', #114 ) ;
#201 = PRESENTATION_LAYER_ASSIGNMENT (  '', '', ( #63 ) ) ;
#202 = FILL_AREA_STYLE_COLOUR ( '', #292 ) ;
#203 = DIRECTION ( 'NONE',  ( -1.000000000000000000, -5.969592905327508906E-33, 0.000000000000000000 ) ) ;
#204 = DIRECTION ( 'NONE',  ( -1.000000000000000000, 0.000000000000000000, 0.000000000000000000 ) ) ;
#205 =( NAMED_UNIT ( * ) PLANE_ANGLE_UNIT ( ) SI_UNIT ( $, .RADIAN. ) );
#206 = DIRECTION ( 'NONE',  ( -1.218900715719354978E-16, 1.000000000000000000, 0.000000000000000000 ) ) ;
#207 = PRESENTATION_STYLE_ASSIGNMENT (( #208 ) ) ;
#208 = SURFACE_STYLE_USAGE ( .BOTH. , #120 ) ;
#209 = CARTESIAN_POINT ( 'NONE',  ( 0.09375000000000001388, 2.000000000000000000, 0.000000000000000000 ) ) ;
#210 = EDGE_CURVE ( 'NONE', #271, #45, #300, .T. ) ;
#211 =( GEOMETRIC_REPRESENTATION_CONTEXT ( 3 ) GLOBAL_UNCERTAINTY_ASSIGNED_CONTEXT ( ( #134 ) ) GLOBAL_UNIT_ASSIGNED_CONTEXT ( ( #161, #205, #125 ) ) REPRESENTATION_CONTEXT ( 'NONE', 'WORKASPACE' ) );
#212 = PRESENTATION_STYLE_ASSIGNMENT (( #25 ) ) ;
#213 = DIRECTION ( 'NONE',  ( -1.000000000000000000, 0.000000000000000000, 0.000000000000000000 ) ) ;
#214 = AXIS2_PLACEMENT_3D ( 'NONE', #239, #73, #28 ) ;
#215 = AXIS2_PLACEMENT_3D ( 'NONE', #83, #11, #203 ) ;
#216 =( NAMED_UNIT ( * ) SI_UNIT ( $, .STERADIAN. ) SOLID_ANGLE_UNIT ( ) );
#217 = FILL_AREA_STYLE ('',( #130 ) ) ;
#218 = ORIENTED_EDGE ( 'NONE', *, *, #210, .T. ) ;
#219 = LINE ( 'NONE', #222, #192 ) ;
#220 =( NAMED_UNIT ( * ) PLANE_ANGLE_UNIT ( ) SI_UNIT ( $, .RADIAN. ) );
#221 =( LENGTH_UNIT ( ) NAMED_UNIT ( * ) SI_UNIT ( $, .METRE. ) );
#222 = CARTESIAN_POINT ( 'NONE',  ( 0.09374999999999988898, 2.000000000000000000, 1.148106374200643092E-17 ) ) ;
#223 = SURFACE_STYLE_USAGE ( .BOTH. , #248 ) ;
#224 = VERTEX_POINT ( 'NONE', #77 ) ;
#225 = AXIS2_PLACEMENT_3D ( 'NONE', #209, #71, #169 ) ;
#226 = LENGTH_MEASURE_WITH_UNIT ( LENGTH_MEASURE( 0.02539999999999999897 ), #80 );
#227 = FILL_AREA_STYLE_COLOUR ( '', #180 ) ;
#228 = CARTESIAN_POINT ( 'NONE',  ( -6.123233995736763571E-17, 2.000000000000000000, 0.000000000000000000 ) ) ;
#229 = DIRECTION ( 'NONE',  ( 1.000000000000000000, 0.000000000000000000, 0.000000000000000000 ) ) ;
#230 =( GEOMETRIC_REPRESENTATION_CONTEXT ( 3 ) GLOBAL_UNCERTAINTY_ASSIGNED_CONTEXT ( ( #48 ) ) GLOBAL_UNIT_ASSIGNED_CONTEXT ( ( #159, #220, #216 ) ) REPRESENTATION_CONTEXT ( 'NONE', 'WORKASPACE' ) );
#231 = EDGE_CURVE ( 'NONE', #45, #271, #91, .T. ) ;
#232 = CARTESIAN_POINT ( 'NONE',  ( 0.000000000000000000, 0.000000000000000000, 0.000000000000000000 ) ) ;
#233 = UNCERTAINTY_MEASURE_WITH_UNIT (LENGTH_MEASURE( 1.000000000000000082E-05 ), #295, 'distance_accuracy_value', 'NONE');
#234 = STYLED_ITEM ( 'NONE', ( #58 ), #145 ) ;
#235 = SURFACE_SIDE_STYLE ('',( #261 ) ) ;
#236 = DIRECTION ( 'NONE',  ( 1.000000000000000000, 0.000000000000000000, 0.000000000000000000 ) ) ;
#237 = PRESENTATION_LAYER_ASSIGNMENT (  '', '', ( #162 ) ) ;
#238 = PRODUCT_RELATED_PRODUCT_CATEGORY ( 'part', '', ( #87 ) ) ;
#239 = CARTESIAN_POINT ( 'NONE',  ( 8.909009863834132142E-67, -1.492398226331877269E-34, 0.000000000000000000 ) ) ;
#240 = FILL_AREA_STYLE ('',( #227 ) ) ;
#241 = FACE_OUTER_BOUND ( 'NONE', #154, .T. ) ;
#242 = MANIFOLD_SOLID_BREP ( 'Revolve - Tool Body (Tipped Off)', #127 ) ;
#243 = MECHANICAL_DESIGN_GEOMETRIC_PRESENTATION_REPRESENTATION (  '', ( #49 ), #259 ) ;
#244 = DIRECTION ( 'NONE',  ( -1.218900715719354978E-16, 1.000000000000000000, -0.000000000000000000 ) ) ;
#245 = DIRECTION ( 'NONE',  ( -1.218900715719354978E-16, 1.000000000000000000, -0.000000000000000000 ) ) ;
#246 = ORIENTED_EDGE ( 'NONE', *, *, #231, .F. ) ;
#247 = DIRECTION ( 'NONE',  ( -1.218900715719354978E-16, 1.000000000000000000, -0.000000000000000000 ) ) ;
#248 = SURFACE_SIDE_STYLE ('',( #38 ) ) ;
#249 = LENGTH_MEASURE_WITH_UNIT ( LENGTH_MEASURE( 0.02539999999999999897 ), #185 );
#250 = VERTEX_POINT ( 'NONE', #140 ) ;
#251 =( LENGTH_UNIT ( ) NAMED_UNIT ( * ) SI_UNIT ( $, .METRE. ) );
#252 = ORIENTED_EDGE ( 'NONE', *, *, #262, .F. ) ;
#253 = APPLICATION_CONTEXT ( 'automotive_design' ) ;
#254 = FILL_AREA_STYLE_COLOUR ( '', #1 ) ;
#255 = LENGTH_MEASURE_WITH_UNIT ( LENGTH_MEASURE( 0.02539999999999999897 ), #303 );
#256 = EDGE_CURVE ( 'NONE', #250, #263, #128, .T. ) ;
#257 = PLANE ( 'NONE',  #19 ) ;
#258 = CLOSED_SHELL ( 'NONE', ( #296, #166, #145, #101 ) ) ;
#259 =( GEOMETRIC_REPRESENTATION_CONTEXT ( 3 ) GLOBAL_UNCERTAINTY_ASSIGNED_CONTEXT ( ( #233 ) ) GLOBAL_UNIT_ASSIGNED_CONTEXT ( ( #295, #137, #115 ) ) REPRESENTATION_CONTEXT ( 'NONE', 'WORKASPACE' ) );
#260 = EDGE_CURVE ( 'NONE', #200, #224, #170, .T. ) ;
#261 = SURFACE_STYLE_FILL_AREA ( #143 ) ;
#262 = EDGE_CURVE ( 'NONE', #250, #45, #183, .T. ) ;
#263 = VERTEX_POINT ( 'NONE', #111 ) ;
#264 = DIMENSIONAL_EXPONENTS ( 1.000000000000000000, 0.000000000000000000, 0.000000000000000000, 0.000000000000000000, 0.000000000000000000, 0.000000000000000000, 0.000000000000000000 ) ;
#265 = AXIS2_PLACEMENT_3D ( 'NONE', #6, #206, #298 ) ;
#266 = CARTESIAN_POINT ( 'NONE',  ( 8.909009863834132142E-67, -1.492398226331877269E-34, 0.000000000000000000 ) ) ;
#267 = AXIS2_PLACEMENT_3D ( 'NONE', #86, #31, #4 ) ;
#268 = SURFACE_STYLE_USAGE ( .BOTH. , #60 ) ;
#269 = DIRECTION ( 'NONE',  ( -1.000000000000000000, 0.000000000000000000, 0.000000000000000000 ) ) ;
#270 = DIRECTION ( 'NONE',  ( -1.218900715719354978E-16, 1.000000000000000000, -0.000000000000000000 ) ) ;
#271 = VERTEX_POINT ( 'NONE', #98 ) ;
#272 =( NAMED_UNIT ( * ) PLANE_ANGLE_UNIT ( ) SI_UNIT ( $, .RADIAN. ) );
#273 = UNCERTAINTY_MEASURE_WITH_UNIT (LENGTH_MEASURE( 1.000000000000000082E-05 ), #24, 'distance_accuracy_value', 'NONE');
#274 = ORIENTED_EDGE ( 'NONE', *, *, #89, .F. ) ;
#275 = DIRECTION ( 'NONE',  ( 1.000000000000000000, 5.969592905327508222E-33, 0.000000000000000000 ) ) ;
#276 = CYLINDRICAL_SURFACE ( 'NONE', #116, 0.09374999999999995837 ) ;
#277 = CARTESIAN_POINT ( 'NONE',  ( 0.02500000000000000139, 0.000000000000000000, 3.061616997868383172E-18 ) ) ;
#278 = STYLED_ITEM ( 'NONE', ( #309 ), #296 ) ;
#279 = VECTOR ( 'NONE', #270, 39.37007874015748143 ) ;
#280 = ADVANCED_FACE ( 'NONE', ( #103 ), #133, .T. ) ;
#281 = MECHANICAL_DESIGN_GEOMETRIC_PRESENTATION_REPRESENTATION (  '', ( #234 ), #211 ) ;
#282 =( NAMED_UNIT ( * ) PLANE_ANGLE_UNIT ( ) SI_UNIT ( $, .RADIAN. ) );
#283 = LINE ( 'NONE', #105, #136 ) ;
#284 = PLANE ( 'NONE',  #225 ) ;
#285 = CARTESIAN_POINT ( 'NONE',  ( -6.123233995736763571E-17, 2.000000000000000000, 0.000000000000000000 ) ) ;
#286 = ORIENTED_EDGE ( 'NONE', *, *, #301, .F. ) ;
#287 = DIRECTION ( 'NONE',  ( 5.969592905327508906E-33, -1.000000000000000000, -0.000000000000000000 ) ) ;
#288 = DIRECTION ( 'NONE',  ( 1.000000000000000000, 0.000000000000000000, 0.000000000000000000 ) ) ;
#289 = APPLICATION_CONTEXT ( 'automotive_design' ) ;
#290 = FILL_AREA_STYLE ('',( #109 ) ) ;
#291 = DIRECTION ( 'NONE',  ( -5.969592905327508222E-33, 1.000000000000000000, 0.000000000000000000 ) ) ;
#292 = COLOUR_RGB ( '',0.7921568627450980005, 0.8196078431372548767, 0.9333333333333333481 ) ;
#293 = ORIENTED_EDGE ( 'NONE', *, *, #260, .T. ) ;
#294 = SURFACE_STYLE_FILL_AREA ( #172 ) ;
#295 =( CONVERSION_BASED_UNIT ( 'INCH', #40 ) LENGTH_UNIT ( ) NAMED_UNIT ( #264 ) );
#296 = ADVANCED_FACE ( 'NONE', ( #156 ), #307, .T. ) ;
#297 = CARTESIAN_POINT ( 'NONE',  ( 1.777096411741933739E-16, 0.03969283100678664550, 0.000000000000000000 ) ) ;
#298 = DIRECTION ( 'NONE',  ( -1.000000000000000000, -1.218900715719354978E-16, 0.000000000000000000 ) ) ;
#299 = CARTESIAN_POINT ( 'NONE',  ( 1.777096411741933739E-16, 0.03969283100678664550, 0.000000000000000000 ) ) ;
#300 = CIRCLE ( 'NONE', #188, 0.09375000000000006939 ) ;
#301 = EDGE_CURVE ( 'NONE', #224, #200, #181, .T. ) ;
#302 = PLANE ( 'NONE',  #304 ) ;
#303 =( LENGTH_UNIT ( ) NAMED_UNIT ( * ) SI_UNIT ( $, .METRE. ) );
#304 = AXIS2_PLACEMENT_3D ( 'NONE', #106, #291, #14 ) ;
#305 =( NAMED_UNIT ( * ) PLANE_ANGLE_UNIT ( ) SI_UNIT ( $, .RADIAN. ) );
#306 = PRESENTATION_LAYER_ASSIGNMENT (  '', '', ( #49 ) ) ;
#307 = CONICAL_SURFACE ( 'NONE', #215, 0.02500000000000000139, 1.047197551196600074 ) ;
#308 = ADVANCED_BREP_SHAPE_REPRESENTATION ( '84593', ( #142, #242, #20 ), #163 ) ;
#309 = PRESENTATION_STYLE_ASSIGNMENT (( #35 ) ) ;
ENDSEC;
END-ISO-10303-21;
