ISO-10303-21;
HEADER;
FILE_DESCRIPTION (( 'STEP AP214' ),
    '1' );
FILE_NAME ('81708.STEP',
    '2023-06-23T02:46:19',
    ( '' ),
    ( '' ),
    'SwSTEP 2.0',
    'SolidWorks 2023',
    '' );
FILE_SCHEMA (( 'AUTOMOTIVE_DESIGN' ));
ENDSEC;

DATA;
#1 = SURFACE_STYLE_FILL_AREA ( #340 ) ;
#2 = AXIS2_PLACEMENT_3D ( 'NONE', #211, #33, #263 ) ;
#3 = AXIS2_PLACEMENT_3D ( 'NONE', #35, #156, #164 ) ;
#4 =( NAMED_UNIT ( * ) SI_UNIT ( $, .STERADIAN. ) SOLID_ANGLE_UNIT ( ) );
#5 = EDGE_LOOP ( 'NONE', ( #224, #271, #98, #281 ) ) ;
#6 = CARTESIAN_POINT ( 'NONE',  ( 1.339151274867630941E-17, 0.000000000000000000, 0.1093500000000000028 ) ) ;
#7 = EDGE_CURVE ( 'NONE', #65, #342, #80, .T. ) ;
#8 = CARTESIAN_POINT ( 'NONE',  ( -0.1250000000000000555, 0.3554980216144650873, 0.000000000000000000 ) ) ;
#9 = CLOSED_SHELL ( 'NONE', ( #157, #48, #344, #79, #150, #71 ) ) ;
#10 = AXIS2_PLACEMENT_3D ( 'NONE', #358, #177, #91 ) ;
#11 = LINE ( 'NONE', #75, #26 ) ;
#12 = LINE ( 'NONE', #129, #167 ) ;
#13 = ORIENTED_EDGE ( 'NONE', *, *, #7, .F. ) ;
#14 = CARTESIAN_POINT ( 'NONE',  ( 1.339151274867630478E-17, 0.3125000000000000000, 0.1093499999999999889 ) ) ;
#15 = ORIENTED_EDGE ( 'NONE', *, *, #111, .T. ) ;
#16 =( CONVERSION_BASED_UNIT ( 'INCH', #272 ) LENGTH_UNIT ( ) NAMED_UNIT ( #279 ) );
#17 = UNCERTAINTY_MEASURE_WITH_UNIT (LENGTH_MEASURE( 1.000000000000000082E-05 ), #236, 'distance_accuracy_value', 'NONE');
#18 = EDGE_LOOP ( 'NONE', ( #95, #180 ) ) ;
#19 = CARTESIAN_POINT ( 'NONE',  ( -0.1093499999999999889, 0.3125000000000000000, 0.000000000000000000 ) ) ;
#20 = MECHANICAL_DESIGN_GEOMETRIC_PRESENTATION_REPRESENTATION (  '', ( #188 ), #116 ) ;
#21 = AXIS2_PLACEMENT_3D ( 'NONE', #84, #277, #176 ) ;
#22 =( GEOMETRIC_REPRESENTATION_CONTEXT ( 3 ) GLOBAL_UNCERTAINTY_ASSIGNED_CONTEXT ( ( #288 ) ) GLOBAL_UNIT_ASSIGNED_CONTEXT ( ( #16, #97, #135 ) ) REPRESENTATION_CONTEXT ( 'NONE', 'WORKASPACE' ) );
#23 = LENGTH_MEASURE_WITH_UNIT ( LENGTH_MEASURE( 0.02539999999999999897 ), #283 );
#24 = DIRECTION ( 'NONE',  ( -0.000000000000000000, -1.000000000000000000, -0.000000000000000000 ) ) ;
#25 = EDGE_CURVE ( 'NONE', #119, #132, #54, .T. ) ;
#26 = VECTOR ( 'NONE', #284, 39.37007874015748854 ) ;
#27 = LENGTH_MEASURE_WITH_UNIT ( LENGTH_MEASURE( 0.02539999999999999897 ), #120 );
#28 = CARTESIAN_POINT ( 'NONE',  ( 6.123233995736766036E-17, 2.000000000000000000, 0.000000000000000000 ) ) ;
#29 = SURFACE_SIDE_STYLE ('',( #87 ) ) ;
#30 = ADVANCED_FACE ( 'NONE', ( #144 ), #139, .T. ) ;
#31 = CARTESIAN_POINT ( 'NONE',  ( 1.339151274867630478E-17, 0.000000000000000000, 0.1093499999999999889 ) ) ;
#32 = ORIENTED_EDGE ( 'NONE', *, *, #240, .T. ) ;
#33 = DIRECTION ( 'NONE',  ( -0.000000000000000000, -1.000000000000000000, -0.000000000000000000 ) ) ;
#34 = VERTEX_POINT ( 'NONE', #225 ) ;
#35 = CARTESIAN_POINT ( 'NONE',  ( 7.198846956776916766E-35, 0.3125000000000000000, 0.000000000000000000 ) ) ;
#36 = CARTESIAN_POINT ( 'NONE',  ( 0.1093499999999999889, 0.3125000000000000000, 1.339151274867630478E-17 ) ) ;
#37 = AXIS2_PLACEMENT_3D ( 'NONE', #77, #24, #201 ) ;
#38 = EDGE_LOOP ( 'NONE', ( #165, #163, #138, #275 ) ) ;
#39 = VECTOR ( 'NONE', #160, 39.37007874015748854 ) ;
#40 = CARTESIAN_POINT ( 'NONE',  ( 1.560218949328098644E-18, 0.3554980216144650873, 0.000000000000000000 ) ) ;
#41 = ORIENTED_EDGE ( 'NONE', *, *, #356, .F. ) ;
#42 = EDGE_CURVE ( 'NONE', #342, #65, #357, .T. ) ;
#43 = LENGTH_MEASURE_WITH_UNIT ( LENGTH_MEASURE( 0.02539999999999999897 ), #319 );
#44 = EDGE_LOOP ( 'NONE', ( #320, #60 ) ) ;
#45 = SHAPE_DEFINITION_REPRESENTATION ( #103, #350 ) ;
#46 = AXIS2_PLACEMENT_3D ( 'NONE', #169, #51, #170 ) ;
#47 = DIRECTION ( 'NONE',  ( 0.000000000000000000, 0.000000000000000000, 1.000000000000000000 ) ) ;
#48 = ADVANCED_FACE ( 'NONE', ( #308 ), #178, .T. ) ;
#49 = DIRECTION ( 'NONE',  ( 3.628583108584750472E-17, 1.000000000000000000, -0.000000000000000000 ) ) ;
#50 = SURFACE_SIDE_STYLE ('',( #1 ) ) ;
#51 = DIRECTION ( 'NONE',  ( -0.000000000000000000, -1.000000000000000000, -0.000000000000000000 ) ) ;
#52 = APPLICATION_PROTOCOL_DEFINITION ( 'draft international standard', 'automotive_design', 1998, #181 ) ;
#53 = SURFACE_SIDE_STYLE ('',( #351 ) ) ;
#54 = LINE ( 'NONE', #328, #219 ) ;
#55 = VERTEX_POINT ( 'NONE', #199 ) ;
#56 = SURFACE_STYLE_USAGE ( .BOTH. , #172 ) ;
#57 = STYLED_ITEM ( 'NONE', ( #174 ), #30 ) ;
#58 = STYLED_ITEM ( 'NONE', ( #293 ), #248 ) ;
#59 = PRESENTATION_STYLE_ASSIGNMENT (( #56 ) ) ;
#60 = ORIENTED_EDGE ( 'NONE', *, *, #111, .F. ) ;
#61 = CARTESIAN_POINT ( 'NONE',  ( 0.000000000000000000, 0.000000000000000000, 0.000000000000000000 ) ) ;
#62 = COLOUR_RGB ( '',1.000000000000000000, 0.000000000000000000, 0.000000000000000000 ) ;
#63 = PRESENTATION_STYLE_ASSIGNMENT (( #234 ) ) ;
#64 = FILL_AREA_STYLE ('',( #266 ) ) ;
#65 = VERTEX_POINT ( 'NONE', #247 ) ;
#66 = ORIENTED_EDGE ( 'NONE', *, *, #229, .T. ) ;
#67 = UNCERTAINTY_MEASURE_WITH_UNIT (LENGTH_MEASURE( 1.000000000000000082E-05 ), #339, 'distance_accuracy_value', 'NONE');
#68 = ORIENTED_EDGE ( 'NONE', *, *, #217, .T. ) ;
#69 = PRODUCT_RELATED_PRODUCT_CATEGORY ( 'part', '', ( #168 ) ) ;
#70 = DIRECTION ( 'NONE',  ( -1.000000000000000000, 0.000000000000000000, 0.000000000000000000 ) ) ;
#71 = ADVANCED_FACE ( 'NONE', ( #216 ), #326, .F. ) ;
#72 = CARTESIAN_POINT ( 'NONE',  ( 0.1250000000000000555, 2.000000000000000000, 0.000000000000000000 ) ) ;
#73 = CIRCLE ( 'NONE', #297, 0.1093499999999999889 ) ;
#74 =( GEOMETRIC_REPRESENTATION_CONTEXT ( 3 ) GLOBAL_UNCERTAINTY_ASSIGNED_CONTEXT ( ( #197 ) ) GLOBAL_UNIT_ASSIGNED_CONTEXT ( ( #269, #117, #311 ) ) REPRESENTATION_CONTEXT ( 'NONE', 'WORKASPACE' ) );
#75 = CARTESIAN_POINT ( 'NONE',  ( -0.1093499999999999889, 0.3125000000000000000, 0.000000000000000000 ) ) ;
#76 = FILL_AREA_STYLE ('',( #306 ) ) ;
#77 = CARTESIAN_POINT ( 'NONE',  ( 0.000000000000000000, 0.000000000000000000, 0.000000000000000000 ) ) ;
#78 = DIRECTION ( 'NONE',  ( -0.000000000000000000, -1.000000000000000000, -0.000000000000000000 ) ) ;
#79 = ADVANCED_FACE ( 'NONE', ( #353 ), #159, .T. ) ;
#80 = CIRCLE ( 'NONE', #37, 0.1093500000000000028 ) ;
#81 = MECHANICAL_DESIGN_GEOMETRIC_PRESENTATION_REPRESENTATION (  '', ( #200 ), #173 ) ;
#82 = DIMENSIONAL_EXPONENTS ( 1.000000000000000000, 0.000000000000000000, 0.000000000000000000, 0.000000000000000000, 0.000000000000000000, 0.000000000000000000, 0.000000000000000000 ) ;
#83 =( NAMED_UNIT ( * ) SI_UNIT ( $, .STERADIAN. ) SOLID_ANGLE_UNIT ( ) );
#84 = CARTESIAN_POINT ( 'NONE',  ( 1.560218949328098644E-18, 0.3554980216144650873, 0.000000000000000000 ) ) ;
#85 = DIRECTION ( 'NONE',  ( 3.628583108584750472E-17, 1.000000000000000000, -0.000000000000000000 ) ) ;
#86 = EDGE_CURVE ( 'NONE', #307, #34, #327, .T. ) ;
#87 = SURFACE_STYLE_FILL_AREA ( #314 ) ;
#88 = DIMENSIONAL_EXPONENTS ( 1.000000000000000000, 0.000000000000000000, 0.000000000000000000, 0.000000000000000000, 0.000000000000000000, 0.000000000000000000, 0.000000000000000000 ) ;
#89 = COLOUR_RGB ( '',1.000000000000000000, 0.000000000000000000, 0.000000000000000000 ) ;
#90 = CYLINDRICAL_SURFACE ( 'NONE', #352, 0.1250000000000000278 ) ;
#91 = DIRECTION ( 'NONE',  ( 0.000000000000000000, 0.000000000000000000, -1.000000000000000000 ) ) ;
#92 = CYLINDRICAL_SURFACE ( 'NONE', #107, 0.1250000000000000278 ) ;
#93 = EDGE_CURVE ( 'NONE', #55, #65, #222, .T. ) ;
#94 = MECHANICAL_DESIGN_GEOMETRIC_PRESENTATION_REPRESENTATION (  '', ( #251 ), #291 ) ;
#95 = ORIENTED_EDGE ( 'NONE', *, *, #118, .F. ) ;
#96 = PLANE ( 'NONE',  #3 ) ;
#97 =( NAMED_UNIT ( * ) PLANE_ANGLE_UNIT ( ) SI_UNIT ( $, .RADIAN. ) );
#98 = ORIENTED_EDGE ( 'NONE', *, *, #217, .F. ) ;
#99 = PRESENTATION_STYLE_ASSIGNMENT (( #105 ) ) ;
#100 = ORIENTED_EDGE ( 'NONE', *, *, #185, .F. ) ;
#101 = FACE_OUTER_BOUND ( 'NONE', #212, .T. ) ;
#102 = VECTOR ( 'NONE', #334, 39.37007874015748143 ) ;
#103 = PRODUCT_DEFINITION_SHAPE ( 'NONE', 'NONE',  #261 ) ;
#104 = CARTESIAN_POINT ( 'NONE',  ( 0.000000000000000000, 0.3125000000000000000, 0.000000000000000000 ) ) ;
#105 = SURFACE_STYLE_USAGE ( .BOTH. , #321 ) ;
#106 = DIRECTION ( 'NONE',  ( -1.000000000000000000, 0.000000000000000000, 0.000000000000000000 ) ) ;
#107 = AXIS2_PLACEMENT_3D ( 'NONE', #122, #205, #125 ) ;
#108 = MANIFOLD_SOLID_BREP ( 'Revolve - Cutting Edge', #244 ) ;
#109 = CARTESIAN_POINT ( 'NONE',  ( 0.000000000000000000, 0.3125000000000000000, 0.000000000000000000 ) ) ;
#110 =( LENGTH_UNIT ( ) NAMED_UNIT ( * ) SI_UNIT ( $, .METRE. ) );
#111 = EDGE_CURVE ( 'NONE', #34, #307, #207, .T. ) ;
#112 = DIRECTION ( 'NONE',  ( -3.628583108584750472E-17, -1.000000000000000000, 0.000000000000000000 ) ) ;
#113 = ORIENTED_EDGE ( 'NONE', *, *, #93, .F. ) ;
#114 = DIRECTION ( 'NONE',  ( 3.628583108584750472E-17, 1.000000000000000000, -0.000000000000000000 ) ) ;
#115 =( GEOMETRIC_REPRESENTATION_CONTEXT ( 3 ) GLOBAL_UNCERTAINTY_ASSIGNED_CONTEXT ( ( #208 ) ) GLOBAL_UNIT_ASSIGNED_CONTEXT ( ( #223, #175, #83 ) ) REPRESENTATION_CONTEXT ( 'NONE', 'WORKASPACE' ) );
#116 =( GEOMETRIC_REPRESENTATION_CONTEXT ( 3 ) GLOBAL_UNCERTAINTY_ASSIGNED_CONTEXT ( ( #218 ) ) GLOBAL_UNIT_ASSIGNED_CONTEXT ( ( #134, #341, #127 ) ) REPRESENTATION_CONTEXT ( 'NONE', 'WORKASPACE' ) );
#117 =( NAMED_UNIT ( * ) PLANE_ANGLE_UNIT ( ) SI_UNIT ( $, .RADIAN. ) );
#118 = EDGE_CURVE ( 'NONE', #55, #299, #220, .T. ) ;
#119 = VERTEX_POINT ( 'NONE', #292 ) ;
#120 =( LENGTH_UNIT ( ) NAMED_UNIT ( * ) SI_UNIT ( $, .METRE. ) );
#121 = DIMENSIONAL_EXPONENTS ( 1.000000000000000000, 0.000000000000000000, 0.000000000000000000, 0.000000000000000000, 0.000000000000000000, 0.000000000000000000, 0.000000000000000000 ) ;
#122 = CARTESIAN_POINT ( 'NONE',  ( 6.123233995736766036E-17, 2.000000000000000000, 0.000000000000000000 ) ) ;
#123 = DIRECTION ( 'NONE',  ( -0.000000000000000000, -1.000000000000000000, -0.000000000000000000 ) ) ;
#124 = CIRCLE ( 'NONE', #343, 0.1250000000000000000 ) ;
#125 = DIRECTION ( 'NONE',  ( -1.000000000000000000, 0.000000000000000000, 0.000000000000000000 ) ) ;
#126 = DIRECTION ( 'NONE',  ( -1.000000000000000000, 0.000000000000000000, 0.000000000000000000 ) ) ;
#127 =( NAMED_UNIT ( * ) SI_UNIT ( $, .STERADIAN. ) SOLID_ANGLE_UNIT ( ) );
#128 = PRESENTATION_LAYER_ASSIGNMENT (  '', '', ( #200 ) ) ;
#129 = CARTESIAN_POINT ( 'NONE',  ( -0.1249999999999999584, 2.000000000000000000, 0.000000000000000000 ) ) ;
#130 = STYLED_ITEM ( 'NONE', ( #152 ), #325 ) ;
#131 = LENGTH_MEASURE_WITH_UNIT ( LENGTH_MEASURE( 0.02539999999999999897 ), #245 );
#132 = VERTEX_POINT ( 'NONE', #259 ) ;
#133 = DIRECTION ( 'NONE',  ( -1.000000000000000000, 0.000000000000000000, 0.000000000000000000 ) ) ;
#134 =( CONVERSION_BASED_UNIT ( 'INCH', #43 ) LENGTH_UNIT ( ) NAMED_UNIT ( #121 ) );
#135 =( NAMED_UNIT ( * ) SI_UNIT ( $, .STERADIAN. ) SOLID_ANGLE_UNIT ( ) );
#136 = ORIENTED_EDGE ( 'NONE', *, *, #86, .T. ) ;
#137 =( LENGTH_UNIT ( ) NAMED_UNIT ( * ) SI_UNIT ( $, .METRE. ) );
#138 = ORIENTED_EDGE ( 'NONE', *, *, #93, .T. ) ;
#139 = CYLINDRICAL_SURFACE ( 'NONE', #206, 0.1093499999999999889 ) ;
#140 = CARTESIAN_POINT ( 'NONE',  ( 0.000000000000000000, 0.3125000000000000000, 0.000000000000000000 ) ) ;
#141 = COLOUR_RGB ( '',0.7921568627450980005, 0.8196078431372548767, 0.9333333333333333481 ) ;
#142 = CIRCLE ( 'NONE', #285, 0.1250000000000000555 ) ;
#143 = ORIENTED_EDGE ( 'NONE', *, *, #282, .T. ) ;
#144 = FACE_OUTER_BOUND ( 'NONE', #38, .T. ) ;
#145 = ADVANCED_FACE ( 'NONE', ( #179 ), #203, .T. ) ;
#146 =( NAMED_UNIT ( * ) SI_UNIT ( $, .STERADIAN. ) SOLID_ANGLE_UNIT ( ) );
#147 = DIRECTION ( 'NONE',  ( 0.000000000000000000, -1.000000000000000000, -0.000000000000000000 ) ) ;
#148 =( NAMED_UNIT ( * ) PLANE_ANGLE_UNIT ( ) SI_UNIT ( $, .RADIAN. ) );
#149 = COLOUR_RGB ( '',0.7921568627450980005, 0.8196078431372548767, 0.9333333333333333481 ) ;
#150 = ADVANCED_FACE ( 'NONE', ( #257 ), #92, .T. ) ;
#151 = CARTESIAN_POINT ( 'NONE',  ( 6.123233995736766036E-17, 2.000000000000000000, 0.000000000000000000 ) ) ;
#152 = PRESENTATION_STYLE_ASSIGNMENT (( #301 ) ) ;
#153 = ORIENTED_EDGE ( 'NONE', *, *, #118, .T. ) ;
#154 = SURFACE_STYLE_USAGE ( .BOTH. , #241 ) ;
#155 = ORIENTED_EDGE ( 'NONE', *, *, #268, .T. ) ;
#156 = DIRECTION ( 'NONE',  ( 3.628583108584750472E-17, 1.000000000000000000, -0.000000000000000000 ) ) ;
#157 = ADVANCED_FACE ( 'NONE', ( #230 ), #90, .T. ) ;
#158 = DIRECTION ( 'NONE',  ( 0.000000000000000000, 0.000000000000000000, -1.000000000000000000 ) ) ;
#159 = CONICAL_SURFACE ( 'NONE', #189, 0.1093499999999999889, 0.3490658503988659511 ) ;
#160 = DIRECTION ( 'NONE',  ( 0.3420201433256688239, 0.9396926207859083169, 4.188538737676992998E-17 ) ) ;
#161 = EDGE_LOOP ( 'NONE', ( #264, #15, #143, #41 ) ) ;
#162 = DIRECTION ( 'NONE',  ( 3.628583108584750472E-17, 1.000000000000000000, -0.000000000000000000 ) ) ;
#163 = ORIENTED_EDGE ( 'NONE', *, *, #296, .T. ) ;
#164 = DIRECTION ( 'NONE',  ( -1.000000000000000000, 3.628583108584750472E-17, 0.000000000000000000 ) ) ;
#165 = ORIENTED_EDGE ( 'NONE', *, *, #240, .F. ) ;
#166 = PRESENTATION_LAYER_ASSIGNMENT (  '', '', ( #57 ) ) ;
#167 = VECTOR ( 'NONE', #192, 39.37007874015748143 ) ;
#168 = PRODUCT ( '81708', '81708', '', ( #349 ) ) ;
#169 = CARTESIAN_POINT ( 'NONE',  ( 0.000000000000000000, 0.000000000000000000, 0.000000000000000000 ) ) ;
#170 = DIRECTION ( 'NONE',  ( 0.000000000000000000, 0.000000000000000000, -1.000000000000000000 ) ) ;
#171 = DIMENSIONAL_EXPONENTS ( 1.000000000000000000, 0.000000000000000000, 0.000000000000000000, 0.000000000000000000, 0.000000000000000000, 0.000000000000000000, 0.000000000000000000 ) ;
#172 = SURFACE_SIDE_STYLE ('',( #304 ) ) ;
#173 =( GEOMETRIC_REPRESENTATION_CONTEXT ( 3 ) GLOBAL_UNCERTAINTY_ASSIGNED_CONTEXT ( ( #67 ) ) GLOBAL_UNIT_ASSIGNED_CONTEXT ( ( #339, #316, #146 ) ) REPRESENTATION_CONTEXT ( 'NONE', 'WORKASPACE' ) );
#174 = PRESENTATION_STYLE_ASSIGNMENT (( #280 ) ) ;
#175 =( NAMED_UNIT ( * ) PLANE_ANGLE_UNIT ( ) SI_UNIT ( $, .RADIAN. ) );
#176 = DIRECTION ( 'NONE',  ( -1.000000000000000000, 0.000000000000000000, 0.000000000000000000 ) ) ;
#177 = DIRECTION ( 'NONE',  ( -0.000000000000000000, -1.000000000000000000, -0.000000000000000000 ) ) ;
#178 = CONICAL_SURFACE ( 'NONE', #258, 0.1093499999999999889, 0.3490658503988659511 ) ;
#179 = FACE_OUTER_BOUND ( 'NONE', #18, .T. ) ;
#180 = ORIENTED_EDGE ( 'NONE', *, *, #296, .F. ) ;
#181 = APPLICATION_CONTEXT ( 'automotive_design' ) ;
#182 = DIRECTION ( 'NONE',  ( -1.000000000000000000, 0.000000000000000000, 0.000000000000000000 ) ) ;
#183 = PRESENTATION_LAYER_ASSIGNMENT (  '', '', ( #58 ) ) ;
#184 = CARTESIAN_POINT ( 'NONE',  ( 6.123233995736766036E-17, 2.000000000000000000, 0.000000000000000000 ) ) ;
#185 = EDGE_CURVE ( 'NONE', #132, #294, #124, .T. ) ;
#186 =( NAMED_UNIT ( * ) SI_UNIT ( $, .STERADIAN. ) SOLID_ANGLE_UNIT ( ) );
#187 = LINE ( 'NONE', #36, #39 ) ;
#188 = STYLED_ITEM ( 'NONE', ( #99 ), #255 ) ;
#189 = AXIS2_PLACEMENT_3D ( 'NONE', #195, #49, #221 ) ;
#190 = LINE ( 'NONE', #31, #332 ) ;
#191 = ORIENTED_EDGE ( 'NONE', *, *, #300, .F. ) ;
#192 = DIRECTION ( 'NONE',  ( 3.628583108584750472E-17, 1.000000000000000000, -0.000000000000000000 ) ) ;
#193 = PRODUCT_DEFINITION_CONTEXT ( 'detailed design', #215, 'design' ) ;
#194 =( NAMED_UNIT ( * ) PLANE_ANGLE_UNIT ( ) SI_UNIT ( $, .RADIAN. ) );
#195 = CARTESIAN_POINT ( 'NONE',  ( 0.000000000000000000, 0.3125000000000000000, 0.000000000000000000 ) ) ;
#196 = DIRECTION ( 'NONE',  ( 3.628583108584750472E-17, 1.000000000000000000, -0.000000000000000000 ) ) ;
#197 = UNCERTAINTY_MEASURE_WITH_UNIT (LENGTH_MEASURE( 1.000000000000000082E-05 ), #269, 'distance_accuracy_value', 'NONE');
#198 = FILL_AREA_STYLE ('',( #330 ) ) ;
#199 = CARTESIAN_POINT ( 'NONE',  ( 0.000000000000000000, 0.3125000000000000000, -0.1093499999999999889 ) ) ;
#200 = STYLED_ITEM ( 'NONE', ( #59 ), #108 ) ;
#201 = DIRECTION ( 'NONE',  ( 0.000000000000000000, 0.000000000000000000, -1.000000000000000000 ) ) ;
#202 = DIRECTION ( 'NONE',  ( 3.628583108584750472E-17, 1.000000000000000000, -0.000000000000000000 ) ) ;
#203 = PLANE ( 'NONE',  #265 ) ;
#204 = MECHANICAL_DESIGN_GEOMETRIC_PRESENTATION_REPRESENTATION (  '', ( #58 ), #226 ) ;
#205 = DIRECTION ( 'NONE',  ( 3.628583108584750472E-17, 1.000000000000000000, -0.000000000000000000 ) ) ;
#206 = AXIS2_PLACEMENT_3D ( 'NONE', #276, #78, #250 ) ;
#207 = CIRCLE ( 'NONE', #238, 0.1093499999999999889 ) ;
#208 = UNCERTAINTY_MEASURE_WITH_UNIT (LENGTH_MEASURE( 1.000000000000000082E-05 ), #223, 'distance_accuracy_value', 'NONE');
#209 = ORIENTED_EDGE ( 'NONE', *, *, #185, .T. ) ;
#210 = CYLINDRICAL_SURFACE ( 'NONE', #2, 0.1093499999999999889 ) ;
#211 = CARTESIAN_POINT ( 'NONE',  ( 0.000000000000000000, 0.000000000000000000, 0.000000000000000000 ) ) ;
#212 = EDGE_LOOP ( 'NONE', ( #153, #32, #13, #113 ) ) ;
#213 = CIRCLE ( 'NONE', #21, 0.1250000000000000555 ) ;
#214 = AXIS2_PLACEMENT_3D ( 'NONE', #61, #147, #235 ) ;
#215 = APPLICATION_CONTEXT ( 'automotive_design' ) ;
#216 = FACE_OUTER_BOUND ( 'NONE', #336, .T. ) ;
#217 = EDGE_CURVE ( 'NONE', #294, #132, #305, .T. ) ;
#218 = UNCERTAINTY_MEASURE_WITH_UNIT (LENGTH_MEASURE( 1.000000000000000082E-05 ), #134, 'distance_accuracy_value', 'NONE');
#219 = VECTOR ( 'NONE', #196, 39.37007874015748143 ) ;
#220 = CIRCLE ( 'NONE', #10, 0.1093499999999999889 ) ;
#221 = DIRECTION ( 'NONE',  ( -1.000000000000000000, 0.000000000000000000, 0.000000000000000000 ) ) ;
#222 = LINE ( 'NONE', #355, #102 ) ;
#223 =( CONVERSION_BASED_UNIT ( 'INCH', #23 ) LENGTH_UNIT ( ) NAMED_UNIT ( #88 ) );
#224 = ORIENTED_EDGE ( 'NONE', *, *, #300, .T. ) ;
#225 = CARTESIAN_POINT ( 'NONE',  ( 0.1093499999999999889, 0.3125000000000000000, 1.434979886900911302E-17 ) ) ;
#226 =( GEOMETRIC_REPRESENTATION_CONTEXT ( 3 ) GLOBAL_UNCERTAINTY_ASSIGNED_CONTEXT ( ( #331 ) ) GLOBAL_UNIT_ASSIGNED_CONTEXT ( ( #295, #194, #186 ) ) REPRESENTATION_CONTEXT ( 'NONE', 'WORKASPACE' ) );
#227 = PLANE ( 'NONE',  #214 ) ;
#228 = DIRECTION ( 'NONE',  ( 0.000000000000000000, 1.000000000000000000, 0.000000000000000000 ) ) ;
#229 = EDGE_CURVE ( 'NONE', #267, #294, #12, .T. ) ;
#230 = FACE_OUTER_BOUND ( 'NONE', #5, .T. ) ;
#231 = PRESENTATION_LAYER_ASSIGNMENT (  '', '', ( #251 ) ) ;
#232 = AXIS2_PLACEMENT_3D ( 'NONE', #298, #47, #242 ) ;
#233 = PRESENTATION_LAYER_ASSIGNMENT (  '', '', ( #130 ) ) ;
#234 = SURFACE_STYLE_USAGE ( .BOTH. , #29 ) ;
#235 = DIRECTION ( 'NONE',  ( 0.000000000000000000, 0.000000000000000000, -1.000000000000000000 ) ) ;
#236 =( CONVERSION_BASED_UNIT ( 'INCH', #27 ) LENGTH_UNIT ( ) NAMED_UNIT ( #309 ) );
#237 = FACE_OUTER_BOUND ( 'NONE', #44, .T. ) ;
#238 = AXIS2_PLACEMENT_3D ( 'NONE', #329, #202, #182 ) ;
#239 = DIRECTION ( 'NONE',  ( -1.000000000000000000, 0.000000000000000000, 0.000000000000000000 ) ) ;
#240 = EDGE_CURVE ( 'NONE', #299, #342, #190, .T. ) ;
#241 = SURFACE_SIDE_STYLE ('',( #270 ) ) ;
#242 = DIRECTION ( 'NONE',  ( 1.000000000000000000, 0.000000000000000000, 0.000000000000000000 ) ) ;
#243 = ORIENTED_EDGE ( 'NONE', *, *, #7, .T. ) ;
#244 = CLOSED_SHELL ( 'NONE', ( #255, #145, #30, #325 ) ) ;
#245 =( LENGTH_UNIT ( ) NAMED_UNIT ( * ) SI_UNIT ( $, .METRE. ) );
#246 = EDGE_LOOP ( 'NONE', ( #348, #322, #66, #100 ) ) ;
#247 = CARTESIAN_POINT ( 'NONE',  ( 0.000000000000000000, 0.000000000000000000, -0.1093500000000000028 ) ) ;
#248 = MANIFOLD_SOLID_BREP ( 'Revolve - Tool Body (Reduced Cut Diameter)', #9 ) ;
#249 = APPLICATION_PROTOCOL_DEFINITION ( 'draft international standard', 'automotive_design', 1998, #215 ) ;
#250 = DIRECTION ( 'NONE',  ( 0.000000000000000000, 0.000000000000000000, -1.000000000000000000 ) ) ;
#251 = STYLED_ITEM ( 'NONE', ( #63 ), #145 ) ;
#252 = DIRECTION ( 'NONE',  ( -1.000000000000000000, 0.000000000000000000, 0.000000000000000000 ) ) ;
#253 = ORIENTED_EDGE ( 'NONE', *, *, #42, .T. ) ;
#254 = AXIS2_PLACEMENT_3D ( 'NONE', #140, #278, #252 ) ;
#255 = ADVANCED_FACE ( 'NONE', ( #101 ), #210, .T. ) ;
#256 = DIRECTION ( 'NONE',  ( 0.000000000000000000, -0.000000000000000000, 1.000000000000000000 ) ) ;
#257 = FACE_OUTER_BOUND ( 'NONE', #246, .T. ) ;
#258 = AXIS2_PLACEMENT_3D ( 'NONE', #109, #114, #106 ) ;
#259 = CARTESIAN_POINT ( 'NONE',  ( 0.1250000000000000833, 2.000000000000000000, 1.530808498934192125E-17 ) ) ;
#260 = CARTESIAN_POINT ( 'NONE',  ( -0.1249999999999999306, 2.000000000000000000, 0.000000000000000000 ) ) ;
#261 = PRODUCT_DEFINITION ( 'UNKNOWN', '', #274, #193 ) ;
#262 = ORIENTED_EDGE ( 'NONE', *, *, #282, .F. ) ;
#263 = DIRECTION ( 'NONE',  ( 0.000000000000000000, 0.000000000000000000, -1.000000000000000000 ) ) ;
#264 = ORIENTED_EDGE ( 'NONE', *, *, #268, .F. ) ;
#265 = AXIS2_PLACEMENT_3D ( 'NONE', #287, #228, #256 ) ;
#266 = FILL_AREA_STYLE_COLOUR ( '', #141 ) ;
#267 = VERTEX_POINT ( 'NONE', #8 ) ;
#268 = EDGE_CURVE ( 'NONE', #34, #119, #187, .T. ) ;
#269 =( CONVERSION_BASED_UNIT ( 'INCH', #310 ) LENGTH_UNIT ( ) NAMED_UNIT ( #171 ) );
#270 = SURFACE_STYLE_FILL_AREA ( #64 ) ;
#271 = ORIENTED_EDGE ( 'NONE', *, *, #25, .T. ) ;
#272 = LENGTH_MEASURE_WITH_UNIT ( LENGTH_MEASURE( 0.02539999999999999897 ), #137 );
#273 = PRESENTATION_LAYER_ASSIGNMENT (  '', '', ( #188 ) ) ;
#274 = PRODUCT_DEFINITION_FORMATION_WITH_SPECIFIED_SOURCE ( 'ANY', '', #168, .NOT_KNOWN. ) ;
#275 = ORIENTED_EDGE ( 'NONE', *, *, #42, .F. ) ;
#276 = CARTESIAN_POINT ( 'NONE',  ( 0.000000000000000000, 0.000000000000000000, 0.000000000000000000 ) ) ;
#277 = DIRECTION ( 'NONE',  ( 3.628583108584750472E-17, 1.000000000000000000, -0.000000000000000000 ) ) ;
#278 = DIRECTION ( 'NONE',  ( 3.628583108584750472E-17, 1.000000000000000000, -0.000000000000000000 ) ) ;
#279 = DIMENSIONAL_EXPONENTS ( 1.000000000000000000, 0.000000000000000000, 0.000000000000000000, 0.000000000000000000, 0.000000000000000000, 0.000000000000000000, 0.000000000000000000 ) ;
#280 = SURFACE_STYLE_USAGE ( .BOTH. , #53 ) ;
#281 = ORIENTED_EDGE ( 'NONE', *, *, #229, .F. ) ;
#282 = EDGE_CURVE ( 'NONE', #307, #267, #11, .T. ) ;
#283 =( LENGTH_UNIT ( ) NAMED_UNIT ( * ) SI_UNIT ( $, .METRE. ) );
#284 = DIRECTION ( 'NONE',  ( -0.3420201433256687129, 0.9396926207859083169, 0.000000000000000000 ) ) ;
#285 = AXIS2_PLACEMENT_3D ( 'NONE', #40, #162, #133 ) ;
#286 = DIMENSIONAL_EXPONENTS ( 1.000000000000000000, 0.000000000000000000, 0.000000000000000000, 0.000000000000000000, 0.000000000000000000, 0.000000000000000000, 0.000000000000000000 ) ;
#287 = CARTESIAN_POINT ( 'NONE',  ( 0.000000000000000000, 0.3125000000000000000, 0.000000000000000000 ) ) ;
#288 = UNCERTAINTY_MEASURE_WITH_UNIT (LENGTH_MEASURE( 1.000000000000000082E-05 ), #16, 'distance_accuracy_value', 'NONE');
#289 = FILL_AREA_STYLE_COLOUR ( '', #89 ) ;
#290 = COLOUR_RGB ( '',1.000000000000000000, 0.000000000000000000, 0.000000000000000000 ) ;
#291 =( GEOMETRIC_REPRESENTATION_CONTEXT ( 3 ) GLOBAL_UNCERTAINTY_ASSIGNED_CONTEXT ( ( #17 ) ) GLOBAL_UNIT_ASSIGNED_CONTEXT ( ( #236, #148, #4 ) ) REPRESENTATION_CONTEXT ( 'NONE', 'WORKASPACE' ) );
#292 = CARTESIAN_POINT ( 'NONE',  ( 0.1250000000000000555, 0.3554980216144650873, 1.530808498934192125E-17 ) ) ;
#293 = PRESENTATION_STYLE_ASSIGNMENT (( #154 ) ) ;
#294 = VERTEX_POINT ( 'NONE', #260 ) ;
#295 =( CONVERSION_BASED_UNIT ( 'INCH', #131 ) LENGTH_UNIT ( ) NAMED_UNIT ( #286 ) );
#296 = EDGE_CURVE ( 'NONE', #299, #55, #73, .T. ) ;
#297 = AXIS2_PLACEMENT_3D ( 'NONE', #104, #123, #158 ) ;
#298 = CARTESIAN_POINT ( 'NONE',  ( 0.000000000000000000, 0.000000000000000000, 0.000000000000000000 ) ) ;
#299 = VERTEX_POINT ( 'NONE', #14 ) ;
#300 = EDGE_CURVE ( 'NONE', #267, #119, #213, .T. ) ;
#301 = SURFACE_STYLE_USAGE ( .BOTH. , #50 ) ;
#302 = DIRECTION ( 'NONE',  ( 1.000000000000000000, -3.628583108584750472E-17, 0.000000000000000000 ) ) ;
#303 = FACE_OUTER_BOUND ( 'NONE', #318, .T. ) ;
#304 = SURFACE_STYLE_FILL_AREA ( #198 ) ;
#305 = CIRCLE ( 'NONE', #337, 0.1250000000000000000 ) ;
#306 = FILL_AREA_STYLE_COLOUR ( '', #290 ) ;
#307 = VERTEX_POINT ( 'NONE', #19 ) ;
#308 = FACE_OUTER_BOUND ( 'NONE', #346, .T. ) ;
#309 = DIMENSIONAL_EXPONENTS ( 1.000000000000000000, 0.000000000000000000, 0.000000000000000000, 0.000000000000000000, 0.000000000000000000, 0.000000000000000000, 0.000000000000000000 ) ;
#310 = LENGTH_MEASURE_WITH_UNIT ( LENGTH_MEASURE( 0.02539999999999999897 ), #110 );
#311 =( NAMED_UNIT ( * ) SI_UNIT ( $, .STERADIAN. ) SOLID_ANGLE_UNIT ( ) );
#312 = MECHANICAL_DESIGN_GEOMETRIC_PRESENTATION_REPRESENTATION (  '', ( #57 ), #115 ) ;
#313 = COLOUR_RGB ( '',1.000000000000000000, 0.000000000000000000, 0.000000000000000000 ) ;
#314 = FILL_AREA_STYLE ('',( #289 ) ) ;
#315 = LENGTH_MEASURE_WITH_UNIT ( LENGTH_MEASURE( 0.02539999999999999897 ), #359 );
#316 =( NAMED_UNIT ( * ) PLANE_ANGLE_UNIT ( ) SI_UNIT ( $, .RADIAN. ) );
#317 = DIRECTION ( 'NONE',  ( -0.000000000000000000, -1.000000000000000000, -0.000000000000000000 ) ) ;
#318 = EDGE_LOOP ( 'NONE', ( #243, #253 ) ) ;
#319 =( LENGTH_UNIT ( ) NAMED_UNIT ( * ) SI_UNIT ( $, .METRE. ) );
#320 = ORIENTED_EDGE ( 'NONE', *, *, #86, .F. ) ;
#321 = SURFACE_SIDE_STYLE ('',( #345 ) ) ;
#322 = ORIENTED_EDGE ( 'NONE', *, *, #356, .T. ) ;
#323 = FILL_AREA_STYLE_COLOUR ( '', #62 ) ;
#324 = DIRECTION ( 'NONE',  ( 3.628583108584750472E-17, 1.000000000000000000, -0.000000000000000000 ) ) ;
#325 = ADVANCED_FACE ( 'NONE', ( #303 ), #227, .T. ) ;
#326 = PLANE ( 'NONE',  #338 ) ;
#327 = CIRCLE ( 'NONE', #254, 0.1093499999999999889 ) ;
#328 = CARTESIAN_POINT ( 'NONE',  ( 0.1250000000000001110, 2.000000000000000000, 1.530808498934191817E-17 ) ) ;
#329 = CARTESIAN_POINT ( 'NONE',  ( 0.000000000000000000, 0.3125000000000000000, 0.000000000000000000 ) ) ;
#330 = FILL_AREA_STYLE_COLOUR ( '', #149 ) ;
#331 = UNCERTAINTY_MEASURE_WITH_UNIT (LENGTH_MEASURE( 1.000000000000000082E-05 ), #295, 'distance_accuracy_value', 'NONE');
#332 = VECTOR ( 'NONE', #317, 39.37007874015748143 ) ;
#333 = MECHANICAL_DESIGN_GEOMETRIC_PRESENTATION_REPRESENTATION (  '', ( #130 ), #74 ) ;
#334 = DIRECTION ( 'NONE',  ( -0.000000000000000000, -1.000000000000000000, -0.000000000000000000 ) ) ;
#335 = DIRECTION ( 'NONE',  ( 3.628583108584750472E-17, 1.000000000000000000, -0.000000000000000000 ) ) ;
#336 = EDGE_LOOP ( 'NONE', ( #68, #209 ) ) ;
#337 = AXIS2_PLACEMENT_3D ( 'NONE', #151, #324, #70 ) ;
#338 = AXIS2_PLACEMENT_3D ( 'NONE', #72, #112, #302 ) ;
#339 =( CONVERSION_BASED_UNIT ( 'INCH', #315 ) LENGTH_UNIT ( ) NAMED_UNIT ( #82 ) );
#340 = FILL_AREA_STYLE ('',( #354 ) ) ;
#341 =( NAMED_UNIT ( * ) PLANE_ANGLE_UNIT ( ) SI_UNIT ( $, .RADIAN. ) );
#342 = VERTEX_POINT ( 'NONE', #6 ) ;
#343 = AXIS2_PLACEMENT_3D ( 'NONE', #184, #85, #239 ) ;
#344 = ADVANCED_FACE ( 'NONE', ( #237 ), #96, .F. ) ;
#345 = SURFACE_STYLE_FILL_AREA ( #347 ) ;
#346 = EDGE_LOOP ( 'NONE', ( #136, #155, #191, #262 ) ) ;
#347 = FILL_AREA_STYLE ('',( #323 ) ) ;
#348 = ORIENTED_EDGE ( 'NONE', *, *, #25, .F. ) ;
#349 = PRODUCT_CONTEXT ( 'NONE', #181, 'mechanical' ) ;
#350 = ADVANCED_BREP_SHAPE_REPRESENTATION ( '81708', ( #108, #248, #232 ), #22 ) ;
#351 = SURFACE_STYLE_FILL_AREA ( #76 ) ;
#352 = AXIS2_PLACEMENT_3D ( 'NONE', #28, #335, #126 ) ;
#353 = FACE_OUTER_BOUND ( 'NONE', #161, .T. ) ;
#354 = FILL_AREA_STYLE_COLOUR ( '', #313 ) ;
#355 = CARTESIAN_POINT ( 'NONE',  ( 0.000000000000000000, 0.000000000000000000, -0.1093499999999999889 ) ) ;
#356 = EDGE_CURVE ( 'NONE', #119, #267, #142, .T. ) ;
#357 = CIRCLE ( 'NONE', #46, 0.1093500000000000028 ) ;
#358 = CARTESIAN_POINT ( 'NONE',  ( 0.000000000000000000, 0.3125000000000000000, 0.000000000000000000 ) ) ;
#359 =( LENGTH_UNIT ( ) NAMED_UNIT ( * ) SI_UNIT ( $, .METRE. ) );
ENDSEC;
END-ISO-10303-21;
