ISO-10303-21;
HEADER;
FILE_DESCRIPTION (( 'STEP AP214' ),
    '1' );
FILE_NAME ('59686.STEP',
    '2023-07-24T15:23:58',
    ( '' ),
    ( '' ),
    'SwSTEP 2.0',
    'SolidWorks 2023',
    '' );
FILE_SCHEMA (( 'AUTOMOTIVE_DESIGN' ));
ENDSEC;

DATA;
#1 = DIRECTION ( 'NONE',  ( -1.000000000000000000, 0.000000000000000000, 0.000000000000000000 ) ) ;
#2 =( NAMED_UNIT ( * ) PLANE_ANGLE_UNIT ( ) SI_UNIT ( $, .RADIAN. ) );
#3 = ADVANCED_FACE ( 'NONE', ( #314 ), #366, .T. ) ;
#4 = CARTESIAN_POINT ( 'NONE',  ( 0.000000000000000000, 1.000000000000000000, 0.000000000000000000 ) ) ;
#5 = CIRCLE ( 'NONE', #359, 2.999999999999991562 ) ;
#6 = CARTESIAN_POINT ( 'NONE',  ( 7.592810154713587074E-15, 63.00000000000000000, 0.000000000000000000 ) ) ;
#7 = AXIS2_PLACEMENT_3D ( 'NONE', #4, #318, #270 ) ;
#8 = CIRCLE ( 'NONE', #80, 3.000000000000000000 ) ;
#9 =( NAMED_UNIT ( * ) PLANE_ANGLE_UNIT ( ) SI_UNIT ( $, .RADIAN. ) );
#10 = SHAPE_DEFINITION_REPRESENTATION ( #21, #141 ) ;
#11 =( LENGTH_UNIT ( ) NAMED_UNIT ( * ) SI_UNIT ( .MILLI., .METRE. ) );
#12 = STYLED_ITEM ( 'NONE', ( #103 ), #336 ) ;
#13 =( LENGTH_UNIT ( ) NAMED_UNIT ( * ) SI_UNIT ( .MILLI., .METRE. ) );
#14 = ORIENTED_EDGE ( 'NONE', *, *, #328, .T. ) ;
#15 = COLOUR_RGB ( '',1.000000000000000000, 0.000000000000000000, 0.000000000000000000 ) ;
#16 = AXIS2_PLACEMENT_3D ( 'NONE', #334, #211, #309 ) ;
#17 = EDGE_LOOP ( 'NONE', ( #18, #20 ) ) ;
#18 = ORIENTED_EDGE ( 'NONE', *, *, #175, .F. ) ;
#19 = DIRECTION ( 'NONE',  ( 0.000000000000000000, -0.000000000000000000, 1.000000000000000000 ) ) ;
#20 = ORIENTED_EDGE ( 'NONE', *, *, #116, .F. ) ;
#21 = PRODUCT_DEFINITION_SHAPE ( 'NONE', 'NONE',  #241 ) ;
#22 = CARTESIAN_POINT ( 'NONE',  ( 0.000000000000000000, 1.000000000000000000, 0.000000000000000000 ) ) ;
#23 = MECHANICAL_DESIGN_GEOMETRIC_PRESENTATION_REPRESENTATION (  '', ( #197 ), #45 ) ;
#24 =( GEOMETRIC_REPRESENTATION_CONTEXT ( 3 ) GLOBAL_UNCERTAINTY_ASSIGNED_CONTEXT ( ( #170 ) ) GLOBAL_UNIT_ASSIGNED_CONTEXT ( ( #194, #2, #324 ) ) REPRESENTATION_CONTEXT ( 'NONE', 'WORKASPACE' ) );
#25 =( LENGTH_UNIT ( ) NAMED_UNIT ( * ) SI_UNIT ( .MILLI., .METRE. ) );
#26 = CARTESIAN_POINT ( 'NONE',  ( 2.999999999999996003, 63.00000000000000000, 3.673940397442045077E-16 ) ) ;
#27 = UNCERTAINTY_MEASURE_WITH_UNIT (LENGTH_MEASURE( 1.000000000000000082E-05 ), #11, 'distance_accuracy_value', 'NONE');
#28 = FILL_AREA_STYLE_COLOUR ( '', #258 ) ;
#29 = EDGE_CURVE ( 'NONE', #145, #362, #217, .T. ) ;
#30 = ORIENTED_EDGE ( 'NONE', *, *, #361, .T. ) ;
#31 = SURFACE_STYLE_FILL_AREA ( #128 ) ;
#32 = FILL_AREA_STYLE ('',( #28 ) ) ;
#33 = ORIENTED_EDGE ( 'NONE', *, *, #181, .T. ) ;
#34 = CARTESIAN_POINT ( 'NONE',  ( 0.000000000000000000, 0.000000000000000000, 0.000000000000000000 ) ) ;
#35 =( GEOMETRIC_REPRESENTATION_CONTEXT ( 3 ) GLOBAL_UNCERTAINTY_ASSIGNED_CONTEXT ( ( #352 ) ) GLOBAL_UNIT_ASSIGNED_CONTEXT ( ( #13, #357, #227 ) ) REPRESENTATION_CONTEXT ( 'NONE', 'WORKASPACE' ) );
#36 = DIRECTION ( 'NONE',  ( -1.444848463910660280E-16, 1.000000000000000000, -0.000000000000000000 ) ) ;
#37 = EDGE_CURVE ( 'NONE', #95, #263, #132, .T. ) ;
#38 = FACE_OUTER_BOUND ( 'NONE', #55, .T. ) ;
#39 = APPLICATION_PROTOCOL_DEFINITION ( 'draft international standard', 'automotive_design', 1998, #316 ) ;
#40 = DIRECTION ( 'NONE',  ( 0.000000000000000000, 0.000000000000000000, -1.000000000000000000 ) ) ;
#41 = PRODUCT_RELATED_PRODUCT_CATEGORY ( 'part', '', ( #275 ) ) ;
#42 = SURFACE_STYLE_USAGE ( .BOTH. , #256 ) ;
#43 =( NAMED_UNIT ( * ) SI_UNIT ( $, .STERADIAN. ) SOLID_ANGLE_UNIT ( ) );
#44 = STYLED_ITEM ( 'NONE', ( #192 ), #99 ) ;
#45 =( GEOMETRIC_REPRESENTATION_CONTEXT ( 3 ) GLOBAL_UNCERTAINTY_ASSIGNED_CONTEXT ( ( #164 ) ) GLOBAL_UNIT_ASSIGNED_CONTEXT ( ( #367, #122, #56 ) ) REPRESENTATION_CONTEXT ( 'NONE', 'WORKASPACE' ) );
#46 = DIRECTION ( 'NONE',  ( -0.000000000000000000, -1.000000000000000000, -0.000000000000000000 ) ) ;
#47 = CYLINDRICAL_SURFACE ( 'NONE', #188, 2.999999999999988454 ) ;
#48 = EDGE_LOOP ( 'NONE', ( #182, #225, #146, #154 ) ) ;
#49 =( GEOMETRIC_REPRESENTATION_CONTEXT ( 3 ) GLOBAL_UNCERTAINTY_ASSIGNED_CONTEXT ( ( #278 ) ) GLOBAL_UNIT_ASSIGNED_CONTEXT ( ( #294, #247, #325 ) ) REPRESENTATION_CONTEXT ( 'NONE', 'WORKASPACE' ) );
#50 = PRODUCT_DEFINITION_FORMATION_WITH_SPECIFIED_SOURCE ( 'ANY', '', #275, .NOT_KNOWN. ) ;
#51 = ORIENTED_EDGE ( 'NONE', *, *, #65, .F. ) ;
#52 = SURFACE_SIDE_STYLE ('',( #287 ) ) ;
#53 = EDGE_LOOP ( 'NONE', ( #288, #33 ) ) ;
#54 = CARTESIAN_POINT ( 'NONE',  ( 7.592810154713587074E-15, 63.00000000000000000, 0.000000000000000000 ) ) ;
#55 = EDGE_LOOP ( 'NONE', ( #257, #185, #253, #206 ) ) ;
#56 =( NAMED_UNIT ( * ) SI_UNIT ( $, .STERADIAN. ) SOLID_ANGLE_UNIT ( ) );
#57 = VECTOR ( 'NONE', #106, 1000.000000000000000 ) ;
#58 = CARTESIAN_POINT ( 'NONE',  ( 0.000000000000000000, 18.00000000000000355, 0.000000000000000000 ) ) ;
#59 = PRESENTATION_LAYER_ASSIGNMENT (  '', '', ( #331 ) ) ;
#60 = ORIENTED_EDGE ( 'NONE', *, *, #221, .T. ) ;
#61 = CARTESIAN_POINT ( 'NONE',  ( 0.000000000000000000, 0.000000000000000000, -2.000000000000000000 ) ) ;
#62 = CARTESIAN_POINT ( 'NONE',  ( 3.673940397442059375E-16, 0.000000000000000000, 2.999999999999999556 ) ) ;
#63 = APPLICATION_CONTEXT ( 'automotive_design' ) ;
#64 = SURFACE_STYLE_USAGE ( .BOTH. , #242 ) ;
#65 = EDGE_CURVE ( 'NONE', #362, #121, #5, .T. ) ;
#66 = DIRECTION ( 'NONE',  ( -1.444848463910660280E-16, 1.000000000000000000, -0.000000000000000000 ) ) ;
#67 = CLOSED_SHELL ( 'NONE', ( #203, #126, #306, #81, #3, #333 ) ) ;
#68 = DIRECTION ( 'NONE',  ( -1.444848463910660280E-16, 1.000000000000000000, -0.000000000000000000 ) ) ;
#69 = PRESENTATION_LAYER_ASSIGNMENT (  '', '', ( #12 ) ) ;
#70 = CARTESIAN_POINT ( 'NONE',  ( 0.000000000000000000, 1.000000000000000000, -3.000000000000000000 ) ) ;
#71 = SURFACE_STYLE_USAGE ( .BOTH. , #370 ) ;
#72 = CARTESIAN_POINT ( 'NONE',  ( 0.000000000000000000, 0.000000000000000000, -2.999999999999999556 ) ) ;
#73 = CARTESIAN_POINT ( 'NONE',  ( 2.999999999999999112, 63.00000000000000000, 0.000000000000000000 ) ) ;
#74 = EDGE_CURVE ( 'NONE', #263, #280, #239, .T. ) ;
#75 =( GEOMETRIC_REPRESENTATION_CONTEXT ( 3 ) GLOBAL_UNCERTAINTY_ASSIGNED_CONTEXT ( ( #113 ) ) GLOBAL_UNIT_ASSIGNED_CONTEXT ( ( #25, #285, #151 ) ) REPRESENTATION_CONTEXT ( 'NONE', 'WORKASPACE' ) );
#76 = AXIS2_PLACEMENT_3D ( 'NONE', #58, #348, #312 ) ;
#77 = PRODUCT_DEFINITION_CONTEXT ( 'detailed design', #316, 'design' ) ;
#78 = EDGE_CURVE ( 'NONE', #158, #205, #195, .T. ) ;
#79 = AXIS2_PLACEMENT_3D ( 'NONE', #129, #66, #317 ) ;
#80 = AXIS2_PLACEMENT_3D ( 'NONE', #166, #272, #40 ) ;
#81 = ADVANCED_FACE ( 'NONE', ( #38 ), #327, .T. ) ;
#82 = CARTESIAN_POINT ( 'NONE',  ( 2.999999999999999556, 63.00000000000000000, 3.673940397442047542E-16 ) ) ;
#83 = ORIENTED_EDGE ( 'NONE', *, *, #252, .F. ) ;
#84 = TOROIDAL_SURFACE ( 'NONE', #115, 2.000000000000000000, 1.000000000000000000 ) ;
#85 = AXIS2_PLACEMENT_3D ( 'NONE', #22, #89, #259 ) ;
#86 = DIRECTION ( 'NONE',  ( -0.000000000000000000, -1.000000000000000000, -0.000000000000000000 ) ) ;
#87 = DIRECTION ( 'NONE',  ( 0.000000000000000000, 0.000000000000000000, 1.000000000000000000 ) ) ;
#88 = SURFACE_SIDE_STYLE ('',( #284 ) ) ;
#89 = DIRECTION ( 'NONE',  ( -0.000000000000000000, -1.000000000000000000, -0.000000000000000000 ) ) ;
#90 =( LENGTH_UNIT ( ) NAMED_UNIT ( * ) SI_UNIT ( .MILLI., .METRE. ) );
#91 = DIRECTION ( 'NONE',  ( 0.000000000000000000, 0.000000000000000000, -1.000000000000000000 ) ) ;
#92 = DIRECTION ( 'NONE',  ( -1.444848463910660280E-16, 1.000000000000000000, 0.000000000000000000 ) ) ;
#93 = COLOUR_RGB ( '',0.7921568627450980005, 0.8196078431372548767, 0.9333333333333333481 ) ;
#94 =( GEOMETRIC_REPRESENTATION_CONTEXT ( 3 ) GLOBAL_UNCERTAINTY_ASSIGNED_CONTEXT ( ( #180 ) ) GLOBAL_UNIT_ASSIGNED_CONTEXT ( ( #342, #237, #183 ) ) REPRESENTATION_CONTEXT ( 'NONE', 'WORKASPACE' ) );
#95 = VERTEX_POINT ( 'NONE', #353 ) ;
#96 = PLANE ( 'NONE',  #207 ) ;
#97 = EDGE_CURVE ( 'NONE', #205, #158, #350, .T. ) ;
#98 = SURFACE_STYLE_FILL_AREA ( #135 ) ;
#99 = MANIFOLD_SOLID_BREP ( 'Revolve - Cutting Edge', #67 ) ;
#100 = FILL_AREA_STYLE ('',( #347 ) ) ;
#101 = CARTESIAN_POINT ( 'NONE',  ( 0.000000000000000000, 18.00000000000000355, -2.999999999999999112 ) ) ;
#102 = DIRECTION ( 'NONE',  ( -0.000000000000000000, -1.000000000000000000, -0.000000000000000000 ) ) ;
#103 = PRESENTATION_STYLE_ASSIGNMENT (( #42 ) ) ;
#104 = DIRECTION ( 'NONE',  ( -1.444848463910660280E-16, 1.000000000000000000, -0.000000000000000000 ) ) ;
#105 = PRESENTATION_LAYER_ASSIGNMENT (  '', '', ( #266 ) ) ;
#106 = DIRECTION ( 'NONE',  ( -0.000000000000000000, -1.000000000000000000, -0.000000000000000000 ) ) ;
#107 = AXIS2_PLACEMENT_3D ( 'NONE', #73, #165, #248 ) ;
#108 = CARTESIAN_POINT ( 'NONE',  ( 0.000000000000000000, 0.000000000000000000, 0.000000000000000000 ) ) ;
#109 = PRODUCT_CONTEXT ( 'NONE', #63, 'mechanical' ) ;
#110 = DIRECTION ( 'NONE',  ( 0.000000000000000000, 0.000000000000000000, -1.000000000000000000 ) ) ;
#111 = CARTESIAN_POINT ( 'NONE',  ( 0.000000000000000000, 0.000000000000000000, 0.000000000000000000 ) ) ;
#112 = CARTESIAN_POINT ( 'NONE',  ( 3.673940397442059375E-16, 1.000000000000000000, 3.000000000000000000 ) ) ;
#113 = UNCERTAINTY_MEASURE_WITH_UNIT (LENGTH_MEASURE( 1.000000000000000082E-05 ), #25, 'distance_accuracy_value', 'NONE');
#114 = FILL_AREA_STYLE_COLOUR ( '', #296 ) ;
#115 = AXIS2_PLACEMENT_3D ( 'NONE', #201, #46, #136 ) ;
#116 = EDGE_CURVE ( 'NONE', #310, #145, #127, .T. ) ;
#117 = AXIS2_PLACEMENT_3D ( 'NONE', #34, #156, #178 ) ;
#118 = PRESENTATION_STYLE_ASSIGNMENT (( #260 ) ) ;
#119 = PLANE ( 'NONE',  #117 ) ;
#120 =( GEOMETRIC_REPRESENTATION_CONTEXT ( 3 ) GLOBAL_UNCERTAINTY_ASSIGNED_CONTEXT ( ( #300 ) ) GLOBAL_UNIT_ASSIGNED_CONTEXT ( ( #295, #9, #43 ) ) REPRESENTATION_CONTEXT ( 'NONE', 'WORKASPACE' ) );
#121 = VERTEX_POINT ( 'NONE', #82 ) ;
#122 =( NAMED_UNIT ( * ) PLANE_ANGLE_UNIT ( ) SI_UNIT ( $, .RADIAN. ) );
#123 = ORIENTED_EDGE ( 'NONE', *, *, #221, .F. ) ;
#124 = FACE_OUTER_BOUND ( 'NONE', #289, .T. ) ;
#125 = CARTESIAN_POINT ( 'NONE',  ( 0.000000000000000000, 0.000000000000000000, 0.000000000000000000 ) ) ;
#126 = ADVANCED_FACE ( 'NONE', ( #204 ), #84, .T. ) ;
#127 = CIRCLE ( 'NONE', #174, 2.999999999999984457 ) ;
#128 = FILL_AREA_STYLE ('',( #340 ) ) ;
#129 = CARTESIAN_POINT ( 'NONE',  ( 1.409462824231155764E-14, 18.00000000000000355, 0.000000000000000000 ) ) ;
#130 = DIRECTION ( 'NONE',  ( -1.000000000000000000, 0.000000000000000000, 0.000000000000000000 ) ) ;
#131 = DIRECTION ( 'NONE',  ( -0.000000000000000000, -1.000000000000000000, -0.000000000000000000 ) ) ;
#132 = CIRCLE ( 'NONE', #330, 2.999999999999999112 ) ;
#133 = MECHANICAL_DESIGN_GEOMETRIC_PRESENTATION_REPRESENTATION (  '', ( #331 ), #343 ) ;
#134 = CARTESIAN_POINT ( 'NONE',  ( 0.000000000000000000, 0.000000000000000000, 0.000000000000000000 ) ) ;
#135 = FILL_AREA_STYLE ('',( #220 ) ) ;
#136 = DIRECTION ( 'NONE',  ( 0.000000000000000000, 0.000000000000000000, -1.000000000000000000 ) ) ;
#137 = ADVANCED_FACE ( 'NONE', ( #173 ), #47, .T. ) ;
#138 = CIRCLE ( 'NONE', #297, 1.000000000000000000 ) ;
#139 = ORIENTED_EDGE ( 'NONE', *, *, #78, .T. ) ;
#140 = SURFACE_STYLE_USAGE ( .BOTH. , #329 ) ;
#141 = ADVANCED_BREP_SHAPE_REPRESENTATION ( '59686', ( #99, #336, #213 ), #24 ) ;
#142 = PRESENTATION_LAYER_ASSIGNMENT (  '', '', ( #149 ) ) ;
#143 = AXIS2_PLACEMENT_3D ( 'NONE', #223, #271, #354 ) ;
#144 = DIRECTION ( 'NONE',  ( -1.444848463910660280E-16, 1.000000000000000000, -0.000000000000000000 ) ) ;
#145 = VERTEX_POINT ( 'NONE', #218 ) ;
#146 = ORIENTED_EDGE ( 'NONE', *, *, #29, .T. ) ;
#147 = SURFACE_STYLE_FILL_AREA ( #100 ) ;
#148 = ORIENTED_EDGE ( 'NONE', *, *, #252, .T. ) ;
#149 = STYLED_ITEM ( 'NONE', ( #118 ), #3 ) ;
#150 = FILL_AREA_STYLE_COLOUR ( '', #311 ) ;
#151 =( NAMED_UNIT ( * ) SI_UNIT ( $, .STERADIAN. ) SOLID_ANGLE_UNIT ( ) );
#152 = PRESENTATION_STYLE_ASSIGNMENT (( #261 ) ) ;
#153 = SURFACE_SIDE_STYLE ('',( #238 ) ) ;
#154 = ORIENTED_EDGE ( 'NONE', *, *, #181, .F. ) ;
#155 = ADVANCED_FACE ( 'NONE', ( #292 ), #320, .F. ) ;
#156 = DIRECTION ( 'NONE',  ( 0.000000000000000000, -1.000000000000000000, -0.000000000000000000 ) ) ;
#157 = FACE_OUTER_BOUND ( 'NONE', #210, .T. ) ;
#158 = VERTEX_POINT ( 'NONE', #61 ) ;
#159 = PLANE ( 'NONE',  #107 ) ;
#160 = CARTESIAN_POINT ( 'NONE',  ( 7.592810154713587074E-15, 63.00000000000000000, 0.000000000000000000 ) ) ;
#161 = PRESENTATION_LAYER_ASSIGNMENT (  '', '', ( #44 ) ) ;
#162 = PRESENTATION_LAYER_ASSIGNMENT (  '', '', ( #197 ) ) ;
#163 =( NAMED_UNIT ( * ) PLANE_ANGLE_UNIT ( ) SI_UNIT ( $, .RADIAN. ) );
#164 = UNCERTAINTY_MEASURE_WITH_UNIT (LENGTH_MEASURE( 1.000000000000000082E-05 ), #367, 'distance_accuracy_value', 'NONE');
#165 = DIRECTION ( 'NONE',  ( 1.444848463910660280E-16, -1.000000000000000000, 0.000000000000000000 ) ) ;
#166 = CARTESIAN_POINT ( 'NONE',  ( 0.000000000000000000, 1.000000000000000000, 0.000000000000000000 ) ) ;
#167 = AXIS2_PLACEMENT_3D ( 'NONE', #125, #86, #91 ) ;
#168 = CIRCLE ( 'NONE', #143, 1.000000000000000000 ) ;
#169 = CARTESIAN_POINT ( 'NONE',  ( 0.000000000000000000, 18.00000000000000355, 0.000000000000000000 ) ) ;
#170 = UNCERTAINTY_MEASURE_WITH_UNIT (LENGTH_MEASURE( 1.000000000000000082E-05 ), #194, 'distance_accuracy_value', 'NONE');
#171 = PRESENTATION_STYLE_ASSIGNMENT (( #140 ) ) ;
#172 = AXIS2_PLACEMENT_3D ( 'NONE', #184, #144, #240 ) ;
#173 = FACE_OUTER_BOUND ( 'NONE', #48, .T. ) ;
#174 = AXIS2_PLACEMENT_3D ( 'NONE', #193, #36, #1 ) ;
#175 = EDGE_CURVE ( 'NONE', #145, #310, #219, .T. ) ;
#176 = SURFACE_STYLE_USAGE ( .BOTH. , #52 ) ;
#177 = FILL_AREA_STYLE ('',( #341 ) ) ;
#178 = DIRECTION ( 'NONE',  ( 0.000000000000000000, 0.000000000000000000, -1.000000000000000000 ) ) ;
#179 = DIRECTION ( 'NONE',  ( -1.444848463910660280E-16, 1.000000000000000000, -0.000000000000000000 ) ) ;
#180 = UNCERTAINTY_MEASURE_WITH_UNIT (LENGTH_MEASURE( 1.000000000000000082E-05 ), #342, 'distance_accuracy_value', 'NONE');
#181 = EDGE_CURVE ( 'NONE', #121, #362, #230, .T. ) ;
#182 = ORIENTED_EDGE ( 'NONE', *, *, #313, .F. ) ;
#183 =( NAMED_UNIT ( * ) SI_UNIT ( $, .STERADIAN. ) SOLID_ANGLE_UNIT ( ) );
#184 = CARTESIAN_POINT ( 'NONE',  ( 7.592810154713587074E-15, 63.00000000000000000, 0.000000000000000000 ) ) ;
#185 = ORIENTED_EDGE ( 'NONE', *, *, #274, .T. ) ;
#186 = CARTESIAN_POINT ( 'NONE',  ( 2.999999999999999112, 18.00000000000000355, 3.673940397442046556E-16 ) ) ;
#187 = CARTESIAN_POINT ( 'NONE',  ( 1.409462824231155764E-14, 18.00000000000000355, 0.000000000000000000 ) ) ;
#188 = AXIS2_PLACEMENT_3D ( 'NONE', #160, #104, #130 ) ;
#189 = MECHANICAL_DESIGN_GEOMETRIC_PRESENTATION_REPRESENTATION (  '', ( #286 ), #94 ) ;
#190 = DIRECTION ( 'NONE',  ( -1.444848463910660280E-16, 1.000000000000000000, -0.000000000000000000 ) ) ;
#191 = CARTESIAN_POINT ( 'NONE',  ( 0.000000000000000000, 1.000000000000000000, -2.000000000000000000 ) ) ;
#192 = PRESENTATION_STYLE_ASSIGNMENT (( #71 ) ) ;
#193 = CARTESIAN_POINT ( 'NONE',  ( 1.409462824231155764E-14, 18.00000000000000355, 0.000000000000000000 ) ) ;
#194 =( LENGTH_UNIT ( ) NAMED_UNIT ( * ) SI_UNIT ( .MILLI., .METRE. ) );
#195 = CIRCLE ( 'NONE', #326, 2.000000000000000000 ) ;
#196 = CIRCLE ( 'NONE', #76, 2.999999999999999112 ) ;
#197 = STYLED_ITEM ( 'NONE', ( #308 ), #306 ) ;
#198 = DIRECTION ( 'NONE',  ( -1.000000000000000000, 0.000000000000000000, 0.000000000000000000 ) ) ;
#199 = APPLICATION_PROTOCOL_DEFINITION ( 'draft international standard', 'automotive_design', 1998, #63 ) ;
#200 = AXIS2_PLACEMENT_3D ( 'NONE', #108, #131, #243 ) ;
#201 = CARTESIAN_POINT ( 'NONE',  ( 0.000000000000000000, 1.000000000000000000, 0.000000000000000000 ) ) ;
#202 = COLOUR_RGB ( '',1.000000000000000000, 0.000000000000000000, 0.000000000000000000 ) ;
#203 = ADVANCED_FACE ( 'NONE', ( #157 ), #262, .T. ) ;
#204 = FACE_OUTER_BOUND ( 'NONE', #233, .T. ) ;
#205 = VERTEX_POINT ( 'NONE', #368 ) ;
#206 = ORIENTED_EDGE ( 'NONE', *, *, #97, .F. ) ;
#207 = AXIS2_PLACEMENT_3D ( 'NONE', #315, #291, #19 ) ;
#208 = ORIENTED_EDGE ( 'NONE', *, *, #274, .F. ) ;
#209 = DIRECTION ( 'NONE',  ( -1.444848463910660280E-16, 1.000000000000000000, -0.000000000000000000 ) ) ;
#210 = EDGE_LOOP ( 'NONE', ( #60, #148, #229, #236 ) ) ;
#211 = DIRECTION ( 'NONE',  ( -0.000000000000000000, -1.000000000000000000, -0.000000000000000000 ) ) ;
#212 = ORIENTED_EDGE ( 'NONE', *, *, #313, .T. ) ;
#213 = AXIS2_PLACEMENT_3D ( 'NONE', #111, #299, #276 ) ;
#214 = DIRECTION ( 'NONE',  ( -1.000000000000000000, -1.444848463910660280E-16, 0.000000000000000000 ) ) ;
#215 = EDGE_LOOP ( 'NONE', ( #123, #369 ) ) ;
#216 = UNCERTAINTY_MEASURE_WITH_UNIT (LENGTH_MEASURE( 1.000000000000000082E-05 ), #90, 'distance_accuracy_value', 'NONE');
#217 = LINE ( 'NONE', #323, #244 ) ;
#218 = CARTESIAN_POINT ( 'NONE',  ( -2.999999999999970690, 18.00000000000000355, 0.000000000000000000 ) ) ;
#219 = CIRCLE ( 'NONE', #79, 2.999999999999984457 ) ;
#220 = FILL_AREA_STYLE_COLOUR ( '', #15 ) ;
#221 = EDGE_CURVE ( 'NONE', #263, #95, #196, .T. ) ;
#222 = DIRECTION ( 'NONE',  ( 0.000000000000000000, 0.000000000000000000, -1.000000000000000000 ) ) ;
#223 = CARTESIAN_POINT ( 'NONE',  ( 2.449293598294706414E-16, 1.000000000000000000, 2.000000000000000000 ) ) ;
#224 = SURFACE_STYLE_FILL_AREA ( #249 ) ;
#225 = ORIENTED_EDGE ( 'NONE', *, *, #116, .T. ) ;
#226 = MECHANICAL_DESIGN_GEOMETRIC_PRESENTATION_REPRESENTATION (  '', ( #149 ), #75 ) ;
#227 =( NAMED_UNIT ( * ) SI_UNIT ( $, .STERADIAN. ) SOLID_ANGLE_UNIT ( ) );
#228 = CLOSED_SHELL ( 'NONE', ( #301, #155, #137, #356 ) ) ;
#229 = ORIENTED_EDGE ( 'NONE', *, *, #328, .F. ) ;
#230 = CIRCLE ( 'NONE', #172, 2.999999999999991562 ) ;
#231 = CIRCLE ( 'NONE', #85, 3.000000000000000000 ) ;
#232 = LINE ( 'NONE', #26, #246 ) ;
#233 = EDGE_LOOP ( 'NONE', ( #14, #30, #235, #365 ) ) ;
#234 = FACE_OUTER_BOUND ( 'NONE', #215, .T. ) ;
#235 = ORIENTED_EDGE ( 'NONE', *, *, #78, .F. ) ;
#236 = ORIENTED_EDGE ( 'NONE', *, *, #74, .F. ) ;
#237 =( NAMED_UNIT ( * ) PLANE_ANGLE_UNIT ( ) SI_UNIT ( $, .RADIAN. ) );
#238 = SURFACE_STYLE_FILL_AREA ( #32 ) ;
#239 = LINE ( 'NONE', #72, #57 ) ;
#240 = DIRECTION ( 'NONE',  ( -1.000000000000000000, 0.000000000000000000, 0.000000000000000000 ) ) ;
#241 = PRODUCT_DEFINITION ( 'UNKNOWN', '', #50, #77 ) ;
#242 = SURFACE_SIDE_STYLE ('',( #98 ) ) ;
#243 = DIRECTION ( 'NONE',  ( 0.000000000000000000, 0.000000000000000000, -1.000000000000000000 ) ) ;
#244 = VECTOR ( 'NONE', #190, 1000.000000000000000 ) ;
#245 = AXIS2_PLACEMENT_3D ( 'NONE', #187, #92, #214 ) ;
#246 = VECTOR ( 'NONE', #179, 1000.000000000000000 ) ;
#247 =( NAMED_UNIT ( * ) PLANE_ANGLE_UNIT ( ) SI_UNIT ( $, .RADIAN. ) );
#248 = DIRECTION ( 'NONE',  ( 1.000000000000000000, 1.444848463910660280E-16, 0.000000000000000000 ) ) ;
#249 = FILL_AREA_STYLE ('',( #114 ) ) ;
#250 =( NAMED_UNIT ( * ) SI_UNIT ( $, .STERADIAN. ) SOLID_ANGLE_UNIT ( ) );
#251 = AXIS2_PLACEMENT_3D ( 'NONE', #54, #209, #283 ) ;
#252 = EDGE_CURVE ( 'NONE', #95, #344, #345, .T. ) ;
#253 = ORIENTED_EDGE ( 'NONE', *, *, #290, .T. ) ;
#254 = COLOUR_RGB ( '',1.000000000000000000, 0.000000000000000000, 0.000000000000000000 ) ;
#255 = SURFACE_STYLE_USAGE ( .BOTH. , #153 ) ;
#256 = SURFACE_SIDE_STYLE ('',( #147 ) ) ;
#257 = ORIENTED_EDGE ( 'NONE', *, *, #361, .F. ) ;
#258 = COLOUR_RGB ( '',1.000000000000000000, 0.000000000000000000, 0.000000000000000000 ) ;
#259 = DIRECTION ( 'NONE',  ( 0.000000000000000000, 0.000000000000000000, -1.000000000000000000 ) ) ;
#260 = SURFACE_STYLE_USAGE ( .BOTH. , #88 ) ;
#261 = SURFACE_STYLE_USAGE ( .BOTH. , #264 ) ;
#262 = CYLINDRICAL_SURFACE ( 'NONE', #16, 2.999999999999999556 ) ;
#263 = VERTEX_POINT ( 'NONE', #101 ) ;
#264 = SURFACE_SIDE_STYLE ('',( #31 ) ) ;
#265 = ORIENTED_EDGE ( 'NONE', *, *, #37, .T. ) ;
#266 = STYLED_ITEM ( 'NONE', ( #355 ), #81 ) ;
#267 = CYLINDRICAL_SURFACE ( 'NONE', #251, 2.999999999999988454 ) ;
#268 = MECHANICAL_DESIGN_GEOMETRIC_PRESENTATION_REPRESENTATION (  '', ( #337 ), #35 ) ;
#269 = DIRECTION ( 'NONE',  ( -0.000000000000000000, -1.000000000000000000, -0.000000000000000000 ) ) ;
#270 = DIRECTION ( 'NONE',  ( 0.000000000000000000, 0.000000000000000000, -1.000000000000000000 ) ) ;
#271 = DIRECTION ( 'NONE',  ( 1.000000000000000000, 0.000000000000000000, -1.224646799147353207E-16 ) ) ;
#272 = DIRECTION ( 'NONE',  ( -0.000000000000000000, -1.000000000000000000, -0.000000000000000000 ) ) ;
#273 = MECHANICAL_DESIGN_GEOMETRIC_PRESENTATION_REPRESENTATION (  '', ( #266 ), #49 ) ;
#274 = EDGE_CURVE ( 'NONE', #344, #280, #8, .T. ) ;
#275 = PRODUCT ( '59686', '59686', '', ( #109 ) ) ;
#276 = DIRECTION ( 'NONE',  ( 1.000000000000000000, 0.000000000000000000, 0.000000000000000000 ) ) ;
#277 = FACE_OUTER_BOUND ( 'NONE', #53, .T. ) ;
#278 = UNCERTAINTY_MEASURE_WITH_UNIT (LENGTH_MEASURE( 1.000000000000000082E-05 ), #294, 'distance_accuracy_value', 'NONE');
#279 =( GEOMETRIC_REPRESENTATION_CONTEXT ( 3 ) GLOBAL_UNCERTAINTY_ASSIGNED_CONTEXT ( ( #27 ) ) GLOBAL_UNIT_ASSIGNED_CONTEXT ( ( #11, #351, #250 ) ) REPRESENTATION_CONTEXT ( 'NONE', 'WORKASPACE' ) );
#280 = VERTEX_POINT ( 'NONE', #70 ) ;
#281 = VECTOR ( 'NONE', #269, 1000.000000000000000 ) ;
#282 = PRESENTATION_STYLE_ASSIGNMENT (( #255 ) ) ;
#283 = DIRECTION ( 'NONE',  ( -1.000000000000000000, 0.000000000000000000, 0.000000000000000000 ) ) ;
#284 = SURFACE_STYLE_FILL_AREA ( #177 ) ;
#285 =( NAMED_UNIT ( * ) PLANE_ANGLE_UNIT ( ) SI_UNIT ( $, .RADIAN. ) );
#286 = STYLED_ITEM ( 'NONE', ( #152 ), #333 ) ;
#287 = SURFACE_STYLE_FILL_AREA ( #363 ) ;
#288 = ORIENTED_EDGE ( 'NONE', *, *, #65, .T. ) ;
#289 = EDGE_LOOP ( 'NONE', ( #302, #212, #51, #339 ) ) ;
#290 = EDGE_CURVE ( 'NONE', #280, #158, #138, .T. ) ;
#291 = DIRECTION ( 'NONE',  ( 0.000000000000000000, 1.000000000000000000, 0.000000000000000000 ) ) ;
#292 = FACE_OUTER_BOUND ( 'NONE', #17, .T. ) ;
#293 = DIRECTION ( 'NONE',  ( -1.000000000000000000, 0.000000000000000000, 0.000000000000000000 ) ) ;
#294 =( LENGTH_UNIT ( ) NAMED_UNIT ( * ) SI_UNIT ( .MILLI., .METRE. ) );
#295 =( LENGTH_UNIT ( ) NAMED_UNIT ( * ) SI_UNIT ( .MILLI., .METRE. ) );
#296 = COLOUR_RGB ( '',1.000000000000000000, 0.000000000000000000, 0.000000000000000000 ) ;
#297 = AXIS2_PLACEMENT_3D ( 'NONE', #191, #293, #87 ) ;
#298 = SURFACE_STYLE_FILL_AREA ( #346 ) ;
#299 = DIRECTION ( 'NONE',  ( 0.000000000000000000, 0.000000000000000000, 1.000000000000000000 ) ) ;
#300 = UNCERTAINTY_MEASURE_WITH_UNIT (LENGTH_MEASURE( 1.000000000000000082E-05 ), #295, 'distance_accuracy_value', 'NONE');
#301 = ADVANCED_FACE ( 'NONE', ( #124 ), #267, .T. ) ;
#302 = ORIENTED_EDGE ( 'NONE', *, *, #175, .T. ) ;
#303 = MECHANICAL_DESIGN_GEOMETRIC_PRESENTATION_REPRESENTATION (  '', ( #44 ), #120 ) ;
#304 = ORIENTED_EDGE ( 'NONE', *, *, #74, .T. ) ;
#305 = ORIENTED_EDGE ( 'NONE', *, *, #97, .T. ) ;
#306 = ADVANCED_FACE ( 'NONE', ( #307 ), #119, .T. ) ;
#307 = FACE_OUTER_BOUND ( 'NONE', #335, .T. ) ;
#308 = PRESENTATION_STYLE_ASSIGNMENT (( #176 ) ) ;
#309 = DIRECTION ( 'NONE',  ( 0.000000000000000000, 0.000000000000000000, -1.000000000000000000 ) ) ;
#310 = VERTEX_POINT ( 'NONE', #186 ) ;
#311 = COLOUR_RGB ( '',1.000000000000000000, 0.000000000000000000, 0.000000000000000000 ) ;
#312 = DIRECTION ( 'NONE',  ( 0.000000000000000000, 0.000000000000000000, -1.000000000000000000 ) ) ;
#313 = EDGE_CURVE ( 'NONE', #310, #121, #232, .T. ) ;
#314 = FACE_OUTER_BOUND ( 'NONE', #358, .T. ) ;
#315 = CARTESIAN_POINT ( 'NONE',  ( 0.000000000000000000, 18.00000000000000355, 0.000000000000000000 ) ) ;
#316 = APPLICATION_CONTEXT ( 'automotive_design' ) ;
#317 = DIRECTION ( 'NONE',  ( -1.000000000000000000, 0.000000000000000000, 0.000000000000000000 ) ) ;
#318 = DIRECTION ( 'NONE',  ( -0.000000000000000000, -1.000000000000000000, -0.000000000000000000 ) ) ;
#319 = PRESENTATION_LAYER_ASSIGNMENT (  '', '', ( #337 ) ) ;
#320 = PLANE ( 'NONE',  #245 ) ;
#321 = DIRECTION ( 'NONE',  ( -0.000000000000000000, -1.000000000000000000, -0.000000000000000000 ) ) ;
#322 = CARTESIAN_POINT ( 'NONE',  ( -2.999999999999983569, 63.00000000000000000, 0.000000000000000000 ) ) ;
#323 = CARTESIAN_POINT ( 'NONE',  ( -2.999999999999980460, 63.00000000000000000, 0.000000000000000000 ) ) ;
#324 =( NAMED_UNIT ( * ) SI_UNIT ( $, .STERADIAN. ) SOLID_ANGLE_UNIT ( ) );
#325 =( NAMED_UNIT ( * ) SI_UNIT ( $, .STERADIAN. ) SOLID_ANGLE_UNIT ( ) );
#326 = AXIS2_PLACEMENT_3D ( 'NONE', #134, #321, #110 ) ;
#327 = TOROIDAL_SURFACE ( 'NONE', #7, 2.000000000000000000, 1.000000000000000000 ) ;
#328 = EDGE_CURVE ( 'NONE', #280, #344, #231, .T. ) ;
#329 = SURFACE_SIDE_STYLE ('',( #224 ) ) ;
#330 = AXIS2_PLACEMENT_3D ( 'NONE', #169, #102, #222 ) ;
#331 = STYLED_ITEM ( 'NONE', ( #282 ), #203 ) ;
#332 = COLOUR_RGB ( '',0.7921568627450980005, 0.8196078431372548767, 0.9333333333333333481 ) ;
#333 = ADVANCED_FACE ( 'NONE', ( #234 ), #96, .T. ) ;
#334 = CARTESIAN_POINT ( 'NONE',  ( 0.000000000000000000, 0.000000000000000000, 0.000000000000000000 ) ) ;
#335 = EDGE_LOOP ( 'NONE', ( #139, #305 ) ) ;
#336 = MANIFOLD_SOLID_BREP ( 'Revolve - Tool Body (Straight Shanked)', #228 ) ;
#337 = STYLED_ITEM ( 'NONE', ( #171 ), #126 ) ;
#338 = PRESENTATION_LAYER_ASSIGNMENT (  '', '', ( #286 ) ) ;
#339 = ORIENTED_EDGE ( 'NONE', *, *, #29, .F. ) ;
#340 = FILL_AREA_STYLE_COLOUR ( '', #202 ) ;
#341 = FILL_AREA_STYLE_COLOUR ( '', #254 ) ;
#342 =( LENGTH_UNIT ( ) NAMED_UNIT ( * ) SI_UNIT ( .MILLI., .METRE. ) );
#343 =( GEOMETRIC_REPRESENTATION_CONTEXT ( 3 ) GLOBAL_UNCERTAINTY_ASSIGNED_CONTEXT ( ( #216 ) ) GLOBAL_UNIT_ASSIGNED_CONTEXT ( ( #90, #163, #360 ) ) REPRESENTATION_CONTEXT ( 'NONE', 'WORKASPACE' ) );
#344 = VERTEX_POINT ( 'NONE', #112 ) ;
#345 = LINE ( 'NONE', #62, #281 ) ;
#346 = FILL_AREA_STYLE ('',( #349 ) ) ;
#347 = FILL_AREA_STYLE_COLOUR ( '', #332 ) ;
#348 = DIRECTION ( 'NONE',  ( -0.000000000000000000, -1.000000000000000000, -0.000000000000000000 ) ) ;
#349 = FILL_AREA_STYLE_COLOUR ( '', #93 ) ;
#350 = CIRCLE ( 'NONE', #200, 2.000000000000000000 ) ;
#351 =( NAMED_UNIT ( * ) PLANE_ANGLE_UNIT ( ) SI_UNIT ( $, .RADIAN. ) );
#352 = UNCERTAINTY_MEASURE_WITH_UNIT (LENGTH_MEASURE( 1.000000000000000082E-05 ), #13, 'distance_accuracy_value', 'NONE');
#353 = CARTESIAN_POINT ( 'NONE',  ( 3.673940397442059375E-16, 18.00000000000000355, 2.999999999999999112 ) ) ;
#354 = DIRECTION ( 'NONE',  ( -1.224646799147353207E-16, 0.000000000000000000, -1.000000000000000000 ) ) ;
#355 = PRESENTATION_STYLE_ASSIGNMENT (( #64 ) ) ;
#356 = ADVANCED_FACE ( 'NONE', ( #277 ), #159, .F. ) ;
#357 =( NAMED_UNIT ( * ) PLANE_ANGLE_UNIT ( ) SI_UNIT ( $, .RADIAN. ) );
#358 = EDGE_LOOP ( 'NONE', ( #83, #265, #304, #208 ) ) ;
#359 = AXIS2_PLACEMENT_3D ( 'NONE', #6, #68, #198 ) ;
#360 =( NAMED_UNIT ( * ) SI_UNIT ( $, .STERADIAN. ) SOLID_ANGLE_UNIT ( ) );
#361 = EDGE_CURVE ( 'NONE', #344, #205, #168, .T. ) ;
#362 = VERTEX_POINT ( 'NONE', #322 ) ;
#363 = FILL_AREA_STYLE ('',( #150 ) ) ;
#364 = MECHANICAL_DESIGN_GEOMETRIC_PRESENTATION_REPRESENTATION (  '', ( #12 ), #279 ) ;
#365 = ORIENTED_EDGE ( 'NONE', *, *, #290, .F. ) ;
#366 = CYLINDRICAL_SURFACE ( 'NONE', #167, 2.999999999999999556 ) ;
#367 =( LENGTH_UNIT ( ) NAMED_UNIT ( * ) SI_UNIT ( .MILLI., .METRE. ) );
#368 = CARTESIAN_POINT ( 'NONE',  ( 3.061616997868383141E-16, 0.000000000000000000, 2.000000000000000000 ) ) ;
#369 = ORIENTED_EDGE ( 'NONE', *, *, #37, .F. ) ;
#370 = SURFACE_SIDE_STYLE ('',( #298 ) ) ;
ENDSEC;
END-ISO-10303-21;
