ISO-10303-21;
HEADER;
FILE_DESCRIPTION (( 'STEP AP214' ),
    '1' );
FILE_NAME ('59578.STEP',
    '2023-07-24T15:12:23',
    ( '' ),
    ( '' ),
    'SwSTEP 2.0',
    'SolidWorks 2023',
    '' );
FILE_SCHEMA (( 'AUTOMOTIVE_DESIGN' ));
ENDSEC;

DATA;
#1 = ORIENTED_EDGE ( 'NONE', *, *, #164, .F. ) ;
#2 = CARTESIAN_POINT ( 'NONE',  ( 1.469576158976823750E-15, 63.00000000000000000, 0.000000000000000000 ) ) ;
#3 = STYLED_ITEM ( 'NONE', ( #320 ), #348 ) ;
#4 =( NAMED_UNIT ( * ) SI_UNIT ( $, .STERADIAN. ) SOLID_ANGLE_UNIT ( ) );
#5 = SURFACE_SIDE_STYLE ('',( #173 ) ) ;
#6 = DIRECTION ( 'NONE',  ( -1.000000000000000000, 0.000000000000000000, 0.000000000000000000 ) ) ;
#7 = DIRECTION ( 'NONE',  ( 0.000000000000000000, 0.000000000000000000, -1.000000000000000000 ) ) ;
#8 = CIRCLE ( 'NONE', #110, 0.5000000000000000000 ) ;
#9 = ORIENTED_EDGE ( 'NONE', *, *, #356, .T. ) ;
#10 = DIRECTION ( 'NONE',  ( -0.000000000000000000, -1.000000000000000000, -0.000000000000000000 ) ) ;
#11 = EDGE_CURVE ( 'NONE', #229, #28, #285, .T. ) ;
#12 = PLANE ( 'NONE',  #46 ) ;
#13 = FILL_AREA_STYLE ('',( #100 ) ) ;
#14 = SURFACE_SIDE_STYLE ('',( #136 ) ) ;
#15 = PRESENTATION_LAYER_ASSIGNMENT (  '', '', ( #74 ) ) ;
#16 = AXIS2_PLACEMENT_3D ( 'NONE', #61, #52, #262 ) ;
#17 = CARTESIAN_POINT ( 'NONE',  ( 1.469576158976823750E-15, 63.00000000000000000, 0.000000000000000000 ) ) ;
#18 = DIRECTION ( 'NONE',  ( -0.000000000000000000, -1.000000000000000000, -0.000000000000000000 ) ) ;
#19 = FILL_AREA_STYLE ('',( #247 ) ) ;
#20 = VECTOR ( 'NONE', #192, 1000.000000000000000 ) ;
#21 = PLANE ( 'NONE',  #200 ) ;
#22 = FACE_OUTER_BOUND ( 'NONE', #107, .T. ) ;
#23 = ORIENTED_EDGE ( 'NONE', *, *, #327, .F. ) ;
#24 = AXIS2_PLACEMENT_3D ( 'NONE', #349, #235, #7 ) ;
#25 = CARTESIAN_POINT ( 'NONE',  ( 1.469576158976823750E-15, 63.00000000000000000, 0.000000000000000000 ) ) ;
#26 = EDGE_LOOP ( 'NONE', ( #92, #138 ) ) ;
#27 =( NAMED_UNIT ( * ) PLANE_ANGLE_UNIT ( ) SI_UNIT ( $, .RADIAN. ) );
#28 = VERTEX_POINT ( 'NONE', #326 ) ;
#29 = EDGE_CURVE ( 'NONE', #218, #139, #263, .T. ) ;
#30 = DIRECTION ( 'NONE',  ( 0.000000000000000000, 0.000000000000000000, -1.000000000000000000 ) ) ;
#31 = CARTESIAN_POINT ( 'NONE',  ( 1.469576158976823750E-15, 63.00000000000000000, 0.000000000000000000 ) ) ;
#32 = UNCERTAINTY_MEASURE_WITH_UNIT (LENGTH_MEASURE( 1.000000000000000082E-05 ), #217, 'distance_accuracy_value', 'NONE');
#33 = SURFACE_STYLE_FILL_AREA ( #353 ) ;
#34 = ADVANCED_BREP_SHAPE_REPRESENTATION ( '59578', ( #303, #56, #299 ), #95 ) ;
#35 = PRESENTATION_STYLE_ASSIGNMENT (( #182 ) ) ;
#36 = SURFACE_SIDE_STYLE ('',( #301 ) ) ;
#37 = CIRCLE ( 'NONE', #210, 3.999999999999993339 ) ;
#38 = VERTEX_POINT ( 'NONE', #150 ) ;
#39 = SURFACE_STYLE_FILL_AREA ( #308 ) ;
#40 = CARTESIAN_POINT ( 'NONE',  ( 4.000000000000000000, 63.00000000000000000, 4.898587196589409870E-16 ) ) ;
#41 =( NAMED_UNIT ( * ) PLANE_ANGLE_UNIT ( ) SI_UNIT ( $, .RADIAN. ) );
#42 = AXIS2_PLACEMENT_3D ( 'NONE', #132, #130, #246 ) ;
#43 = CARTESIAN_POINT ( 'NONE',  ( 4.898587196589412829E-16, 0.000000000000000000, 4.000000000000000000 ) ) ;
#44 = ADVANCED_FACE ( 'NONE', ( #184 ), #12, .F. ) ;
#45 = FACE_OUTER_BOUND ( 'NONE', #58, .T. ) ;
#46 = AXIS2_PLACEMENT_3D ( 'NONE', #271, #297, #211 ) ;
#47 = TOROIDAL_SURFACE ( 'NONE', #165, 3.500000000000000000, 0.5000000000000000000 ) ;
#48 = CARTESIAN_POINT ( 'NONE',  ( 4.898587196589412829E-16, 12.00000000000000000, 4.000000000000000000 ) ) ;
#49 = DIRECTION ( 'NONE',  ( 0.000000000000000000, 0.000000000000000000, 1.000000000000000000 ) ) ;
#50 = PRESENTATION_LAYER_ASSIGNMENT (  '', '', ( #57 ) ) ;
#51 = CIRCLE ( 'NONE', #42, 0.5000000000000000000 ) ;
#52 = DIRECTION ( 'NONE',  ( -0.000000000000000000, -1.000000000000000000, -0.000000000000000000 ) ) ;
#53 =( NAMED_UNIT ( * ) SI_UNIT ( $, .STERADIAN. ) SOLID_ANGLE_UNIT ( ) );
#54 = EDGE_LOOP ( 'NONE', ( #87, #9 ) ) ;
#55 =( NAMED_UNIT ( * ) PLANE_ANGLE_UNIT ( ) SI_UNIT ( $, .RADIAN. ) );
#56 = MANIFOLD_SOLID_BREP ( 'Revolve - Tool Body (Straight Shanked)', #306 ) ;
#57 = STYLED_ITEM ( 'NONE', ( #91 ), #56 ) ;
#58 = EDGE_LOOP ( 'NONE', ( #23, #141, #84, #234 ) ) ;
#59 = MECHANICAL_DESIGN_GEOMETRIC_PRESENTATION_REPRESENTATION (  '', ( #201 ), #258 ) ;
#60 = ADVANCED_FACE ( 'NONE', ( #213 ), #266, .T. ) ;
#61 = CARTESIAN_POINT ( 'NONE',  ( 0.000000000000000000, 0.5000000000000000000, 0.000000000000000000 ) ) ;
#62 = ORIENTED_EDGE ( 'NONE', *, *, #344, .F. ) ;
#63 = DIRECTION ( 'NONE',  ( -0.000000000000000000, -1.000000000000000000, -0.000000000000000000 ) ) ;
#64 = UNCERTAINTY_MEASURE_WITH_UNIT (LENGTH_MEASURE( 1.000000000000000082E-05 ), #295, 'distance_accuracy_value', 'NONE');
#65 = EDGE_CURVE ( 'NONE', #169, #80, #101, .T. ) ;
#66 = COLOUR_RGB ( '',1.000000000000000000, 0.000000000000000000, 0.000000000000000000 ) ;
#67 =( NAMED_UNIT ( * ) SI_UNIT ( $, .STERADIAN. ) SOLID_ANGLE_UNIT ( ) );
#68 =( LENGTH_UNIT ( ) NAMED_UNIT ( * ) SI_UNIT ( .MILLI., .METRE. ) );
#69 = EDGE_LOOP ( 'NONE', ( #321, #227, #176, #144 ) ) ;
#70 = DIRECTION ( 'NONE',  ( 1.000000000000000000, 0.000000000000000000, 0.000000000000000000 ) ) ;
#71 = FILL_AREA_STYLE ('',( #337 ) ) ;
#72 =( LENGTH_UNIT ( ) NAMED_UNIT ( * ) SI_UNIT ( .MILLI., .METRE. ) );
#73 = DIRECTION ( 'NONE',  ( 0.000000000000000000, 0.000000000000000000, -1.000000000000000000 ) ) ;
#74 = STYLED_ITEM ( 'NONE', ( #300 ), #303 ) ;
#75 = DIRECTION ( 'NONE',  ( -1.000000000000000000, 0.000000000000000000, 0.000000000000000000 ) ) ;
#76 =( LENGTH_UNIT ( ) NAMED_UNIT ( * ) SI_UNIT ( .MILLI., .METRE. ) );
#77 = AXIS2_PLACEMENT_3D ( 'NONE', #281, #253, #129 ) ;
#78 = CIRCLE ( 'NONE', #307, 3.999999999999993339 ) ;
#79 = ORIENTED_EDGE ( 'NONE', *, *, #344, .T. ) ;
#80 = VERTEX_POINT ( 'NONE', #239 ) ;
#81 = DIRECTION ( 'NONE',  ( -9.448620473410002383E-17, 1.000000000000000000, -0.000000000000000000 ) ) ;
#82 = EDGE_CURVE ( 'NONE', #38, #105, #231, .T. ) ;
#83 = CIRCLE ( 'NONE', #259, 3.999999999999998224 ) ;
#84 = ORIENTED_EDGE ( 'NONE', *, *, #336, .T. ) ;
#85 = UNCERTAINTY_MEASURE_WITH_UNIT (LENGTH_MEASURE( 1.000000000000000082E-05 ), #76, 'distance_accuracy_value', 'NONE');
#86 = ADVANCED_FACE ( 'NONE', ( #366 ), #311, .T. ) ;
#87 = ORIENTED_EDGE ( 'NONE', *, *, #29, .T. ) ;
#88 = DIRECTION ( 'NONE',  ( 0.000000000000000000, -1.000000000000000000, -0.000000000000000000 ) ) ;
#89 = DIRECTION ( 'NONE',  ( -9.448620473410002383E-17, 1.000000000000000000, -0.000000000000000000 ) ) ;
#90 = FILL_AREA_STYLE_COLOUR ( '', #216 ) ;
#91 = PRESENTATION_STYLE_ASSIGNMENT (( #183 ) ) ;
#92 = ORIENTED_EDGE ( 'NONE', *, *, #277, .F. ) ;
#93 = LINE ( 'NONE', #304, #324 ) ;
#94 = AXIS2_PLACEMENT_3D ( 'NONE', #236, #88, #30 ) ;
#95 =( GEOMETRIC_REPRESENTATION_CONTEXT ( 3 ) GLOBAL_UNCERTAINTY_ASSIGNED_CONTEXT ( ( #116 ) ) GLOBAL_UNIT_ASSIGNED_CONTEXT ( ( #265, #357, #122 ) ) REPRESENTATION_CONTEXT ( 'NONE', 'WORKASPACE' ) );
#96 = DIRECTION ( 'NONE',  ( -1.000000000000000000, -9.448620473410002383E-17, 0.000000000000000000 ) ) ;
#97 = SURFACE_STYLE_USAGE ( .BOTH. , #221 ) ;
#98 = ADVANCED_FACE ( 'NONE', ( #157 ), #21, .F. ) ;
#99 =( NAMED_UNIT ( * ) PLANE_ANGLE_UNIT ( ) SI_UNIT ( $, .RADIAN. ) );
#100 = FILL_AREA_STYLE_COLOUR ( '', #180 ) ;
#101 = CIRCLE ( 'NONE', #24, 4.000000000000000000 ) ;
#102 = DIRECTION ( 'NONE',  ( -0.000000000000000000, -1.000000000000000000, -0.000000000000000000 ) ) ;
#103 = STYLED_ITEM ( 'NONE', ( #35 ), #345 ) ;
#104 = DIRECTION ( 'NONE',  ( -9.448620473410002383E-17, 1.000000000000000000, -0.000000000000000000 ) ) ;
#105 = VERTEX_POINT ( 'NONE', #276 ) ;
#106 = SURFACE_STYLE_USAGE ( .BOTH. , #14 ) ;
#107 = EDGE_LOOP ( 'NONE', ( #288, #189 ) ) ;
#108 = EDGE_LOOP ( 'NONE', ( #168, #181, #370, #62 ) ) ;
#109 = DIRECTION ( 'NONE',  ( -1.000000000000000000, 0.000000000000000000, 0.000000000000000000 ) ) ;
#110 = AXIS2_PLACEMENT_3D ( 'NONE', #363, #167, #49 ) ;
#111 = FILL_AREA_STYLE ('',( #290 ) ) ;
#112 = VERTEX_POINT ( 'NONE', #287 ) ;
#113 = EDGE_CURVE ( 'NONE', #105, #38, #179, .T. ) ;
#114 = SURFACE_STYLE_USAGE ( .BOTH. , #5 ) ;
#115 = FILL_AREA_STYLE_COLOUR ( '', #134 ) ;
#116 = UNCERTAINTY_MEASURE_WITH_UNIT (LENGTH_MEASURE( 1.000000000000000082E-05 ), #265, 'distance_accuracy_value', 'NONE');
#117 = APPLICATION_CONTEXT ( 'automotive_design' ) ;
#118 =( LENGTH_UNIT ( ) NAMED_UNIT ( * ) SI_UNIT ( .MILLI., .METRE. ) );
#119 = AXIS2_PLACEMENT_3D ( 'NONE', #282, #364, #197 ) ;
#120 = SHAPE_DEFINITION_REPRESENTATION ( #347, #34 ) ;
#121 = CARTESIAN_POINT ( 'NONE',  ( 0.000000000000000000, 0.000000000000000000, 0.000000000000000000 ) ) ;
#122 =( NAMED_UNIT ( * ) SI_UNIT ( $, .STERADIAN. ) SOLID_ANGLE_UNIT ( ) );
#123 = ADVANCED_FACE ( 'NONE', ( #45 ), #47, .T. ) ;
#124 = ORIENTED_EDGE ( 'NONE', *, *, #215, .T. ) ;
#125 = FILL_AREA_STYLE_COLOUR ( '', #238 ) ;
#126 = CARTESIAN_POINT ( 'NONE',  ( 0.000000000000000000, 0.5000000000000000000, 0.000000000000000000 ) ) ;
#127 = SURFACE_SIDE_STYLE ('',( #310 ) ) ;
#128 = AXIS2_PLACEMENT_3D ( 'NONE', #133, #102, #343 ) ;
#129 = DIRECTION ( 'NONE',  ( 0.000000000000000000, 0.000000000000000000, -1.000000000000000000 ) ) ;
#130 = DIRECTION ( 'NONE',  ( 1.000000000000000000, 0.000000000000000000, -1.224646799147353207E-16 ) ) ;
#131 = DIRECTION ( 'NONE',  ( 0.000000000000000000, 0.000000000000000000, -1.000000000000000000 ) ) ;
#132 = CARTESIAN_POINT ( 'NONE',  ( 4.286263797015736595E-16, 0.5000000000000000000, 3.500000000000000000 ) ) ;
#133 = CARTESIAN_POINT ( 'NONE',  ( 0.000000000000000000, 12.00000000000000000, 0.000000000000000000 ) ) ;
#134 = COLOUR_RGB ( '',1.000000000000000000, 0.000000000000000000, 0.000000000000000000 ) ;
#135 = DIRECTION ( 'NONE',  ( -1.000000000000000000, 0.000000000000000000, 0.000000000000000000 ) ) ;
#136 = SURFACE_STYLE_FILL_AREA ( #19 ) ;
#137 = EDGE_CURVE ( 'NONE', #169, #28, #196, .T. ) ;
#138 = ORIENTED_EDGE ( 'NONE', *, *, #199, .F. ) ;
#139 = VERTEX_POINT ( 'NONE', #40 ) ;
#140 = ORIENTED_EDGE ( 'NONE', *, *, #356, .F. ) ;
#141 = ORIENTED_EDGE ( 'NONE', *, *, #240, .T. ) ;
#142 = TOROIDAL_SURFACE ( 'NONE', #16, 3.500000000000000000, 0.5000000000000000000 ) ;
#143 = FILL_AREA_STYLE ('',( #368 ) ) ;
#144 = ORIENTED_EDGE ( 'NONE', *, *, #215, .F. ) ;
#145 = SURFACE_SIDE_STYLE ('',( #33 ) ) ;
#146 = MECHANICAL_DESIGN_GEOMETRIC_PRESENTATION_REPRESENTATION (  '', ( #103 ), #286 ) ;
#147 = DIRECTION ( 'NONE',  ( -0.000000000000000000, -1.000000000000000000, -0.000000000000000000 ) ) ;
#148 = DIRECTION ( 'NONE',  ( 0.000000000000000000, -0.000000000000000000, 1.000000000000000000 ) ) ;
#149 = APPLICATION_PROTOCOL_DEFINITION ( 'draft international standard', 'automotive_design', 1998, #117 ) ;
#150 = CARTESIAN_POINT ( 'NONE',  ( 0.000000000000000000, 0.000000000000000000, -3.500000000000000000 ) ) ;
#151 = CARTESIAN_POINT ( 'NONE',  ( 0.000000000000000000, 0.000000000000000000, 0.000000000000000000 ) ) ;
#152 = DIRECTION ( 'NONE',  ( -0.000000000000000000, -1.000000000000000000, -0.000000000000000000 ) ) ;
#153 = VERTEX_POINT ( 'NONE', #159 ) ;
#154 =( GEOMETRIC_REPRESENTATION_CONTEXT ( 3 ) GLOBAL_UNCERTAINTY_ASSIGNED_CONTEXT ( ( #233 ) ) GLOBAL_UNIT_ASSIGNED_CONTEXT ( ( #191, #41, #166 ) ) REPRESENTATION_CONTEXT ( 'NONE', 'WORKASPACE' ) );
#155 = SURFACE_STYLE_USAGE ( .BOTH. , #127 ) ;
#156 = PRESENTATION_LAYER_ASSIGNMENT (  '', '', ( #332 ) ) ;
#157 = FACE_OUTER_BOUND ( 'NONE', #26, .T. ) ;
#158 = DIRECTION ( 'NONE',  ( 0.000000000000000000, 1.000000000000000000, 0.000000000000000000 ) ) ;
#159 = CARTESIAN_POINT ( 'NONE',  ( 3.999999999999999112, 11.99999999999999645, 4.898587196589409870E-16 ) ) ;
#160 =( NAMED_UNIT ( * ) SI_UNIT ( $, .STERADIAN. ) SOLID_ANGLE_UNIT ( ) );
#161 = DIRECTION ( 'NONE',  ( -0.000000000000000000, -1.000000000000000000, -0.000000000000000000 ) ) ;
#162 = CARTESIAN_POINT ( 'NONE',  ( -3.999999999999994671, 63.00000000000000000, 0.000000000000000000 ) ) ;
#163 = MECHANICAL_DESIGN_GEOMETRIC_PRESENTATION_REPRESENTATION (  '', ( #318 ), #154 ) ;
#164 = EDGE_CURVE ( 'NONE', #80, #169, #362, .T. ) ;
#165 = AXIS2_PLACEMENT_3D ( 'NONE', #245, #152, #73 ) ;
#166 =( NAMED_UNIT ( * ) SI_UNIT ( $, .STERADIAN. ) SOLID_ANGLE_UNIT ( ) );
#167 = DIRECTION ( 'NONE',  ( -1.000000000000000000, 0.000000000000000000, 0.000000000000000000 ) ) ;
#168 = ORIENTED_EDGE ( 'NONE', *, *, #277, .T. ) ;
#169 = VERTEX_POINT ( 'NONE', #48 ) ;
#170 = CYLINDRICAL_SURFACE ( 'NONE', #252, 3.999999999999996447 ) ;
#171 = EDGE_LOOP ( 'NONE', ( #175, #261, #79, #140 ) ) ;
#172 = PRESENTATION_LAYER_ASSIGNMENT (  '', '', ( #201 ) ) ;
#173 = SURFACE_STYLE_FILL_AREA ( #111 ) ;
#174 = FACE_OUTER_BOUND ( 'NONE', #335, .T. ) ;
#175 = ORIENTED_EDGE ( 'NONE', *, *, #255, .F. ) ;
#176 = ORIENTED_EDGE ( 'NONE', *, *, #11, .F. ) ;
#177 =( NAMED_UNIT ( * ) SI_UNIT ( $, .STERADIAN. ) SOLID_ANGLE_UNIT ( ) );
#178 = UNCERTAINTY_MEASURE_WITH_UNIT (LENGTH_MEASURE( 1.000000000000000082E-05 ), #68, 'distance_accuracy_value', 'NONE');
#179 = CIRCLE ( 'NONE', #77, 3.500000000000000000 ) ;
#180 = COLOUR_RGB ( '',0.7921568627450980005, 0.8196078431372548767, 0.9333333333333333481 ) ;
#181 = ORIENTED_EDGE ( 'NONE', *, *, #255, .T. ) ;
#182 = SURFACE_STYLE_USAGE ( .BOTH. , #204 ) ;
#183 = SURFACE_STYLE_USAGE ( .BOTH. , #145 ) ;
#184 = FACE_OUTER_BOUND ( 'NONE', #54, .T. ) ;
#185 =( GEOMETRIC_REPRESENTATION_CONTEXT ( 3 ) GLOBAL_UNCERTAINTY_ASSIGNED_CONTEXT ( ( #350 ) ) GLOBAL_UNIT_ASSIGNED_CONTEXT ( ( #72, #219, #160 ) ) REPRESENTATION_CONTEXT ( 'NONE', 'WORKASPACE' ) );
#186 = DIRECTION ( 'NONE',  ( -9.448620473410002383E-17, 1.000000000000000000, -0.000000000000000000 ) ) ;
#187 = CARTESIAN_POINT ( 'NONE',  ( 0.000000000000000000, 0.5000000000000000000, -4.000000000000000000 ) ) ;
#188 = PRODUCT_DEFINITION ( 'UNKNOWN', '', #194, #355 ) ;
#189 = ORIENTED_EDGE ( 'NONE', *, *, #113, .T. ) ;
#190 = FACE_OUTER_BOUND ( 'NONE', #171, .T. ) ;
#191 =( LENGTH_UNIT ( ) NAMED_UNIT ( * ) SI_UNIT ( .MILLI., .METRE. ) );
#192 = DIRECTION ( 'NONE',  ( -9.448620473410002383E-17, 1.000000000000000000, -0.000000000000000000 ) ) ;
#193 = CIRCLE ( 'NONE', #119, 4.000000000000000000 ) ;
#194 = PRODUCT_DEFINITION_FORMATION_WITH_SPECIFIED_SOURCE ( 'ANY', '', #248, .NOT_KNOWN. ) ;
#195 = APPLICATION_PROTOCOL_DEFINITION ( 'draft international standard', 'automotive_design', 1998, #230 ) ;
#196 = LINE ( 'NONE', #43, #244 ) ;
#197 = DIRECTION ( 'NONE',  ( 0.000000000000000000, 0.000000000000000000, -1.000000000000000000 ) ) ;
#198 = LINE ( 'NONE', #162, #269 ) ;
#199 = EDGE_CURVE ( 'NONE', #153, #112, #78, .T. ) ;
#200 = AXIS2_PLACEMENT_3D ( 'NONE', #309, #341, #96 ) ;
#201 = STYLED_ITEM ( 'NONE', ( #334 ), #123 ) ;
#202 = DIRECTION ( 'NONE',  ( -9.448620473410002383E-17, 1.000000000000000000, -0.000000000000000000 ) ) ;
#203 = PRESENTATION_LAYER_ASSIGNMENT (  '', '', ( #249 ) ) ;
#204 = SURFACE_SIDE_STYLE ('',( #352 ) ) ;
#205 = UNCERTAINTY_MEASURE_WITH_UNIT (LENGTH_MEASURE( 1.000000000000000082E-05 ), #260, 'distance_accuracy_value', 'NONE');
#206 = EDGE_LOOP ( 'NONE', ( #1, #207 ) ) ;
#207 = ORIENTED_EDGE ( 'NONE', *, *, #65, .F. ) ;
#208 = PRESENTATION_STYLE_ASSIGNMENT (( #331 ) ) ;
#209 = MECHANICAL_DESIGN_GEOMETRIC_PRESENTATION_REPRESENTATION (  '', ( #57 ), #278 ) ;
#210 = AXIS2_PLACEMENT_3D ( 'NONE', #275, #186, #75 ) ;
#211 = DIRECTION ( 'NONE',  ( 1.000000000000000000, 9.448620473410002383E-17, 0.000000000000000000 ) ) ;
#212 = LINE ( 'NONE', #302, #20 ) ;
#213 = FACE_OUTER_BOUND ( 'NONE', #69, .T. ) ;
#214 = ORIENTED_EDGE ( 'NONE', *, *, #11, .T. ) ;
#215 = EDGE_CURVE ( 'NONE', #80, #229, #93, .T. ) ;
#216 = COLOUR_RGB ( '',0.7921568627450980005, 0.8196078431372548767, 0.9333333333333333481 ) ;
#217 =( LENGTH_UNIT ( ) NAMED_UNIT ( * ) SI_UNIT ( .MILLI., .METRE. ) );
#218 = VERTEX_POINT ( 'NONE', #220 ) ;
#219 =( NAMED_UNIT ( * ) PLANE_ANGLE_UNIT ( ) SI_UNIT ( $, .RADIAN. ) );
#220 = CARTESIAN_POINT ( 'NONE',  ( -3.999999999999996447, 63.00000000000000000, 0.000000000000000000 ) ) ;
#221 = SURFACE_SIDE_STYLE ('',( #39 ) ) ;
#222 = DIRECTION ( 'NONE',  ( 0.000000000000000000, 0.000000000000000000, -1.000000000000000000 ) ) ;
#223 = CARTESIAN_POINT ( 'NONE',  ( 6.288372600415924928E-15, 11.99999999999999645, 0.000000000000000000 ) ) ;
#224 = PRODUCT_RELATED_PRODUCT_CATEGORY ( 'part', '', ( #248 ) ) ;
#225 = AXIS2_PLACEMENT_3D ( 'NONE', #31, #89, #6 ) ;
#226 = AXIS2_PLACEMENT_3D ( 'NONE', #17, #251, #365 ) ;
#227 = ORIENTED_EDGE ( 'NONE', *, *, #137, .T. ) ;
#228 =( NAMED_UNIT ( * ) PLANE_ANGLE_UNIT ( ) SI_UNIT ( $, .RADIAN. ) );
#229 = VERTEX_POINT ( 'NONE', #187 ) ;
#230 = APPLICATION_CONTEXT ( 'automotive_design' ) ;
#231 = CIRCLE ( 'NONE', #289, 3.500000000000000000 ) ;
#232 = COLOUR_RGB ( '',1.000000000000000000, 0.000000000000000000, 0.000000000000000000 ) ;
#233 = UNCERTAINTY_MEASURE_WITH_UNIT (LENGTH_MEASURE( 1.000000000000000082E-05 ), #191, 'distance_accuracy_value', 'NONE');
#234 = ORIENTED_EDGE ( 'NONE', *, *, #113, .F. ) ;
#235 = DIRECTION ( 'NONE',  ( -0.000000000000000000, -1.000000000000000000, -0.000000000000000000 ) ) ;
#236 = CARTESIAN_POINT ( 'NONE',  ( 0.000000000000000000, 0.000000000000000000, 0.000000000000000000 ) ) ;
#237 = CLOSED_SHELL ( 'NONE', ( #60, #348, #345, #123, #86, #257 ) ) ;
#238 = COLOUR_RGB ( '',1.000000000000000000, 0.000000000000000000, 0.000000000000000000 ) ;
#239 = CARTESIAN_POINT ( 'NONE',  ( 0.000000000000000000, 12.00000000000000000, -4.000000000000000000 ) ) ;
#240 = EDGE_CURVE ( 'NONE', #28, #229, #193, .T. ) ;
#241 = PRESENTATION_STYLE_ASSIGNMENT (( #97 ) ) ;
#242 =( NAMED_UNIT ( * ) PLANE_ANGLE_UNIT ( ) SI_UNIT ( $, .RADIAN. ) );
#243 = AXIS2_PLACEMENT_3D ( 'NONE', #284, #18, #131 ) ;
#244 = VECTOR ( 'NONE', #161, 1000.000000000000000 ) ;
#245 = CARTESIAN_POINT ( 'NONE',  ( 0.000000000000000000, 0.5000000000000000000, 0.000000000000000000 ) ) ;
#246 = DIRECTION ( 'NONE',  ( -1.224646799147353454E-16, 0.000000000000000000, -1.000000000000000000 ) ) ;
#247 = FILL_AREA_STYLE_COLOUR ( '', #292 ) ;
#248 = PRODUCT ( '59578', '59578', '', ( #329 ) ) ;
#249 = STYLED_ITEM ( 'NONE', ( #208 ), #60 ) ;
#250 = COLOUR_RGB ( '',1.000000000000000000, 0.000000000000000000, 0.000000000000000000 ) ;
#251 = DIRECTION ( 'NONE',  ( -9.448620473410002383E-17, 1.000000000000000000, -0.000000000000000000 ) ) ;
#252 = AXIS2_PLACEMENT_3D ( 'NONE', #25, #104, #135 ) ;
#253 = DIRECTION ( 'NONE',  ( -0.000000000000000000, -1.000000000000000000, -0.000000000000000000 ) ) ;
#254 = SURFACE_SIDE_STYLE ('',( #283 ) ) ;
#255 = EDGE_CURVE ( 'NONE', #153, #139, #212, .T. ) ;
#256 = PLANE ( 'NONE',  #94 ) ;
#257 = ADVANCED_FACE ( 'NONE', ( #359 ), #339, .T. ) ;
#258 =( GEOMETRIC_REPRESENTATION_CONTEXT ( 3 ) GLOBAL_UNCERTAINTY_ASSIGNED_CONTEXT ( ( #85 ) ) GLOBAL_UNIT_ASSIGNED_CONTEXT ( ( #76, #99, #338 ) ) REPRESENTATION_CONTEXT ( 'NONE', 'WORKASPACE' ) );
#259 = AXIS2_PLACEMENT_3D ( 'NONE', #2, #81, #109 ) ;
#260 =( LENGTH_UNIT ( ) NAMED_UNIT ( * ) SI_UNIT ( .MILLI., .METRE. ) );
#261 = ORIENTED_EDGE ( 'NONE', *, *, #199, .T. ) ;
#262 = DIRECTION ( 'NONE',  ( 0.000000000000000000, 0.000000000000000000, -1.000000000000000000 ) ) ;
#263 = CIRCLE ( 'NONE', #225, 3.999999999999998224 ) ;
#264 = MECHANICAL_DESIGN_GEOMETRIC_PRESENTATION_REPRESENTATION (  '', ( #3 ), #315 ) ;
#265 =( LENGTH_UNIT ( ) NAMED_UNIT ( * ) SI_UNIT ( .MILLI., .METRE. ) );
#266 = CYLINDRICAL_SURFACE ( 'NONE', #360, 4.000000000000000000 ) ;
#267 = UNCERTAINTY_MEASURE_WITH_UNIT (LENGTH_MEASURE( 1.000000000000000082E-05 ), #118, 'distance_accuracy_value', 'NONE');
#268 = DIRECTION ( 'NONE',  ( -0.000000000000000000, -1.000000000000000000, -0.000000000000000000 ) ) ;
#269 = VECTOR ( 'NONE', #367, 1000.000000000000000 ) ;
#270 = DIRECTION ( 'NONE',  ( 0.000000000000000000, 0.000000000000000000, 1.000000000000000000 ) ) ;
#271 = CARTESIAN_POINT ( 'NONE',  ( 4.000000000000000000, 63.00000000000000000, 0.000000000000000000 ) ) ;
#272 = ORIENTED_EDGE ( 'NONE', *, *, #65, .T. ) ;
#273 = DIRECTION ( 'NONE',  ( 0.000000000000000000, 0.000000000000000000, -1.000000000000000000 ) ) ;
#274 = ORIENTED_EDGE ( 'NONE', *, *, #240, .F. ) ;
#275 = CARTESIAN_POINT ( 'NONE',  ( 6.288372600415924928E-15, 11.99999999999999645, 0.000000000000000000 ) ) ;
#276 = CARTESIAN_POINT ( 'NONE',  ( 4.592425496802573972E-16, 0.000000000000000000, 3.500000000000000000 ) ) ;
#277 = EDGE_CURVE ( 'NONE', #112, #153, #37, .T. ) ;
#278 =( GEOMETRIC_REPRESENTATION_CONTEXT ( 3 ) GLOBAL_UNCERTAINTY_ASSIGNED_CONTEXT ( ( #64 ) ) GLOBAL_UNIT_ASSIGNED_CONTEXT ( ( #295, #55, #358 ) ) REPRESENTATION_CONTEXT ( 'NONE', 'WORKASPACE' ) );
#279 =( GEOMETRIC_REPRESENTATION_CONTEXT ( 3 ) GLOBAL_UNCERTAINTY_ASSIGNED_CONTEXT ( ( #32 ) ) GLOBAL_UNIT_ASSIGNED_CONTEXT ( ( #217, #328, #67 ) ) REPRESENTATION_CONTEXT ( 'NONE', 'WORKASPACE' ) );
#280 = CYLINDRICAL_SURFACE ( 'NONE', #226, 3.999999999999996447 ) ;
#281 = CARTESIAN_POINT ( 'NONE',  ( 0.000000000000000000, 0.000000000000000000, 0.000000000000000000 ) ) ;
#282 = CARTESIAN_POINT ( 'NONE',  ( 0.000000000000000000, 0.5000000000000000000, 0.000000000000000000 ) ) ;
#283 = SURFACE_STYLE_FILL_AREA ( #71 ) ;
#284 = CARTESIAN_POINT ( 'NONE',  ( 0.000000000000000000, 0.000000000000000000, 0.000000000000000000 ) ) ;
#285 = CIRCLE ( 'NONE', #330, 4.000000000000000000 ) ;
#286 =( GEOMETRIC_REPRESENTATION_CONTEXT ( 3 ) GLOBAL_UNCERTAINTY_ASSIGNED_CONTEXT ( ( #267 ) ) GLOBAL_UNIT_ASSIGNED_CONTEXT ( ( #118, #27, #53 ) ) REPRESENTATION_CONTEXT ( 'NONE', 'WORKASPACE' ) );
#287 = CARTESIAN_POINT ( 'NONE',  ( -3.999999999999987121, 11.99999999999999645, 0.000000000000000000 ) ) ;
#288 = ORIENTED_EDGE ( 'NONE', *, *, #82, .T. ) ;
#289 = AXIS2_PLACEMENT_3D ( 'NONE', #354, #63, #222 ) ;
#290 = FILL_AREA_STYLE_COLOUR ( '', #250 ) ;
#291 = ORIENTED_EDGE ( 'NONE', *, *, #137, .F. ) ;
#292 = COLOUR_RGB ( '',1.000000000000000000, 0.000000000000000000, 0.000000000000000000 ) ;
#293 = MECHANICAL_DESIGN_GEOMETRIC_PRESENTATION_REPRESENTATION (  '', ( #332 ), #279 ) ;
#294 = DIRECTION ( 'NONE',  ( 0.000000000000000000, 0.000000000000000000, -1.000000000000000000 ) ) ;
#295 =( LENGTH_UNIT ( ) NAMED_UNIT ( * ) SI_UNIT ( .MILLI., .METRE. ) );
#296 =( GEOMETRIC_REPRESENTATION_CONTEXT ( 3 ) GLOBAL_UNCERTAINTY_ASSIGNED_CONTEXT ( ( #178 ) ) GLOBAL_UNIT_ASSIGNED_CONTEXT ( ( #68, #242, #177 ) ) REPRESENTATION_CONTEXT ( 'NONE', 'WORKASPACE' ) );
#297 = DIRECTION ( 'NONE',  ( 9.448620473410002383E-17, -1.000000000000000000, 0.000000000000000000 ) ) ;
#298 = PRESENTATION_LAYER_ASSIGNMENT (  '', '', ( #3 ) ) ;
#299 = AXIS2_PLACEMENT_3D ( 'NONE', #151, #270, #70 ) ;
#300 = PRESENTATION_STYLE_ASSIGNMENT (( #155 ) ) ;
#301 = SURFACE_STYLE_FILL_AREA ( #361 ) ;
#302 = CARTESIAN_POINT ( 'NONE',  ( 3.999999999999998224, 63.00000000000000000, 4.898587196589408884E-16 ) ) ;
#303 = MANIFOLD_SOLID_BREP ( 'Revolve - Cutting Edge', #237 ) ;
#304 = CARTESIAN_POINT ( 'NONE',  ( 0.000000000000000000, 0.000000000000000000, -4.000000000000000000 ) ) ;
#305 = SURFACE_STYLE_USAGE ( .BOTH. , #254 ) ;
#306 = CLOSED_SHELL ( 'NONE', ( #342, #98, #317, #44 ) ) ;
#307 = AXIS2_PLACEMENT_3D ( 'NONE', #223, #202, #316 ) ;
#308 = FILL_AREA_STYLE ('',( #125 ) ) ;
#309 = CARTESIAN_POINT ( 'NONE',  ( 6.288372600415925717E-15, 12.00000000000000000, 0.000000000000000000 ) ) ;
#310 = SURFACE_STYLE_FILL_AREA ( #13 ) ;
#311 = CYLINDRICAL_SURFACE ( 'NONE', #243, 4.000000000000000000 ) ;
#312 = PRESENTATION_STYLE_ASSIGNMENT (( #305 ) ) ;
#313 = FACE_OUTER_BOUND ( 'NONE', #108, .T. ) ;
#314 = MECHANICAL_DESIGN_GEOMETRIC_PRESENTATION_REPRESENTATION (  '', ( #249 ), #296 ) ;
#315 =( GEOMETRIC_REPRESENTATION_CONTEXT ( 3 ) GLOBAL_UNCERTAINTY_ASSIGNED_CONTEXT ( ( #205 ) ) GLOBAL_UNIT_ASSIGNED_CONTEXT ( ( #260, #228, #4 ) ) REPRESENTATION_CONTEXT ( 'NONE', 'WORKASPACE' ) );
#316 = DIRECTION ( 'NONE',  ( -1.000000000000000000, 0.000000000000000000, 0.000000000000000000 ) ) ;
#317 = ADVANCED_FACE ( 'NONE', ( #190 ), #280, .T. ) ;
#318 = STYLED_ITEM ( 'NONE', ( #312 ), #86 ) ;
#319 = PRESENTATION_LAYER_ASSIGNMENT (  '', '', ( #103 ) ) ;
#320 = PRESENTATION_STYLE_ASSIGNMENT (( #114 ) ) ;
#321 = ORIENTED_EDGE ( 'NONE', *, *, #164, .T. ) ;
#322 = ORIENTED_EDGE ( 'NONE', *, *, #336, .F. ) ;
#323 = PRESENTATION_LAYER_ASSIGNMENT (  '', '', ( #318 ) ) ;
#324 = VECTOR ( 'NONE', #10, 1000.000000000000000 ) ;
#325 = ORIENTED_EDGE ( 'NONE', *, *, #327, .T. ) ;
#326 = CARTESIAN_POINT ( 'NONE',  ( 4.898587196589412829E-16, 0.5000000000000000000, 4.000000000000000000 ) ) ;
#327 = EDGE_CURVE ( 'NONE', #28, #105, #51, .T. ) ;
#328 =( NAMED_UNIT ( * ) PLANE_ANGLE_UNIT ( ) SI_UNIT ( $, .RADIAN. ) );
#329 = PRODUCT_CONTEXT ( 'NONE', #117, 'mechanical' ) ;
#330 = AXIS2_PLACEMENT_3D ( 'NONE', #126, #147, #294 ) ;
#331 = SURFACE_STYLE_USAGE ( .BOTH. , #36 ) ;
#332 = STYLED_ITEM ( 'NONE', ( #241 ), #257 ) ;
#333 = CARTESIAN_POINT ( 'NONE',  ( 0.000000000000000000, 12.00000000000000000, 0.000000000000000000 ) ) ;
#334 = PRESENTATION_STYLE_ASSIGNMENT (( #106 ) ) ;
#335 = EDGE_LOOP ( 'NONE', ( #214, #325, #346, #322 ) ) ;
#336 = EDGE_CURVE ( 'NONE', #229, #38, #8, .T. ) ;
#337 = FILL_AREA_STYLE_COLOUR ( '', #66 ) ;
#338 =( NAMED_UNIT ( * ) SI_UNIT ( $, .STERADIAN. ) SOLID_ANGLE_UNIT ( ) );
#339 = PLANE ( 'NONE',  #351 ) ;
#340 = EDGE_LOOP ( 'NONE', ( #291, #272, #124, #274 ) ) ;
#341 = DIRECTION ( 'NONE',  ( -9.448620473410002383E-17, 1.000000000000000000, 0.000000000000000000 ) ) ;
#342 = ADVANCED_FACE ( 'NONE', ( #313 ), #170, .T. ) ;
#343 = DIRECTION ( 'NONE',  ( 0.000000000000000000, 0.000000000000000000, -1.000000000000000000 ) ) ;
#344 = EDGE_CURVE ( 'NONE', #112, #218, #198, .T. ) ;
#345 = ADVANCED_FACE ( 'NONE', ( #22 ), #256, .T. ) ;
#346 = ORIENTED_EDGE ( 'NONE', *, *, #82, .F. ) ;
#347 = PRODUCT_DEFINITION_SHAPE ( 'NONE', 'NONE',  #188 ) ;
#348 = ADVANCED_FACE ( 'NONE', ( #174 ), #142, .T. ) ;
#349 = CARTESIAN_POINT ( 'NONE',  ( 0.000000000000000000, 12.00000000000000000, 0.000000000000000000 ) ) ;
#350 = UNCERTAINTY_MEASURE_WITH_UNIT (LENGTH_MEASURE( 1.000000000000000082E-05 ), #72, 'distance_accuracy_value', 'NONE');
#351 = AXIS2_PLACEMENT_3D ( 'NONE', #333, #158, #148 ) ;
#352 = SURFACE_STYLE_FILL_AREA ( #143 ) ;
#353 = FILL_AREA_STYLE ('',( #90 ) ) ;
#354 = CARTESIAN_POINT ( 'NONE',  ( 0.000000000000000000, 0.000000000000000000, 0.000000000000000000 ) ) ;
#355 = PRODUCT_DEFINITION_CONTEXT ( 'detailed design', #230, 'design' ) ;
#356 = EDGE_CURVE ( 'NONE', #139, #218, #83, .T. ) ;
#357 =( NAMED_UNIT ( * ) PLANE_ANGLE_UNIT ( ) SI_UNIT ( $, .RADIAN. ) );
#358 =( NAMED_UNIT ( * ) SI_UNIT ( $, .STERADIAN. ) SOLID_ANGLE_UNIT ( ) );
#359 = FACE_OUTER_BOUND ( 'NONE', #206, .T. ) ;
#360 = AXIS2_PLACEMENT_3D ( 'NONE', #121, #268, #273 ) ;
#361 = FILL_AREA_STYLE ('',( #115 ) ) ;
#362 = CIRCLE ( 'NONE', #128, 4.000000000000000000 ) ;
#363 = CARTESIAN_POINT ( 'NONE',  ( 0.000000000000000000, 0.5000000000000000000, -3.500000000000000000 ) ) ;
#364 = DIRECTION ( 'NONE',  ( -0.000000000000000000, -1.000000000000000000, -0.000000000000000000 ) ) ;
#365 = DIRECTION ( 'NONE',  ( -1.000000000000000000, 0.000000000000000000, 0.000000000000000000 ) ) ;
#366 = FACE_OUTER_BOUND ( 'NONE', #340, .T. ) ;
#367 = DIRECTION ( 'NONE',  ( -9.448620473410002383E-17, 1.000000000000000000, -0.000000000000000000 ) ) ;
#368 = FILL_AREA_STYLE_COLOUR ( '', #232 ) ;
#369 = MECHANICAL_DESIGN_GEOMETRIC_PRESENTATION_REPRESENTATION (  '', ( #74 ), #185 ) ;
#370 = ORIENTED_EDGE ( 'NONE', *, *, #29, .F. ) ;
ENDSEC;
END-ISO-10303-21;
