ISO-10303-21;
HEADER;
FILE_DESCRIPTION (( 'STEP AP214' ),
    '1' );
FILE_NAME ('Micro_BEMM-120-4X.STEP',
    '2021-09-03T13:35:41',
    ( '' ),
    ( '' ),
    'SwSTEP 2.0',
    'SolidWorks 2020',
    '' );
FILE_SCHEMA (( 'AUTOMOTIVE_DESIGN' ));
ENDSEC;

DATA;
#1 = CARTESIAN_POINT ( 'NONE',  ( 2.889973925387694330E-17, 0.0000000000000000000, 0.2359842795000000049 ) ) ;
#2 = DIRECTION ( 'NONE',  ( 1.224646799147353454E-16, 0.0000000000000000000, 1.000000000000000000 ) ) ;
#3 = ORIENTED_EDGE ( 'NONE', *, *, #18, .T. ) ;
#4 = ADVANCED_FACE ( 'NONE', ( #68 ), #45, .T. ) ;
#5 = ORIENTED_EDGE ( 'NONE', *, *, #178, .T. ) ;
#6 = EDGE_CURVE ( 'NONE', #118, #92, #305, .T. ) ;
#7 = ORIENTED_EDGE ( 'NONE', *, *, #18, .F. ) ;
#8 =( CONVERSION_BASED_UNIT ( 'INCH', #217 ) LENGTH_UNIT ( ) NAMED_UNIT ( #294 ) );
#9 = EDGE_LOOP ( 'NONE', ( #138, #288, #70, #127 ) ) ;
#10 = CIRCLE ( 'NONE', #299, 0.2359842794999999771 ) ;
#11 = EDGE_CURVE ( 'NONE', #195, #59, #153, .T. ) ;
#12 = ORIENTED_EDGE ( 'NONE', *, *, #293, .F. ) ;
#13 = APPLICATION_CONTEXT ( 'automotive_design' ) ;
#14 = ORIENTED_EDGE ( 'NONE', *, *, #293, .T. ) ;
#15 = CARTESIAN_POINT ( 'NONE',  ( 1.446432783766537492E-16, 0.0000000000000000000, 1.181102000000000096 ) ) ;
#16 = ADVANCED_FACE ( 'NONE', ( #176 ), #150, .T. ) ;
#17 = DIRECTION ( 'NONE',  ( 1.224646799147353454E-16, 0.0000000000000000000, 1.000000000000000000 ) ) ;
#18 = EDGE_CURVE ( 'NONE', #25, #33, #262, .T. ) ;
#19 = CARTESIAN_POINT ( 'NONE',  ( 0.2359842794999999771, 2.889973925387693713E-17, -2.889973925387693713E-17 ) ) ;
#20 = AXIS2_PLACEMENT_3D ( 'NONE', #168, #235, #302 ) ;
#21 = DIRECTION ( 'NONE',  ( -1.000000000000000000, 0.0000000000000000000, 0.0000000000000000000 ) ) ;
#22 = DIRECTION ( 'NONE',  ( -1.000000000000000000, 0.0000000000000000000, 0.0000000000000000000 ) ) ;
#23 = LENGTH_MEASURE_WITH_UNIT ( LENGTH_MEASURE( 0.02539999999999999897 ), #186 );
#24 = SPHERICAL_SURFACE ( 'NONE', #204, 0.2359842795000000049 ) ;
#25 = VERTEX_POINT ( 'NONE', #148 ) ;
#26 = CARTESIAN_POINT ( 'NONE',  ( -0.2359842794999999493, 0.0000000000000000000, 0.2359842795000000326 ) ) ;
#27 = VERTEX_POINT ( 'NONE', #285 ) ;
#28 = EDGE_CURVE ( 'NONE', #92, #118, #310, .T. ) ;
#29 = DIRECTION ( 'NONE',  ( 0.0000000000000000000, 0.0000000000000000000, 1.000000000000000000 ) ) ;
#30 = ADVANCED_BREP_SHAPE_REPRESENTATION ( 'Micro_BEMM-120-4X', ( #56, #325 ), #215 ) ;
#31 = DIRECTION ( 'NONE',  ( 1.000000000000000000, 0.0000000000000000000, 0.0000000000000000000 ) ) ;
#32 =( NAMED_UNIT ( * ) SI_UNIT ( $, .STERADIAN. ) SOLID_ANGLE_UNIT ( ) );
#33 = VERTEX_POINT ( 'NONE', #34 ) ;
#34 = CARTESIAN_POINT ( 'NONE',  ( 0.2359842795000000049, 2.889973925387693713E-17, 0.2359842794999999771 ) ) ;
#35 = EDGE_CURVE ( 'NONE', #92, #59, #122, .T. ) ;
#36 = ORIENTED_EDGE ( 'NONE', *, *, #279, .F. ) ;
#37 = AXIS2_PLACEMENT_3D ( 'NONE', #158, #76, #248 ) ;
#38 = PRODUCT_DEFINITION_SHAPE ( 'NONE', 'NONE',  #99 ) ;
#39 = AXIS2_PLACEMENT_3D ( 'NONE', #256, #207, #206 ) ;
#40 =( LENGTH_UNIT ( ) NAMED_UNIT ( * ) SI_UNIT ( $, .METRE. ) );
#41 = DIRECTION ( 'NONE',  ( 0.0000000000000000000, 0.0000000000000000000, -1.000000000000000000 ) ) ;
#42 = CARTESIAN_POINT ( 'NONE',  ( 0.2362204999999999999, 2.892866792179872647E-17, 3.267717000000000649 ) ) ;
#43 = ADVANCED_FACE ( 'NONE', ( #296 ), #102, .T. ) ;
#44 = CARTESIAN_POINT ( 'NONE',  ( 2.889973925387694330E-17, 0.0000000000000000000, 0.2359842795000000049 ) ) ;
#45 = CONICAL_SURFACE ( 'NONE', #82, 0.2359842794999999771, 0.1745329251994338915 ) ;
#46 = DIRECTION ( 'NONE',  ( 1.000000000000000000, 0.0000000000000000000, 0.0000000000000000000 ) ) ;
#47 = CARTESIAN_POINT ( 'NONE',  ( 2.889973925387694330E-17, 0.0000000000000000000, 0.2359842795000000049 ) ) ;
#48 = FACE_OUTER_BOUND ( 'NONE', #191, .T. ) ;
#49 = AXIS2_PLACEMENT_3D ( 'NONE', #44, #154, #317 ) ;
#50 = VERTEX_POINT ( 'NONE', #295 ) ;
#51 = DIRECTION ( 'NONE',  ( 1.000000000000000000, 0.0000000000000000000, 0.0000000000000000000 ) ) ;
#52 = CARTESIAN_POINT ( 'NONE',  ( 0.0000000000000000000, 0.0000000000000000000, 3.267717000000000649 ) ) ;
#53 = EDGE_LOOP ( 'NONE', ( #123, #313, #257, #5 ) ) ;
#54 = DIRECTION ( 'NONE',  ( -1.000000000000000000, 0.0000000000000000000, 0.0000000000000000000 ) ) ;
#55 = ORIENTED_EDGE ( 'NONE', *, *, #178, .F. ) ;
#56 = MANIFOLD_SOLID_BREP ( 'Fillet1', #156 ) ;
#57 = CARTESIAN_POINT ( 'NONE',  ( 0.0000000000000000000, 0.0000000000000000000, 3.267717000000000649 ) ) ;
#58 = DIMENSIONAL_EXPONENTS ( 1.000000000000000000, 0.0000000000000000000, 0.0000000000000000000, 0.0000000000000000000, 0.0000000000000000000, 0.0000000000000000000, 0.0000000000000000000 ) ;
#59 = VERTEX_POINT ( 'NONE', #131 ) ;
#60 = EDGE_CURVE ( 'NONE', #246, #33, #10, .T. ) ;
#61 = ORIENTED_EDGE ( 'NONE', *, *, #60, .F. ) ;
#62 = EDGE_CURVE ( 'NONE', #27, #195, #243, .T. ) ;
#63 =( NAMED_UNIT ( * ) SI_UNIT ( $, .STERADIAN. ) SOLID_ANGLE_UNIT ( ) );
#64 = DIRECTION ( 'NONE',  ( 0.0000000000000000000, 0.0000000000000000000, -1.000000000000000000 ) ) ;
#65 = AXIS2_PLACEMENT_3D ( 'NONE', #275, #251, #134 ) ;
#66 =( GEOMETRIC_REPRESENTATION_CONTEXT ( 3 ) GLOBAL_UNCERTAINTY_ASSIGNED_CONTEXT ( ( #107 ) ) GLOBAL_UNIT_ASSIGNED_CONTEXT ( ( #8, #260, #32 ) ) REPRESENTATION_CONTEXT ( 'NONE', 'WORKASPACE' ) );
#67 = PRODUCT_CONTEXT ( 'NONE', #13, 'mechanical' ) ;
#68 = FACE_OUTER_BOUND ( 'NONE', #9, .T. ) ;
#69 = FILL_AREA_STYLE_COLOUR ( '', #244 ) ;
#70 = ORIENTED_EDGE ( 'NONE', *, *, #155, .T. ) ;
#71 = ORIENTED_EDGE ( 'NONE', *, *, #103, .T. ) ;
#72 = EDGE_CURVE ( 'NONE', #27, #50, #228, .T. ) ;
#73 = PRODUCT_DEFINITION_FORMATION_WITH_SPECIFIED_SOURCE ( 'ANY', '', #96, .NOT_KNOWN. ) ;
#74 = FACE_OUTER_BOUND ( 'NONE', #95, .T. ) ;
#75 = DIRECTION ( 'NONE',  ( -1.224646799147353454E-16, -0.0000000000000000000, -1.000000000000000000 ) ) ;
#76 = DIRECTION ( 'NONE',  ( -0.0000000000000000000, -0.0000000000000000000, -1.000000000000000000 ) ) ;
#77 = AXIS2_PLACEMENT_3D ( 'NONE', #98, #265, #41 ) ;
#78 = AXIS2_PLACEMENT_3D ( 'NONE', #297, #189, #141 ) ;
#79 =( LENGTH_UNIT ( ) NAMED_UNIT ( * ) SI_UNIT ( $, .METRE. ) );
#80 = PRESENTATION_STYLE_ASSIGNMENT (( #319 ) ) ;
#81 = CARTESIAN_POINT ( 'NONE',  ( 0.0000000000000000000, 0.0000000000000000000, 0.0000000000000000000 ) ) ;
#82 = AXIS2_PLACEMENT_3D ( 'NONE', #125, #218, #289 ) ;
#83 = FACE_OUTER_BOUND ( 'NONE', #261, .T. ) ;
#84 = CONICAL_SURFACE ( 'NONE', #144, 0.2212205000000019295, 0.7853981633974482790 ) ;
#85 = LINE ( 'NONE', #116, #274 ) ;
#86 = DIRECTION ( 'NONE',  ( -1.224646799147353454E-16, -0.0000000000000000000, -1.000000000000000000 ) ) ;
#87 = DIRECTION ( 'NONE',  ( 1.000000000000000000, 0.0000000000000000000, 0.0000000000000000000 ) ) ;
#88 = CONICAL_SURFACE ( 'NONE', #214, 0.2359842794999999771, 0.1745329251994338915 ) ;
#89 = CIRCLE ( 'NONE', #113, 0.2359842794999999771 ) ;
#90 = ORIENTED_EDGE ( 'NONE', *, *, #28, .F. ) ;
#91 = DIRECTION ( 'NONE',  ( 1.000000000000000000, 0.0000000000000000000, -0.0000000000000000000 ) ) ;
#92 = VERTEX_POINT ( 'NONE', #271 ) ;
#93 = VECTOR ( 'NONE', #290, 39.37007874015748143 ) ;
#94 = CIRCLE ( 'NONE', #190, 0.2362204999999999999 ) ;
#95 = EDGE_LOOP ( 'NONE', ( #270, #71, #152, #259 ) ) ;
#96 = PRODUCT ( 'Micro_BEMM-120-4X', 'Micro_BEMM-120-4X', '', ( #67 ) ) ;
#97 = VERTEX_POINT ( 'NONE', #292 ) ;
#98 = CARTESIAN_POINT ( 'NONE',  ( 2.889973925387694330E-17, 0.0000000000000000000, 0.2359842795000000049 ) ) ;
#99 = PRODUCT_DEFINITION ( 'UNKNOWN', '', #73, #208 ) ;
#100 = AXIS2_PLACEMENT_3D ( 'NONE', #128, #224, #315 ) ;
#101 = AXIS2_PLACEMENT_3D ( 'NONE', #232, #162, #54 ) ;
#102 = CYLINDRICAL_SURFACE ( 'NONE', #37, 0.2362204999999999999 ) ;
#103 = EDGE_CURVE ( 'NONE', #195, #33, #108, .T. ) ;
#104 = FILL_AREA_STYLE ('',( #320 ) ) ;
#105 = ADVANCED_FACE ( 'NONE', ( #291 ), #88, .T. ) ;
#106 =( NAMED_UNIT ( * ) PLANE_ANGLE_UNIT ( ) SI_UNIT ( $, .RADIAN. ) );
#107 = UNCERTAINTY_MEASURE_WITH_UNIT (LENGTH_MEASURE( 1.000000000000000082E-05 ), #8, 'distance_accuracy_value', 'NONE');
#108 = LINE ( 'NONE', #19, #268 ) ;
#109 = DIRECTION ( 'NONE',  ( 1.000000000000000000, 0.0000000000000000000, 0.0000000000000000000 ) ) ;
#110 = CYLINDRICAL_SURFACE ( 'NONE', #101, 0.2362204999999999999 ) ;
#111 = PRODUCT_RELATED_PRODUCT_CATEGORY ( 'part', '', ( #96 ) ) ;
#112 = CARTESIAN_POINT ( 'NONE',  ( 0.2212205000000019295, 2.709169772307794108E-17, 3.267717000000000649 ) ) ;
#113 = AXIS2_PLACEMENT_3D ( 'NONE', #1, #2, #280 ) ;
#114 = DIRECTION ( 'NONE',  ( 0.0000000000000000000, 1.000000000000000000, 0.0000000000000000000 ) ) ;
#115 = ORIENTED_EDGE ( 'NONE', *, *, #6, .T. ) ;
#116 = CARTESIAN_POINT ( 'NONE',  ( -0.2362204999999999999, 0.0000000000000000000, 3.267717000000000649 ) ) ;
#117 = VECTOR ( 'NONE', #226, 39.37007874015748143 ) ;
#118 = VERTEX_POINT ( 'NONE', #157 ) ;
#119 = STYLED_ITEM ( 'NONE', ( #192 ), #30 ) ;
#120 = EDGE_LOOP ( 'NONE', ( #309, #308, #165, #174 ) ) ;
#121 = ADVANCED_FACE ( 'NONE', ( #74 ), #205, .T. ) ;
#122 = LINE ( 'NONE', #42, #117 ) ;
#123 = ORIENTED_EDGE ( 'NONE', *, *, #72, .F. ) ;
#124 = PRESENTATION_LAYER_ASSIGNMENT (  '', '', ( #119 ) ) ;
#125 = CARTESIAN_POINT ( 'NONE',  ( 1.446432783766537492E-16, 0.0000000000000000000, 1.181102000000000096 ) ) ;
#126 = ADVANCED_FACE ( 'NONE', ( #200 ), #182, .T. ) ;
#127 = ORIENTED_EDGE ( 'NONE', *, *, #11, .F. ) ;
#128 = CARTESIAN_POINT ( 'NONE',  ( 0.0000000000000000000, 0.0000000000000000000, 0.0000000000000000000 ) ) ;
#129 =( GEOMETRIC_REPRESENTATION_CONTEXT ( 3 ) GLOBAL_UNCERTAINTY_ASSIGNED_CONTEXT ( ( #318 ) ) GLOBAL_UNIT_ASSIGNED_CONTEXT ( ( #180, #106, #198 ) ) REPRESENTATION_CONTEXT ( 'NONE', 'WORKASPACE' ) );
#130 = MECHANICAL_DESIGN_GEOMETRIC_PRESENTATION_REPRESENTATION (  '', ( #119 ), #66 ) ;
#131 = CARTESIAN_POINT ( 'NONE',  ( 0.2362205000000001665, 2.892866792179874496E-17, 1.182441673027071261 ) ) ;
#132 = EDGE_CURVE ( 'NONE', #27, #246, #179, .T. ) ;
#133 = DIRECTION ( 'NONE',  ( -1.224646799147353454E-16, -0.0000000000000000000, -1.000000000000000000 ) ) ;
#134 = DIRECTION ( 'NONE',  ( -1.000000000000000000, 0.0000000000000000000, 0.0000000000000000000 ) ) ;
#135 = DIRECTION ( 'NONE',  ( -0.1736481776669311916, 2.126576849575783316E-17, 0.9848077530122080203 ) ) ;
#136 = FACE_OUTER_BOUND ( 'NONE', #120, .T. ) ;
#137 = ADVANCED_FACE ( 'NONE', ( #48 ), #24, .T. ) ;
#138 = ORIENTED_EDGE ( 'NONE', *, *, #62, .F. ) ;
#139 = ADVANCED_FACE ( 'NONE', ( #254 ), #110, .T. ) ;
#140 =( CONVERSION_BASED_UNIT ( 'INCH', #23 ) LENGTH_UNIT ( ) NAMED_UNIT ( #316 ) );
#141 = DIRECTION ( 'NONE',  ( 1.000000000000000000, 0.0000000000000000000, 0.0000000000000000000 ) ) ;
#142 = EDGE_LOOP ( 'NONE', ( #264, #3, #61 ) ) ;
#143 = STYLED_ITEM ( 'NONE', ( #80 ), #56 ) ;
#144 = AXIS2_PLACEMENT_3D ( 'NONE', #52, #185, #21 ) ;
#145 = EDGE_LOOP ( 'NONE', ( #172, #212, #196, #36 ) ) ;
#146 = CIRCLE ( 'NONE', #184, 0.2212205000000019295 ) ;
#147 = SURFACE_SIDE_STYLE ('',( #284 ) ) ;
#148 = CARTESIAN_POINT ( 'NONE',  ( 4.334960888081541802E-17, 0.0000000000000000000, 0.0000000000000000000 ) ) ;
#149 = FILL_AREA_STYLE ('',( #69 ) ) ;
#150 = PLANE ( 'NONE',  #273 ) ;
#151 =( NAMED_UNIT ( * ) PLANE_ANGLE_UNIT ( ) SI_UNIT ( $, .RADIAN. ) );
#152 = ORIENTED_EDGE ( 'NONE', *, *, #239, .T. ) ;
#153 = LINE ( 'NONE', #197, #93 ) ;
#154 = DIRECTION ( 'NONE',  ( 0.0000000000000000000, 1.000000000000000000, 0.0000000000000000000 ) ) ;
#155 = EDGE_CURVE ( 'NONE', #50, #59, #269, .T. ) ;
#156 = CLOSED_SHELL ( 'NONE', ( #137, #121, #4, #160, #43, #139, #16, #170, #105, #241, #126 ) ) ;
#157 = CARTESIAN_POINT ( 'NONE',  ( -0.2362204999999999999, 0.0000000000000000000, 3.252717000000002301 ) ) ;
#158 = CARTESIAN_POINT ( 'NONE',  ( 0.0000000000000000000, 0.0000000000000000000, 3.267717000000000649 ) ) ;
#159 = MECHANICAL_DESIGN_GEOMETRIC_PRESENTATION_REPRESENTATION (  '', ( #143 ), #129 ) ;
#160 = ADVANCED_FACE ( 'NONE', ( #213 ), #209, .T. ) ;
#161 = CYLINDRICAL_SURFACE ( 'NONE', #167, 0.2359842794999999771 ) ;
#162 = DIRECTION ( 'NONE',  ( -0.0000000000000000000, -0.0000000000000000000, -1.000000000000000000 ) ) ;
#163 = ORIENTED_EDGE ( 'NONE', *, *, #35, .T. ) ;
#164 = DIRECTION ( 'NONE',  ( 0.0000000000000000000, 0.0000000000000000000, 1.000000000000000000 ) ) ;
#165 = ORIENTED_EDGE ( 'NONE', *, *, #132, .T. ) ;
#166 = CARTESIAN_POINT ( 'NONE',  ( -0.2212205000000019295, 0.0000000000000000000, 3.267717000000000649 ) ) ;
#167 = AXIS2_PLACEMENT_3D ( 'NONE', #81, #86, #324 ) ;
#168 = CARTESIAN_POINT ( 'NONE',  ( 1.446432783766537492E-16, 0.0000000000000000000, 1.181102000000000096 ) ) ;
#169 = ORIENTED_EDGE ( 'NONE', *, *, #35, .F. ) ;
#170 = ADVANCED_FACE ( 'NONE', ( #83 ), #84, .T. ) ;
#171 = DIRECTION ( 'NONE',  ( 1.000000000000000000, 0.0000000000000000000, 0.0000000000000000000 ) ) ;
#172 = ORIENTED_EDGE ( 'NONE', *, *, #321, .F. ) ;
#173 = CARTESIAN_POINT ( 'NONE',  ( 0.0000000000000000000, 0.0000000000000000000, 3.252717000000002301 ) ) ;
#174 = ORIENTED_EDGE ( 'NONE', *, *, #60, .T. ) ;
#175 = SURFACE_STYLE_USAGE ( .BOTH. , #147 ) ;
#176 = FACE_OUTER_BOUND ( 'NONE', #238, .T. ) ;
#177 = AXIS2_PLACEMENT_3D ( 'NONE', #283, #64, #240 ) ;
#178 = EDGE_CURVE ( 'NONE', #59, #50, #94, .T. ) ;
#179 = LINE ( 'NONE', #250, #252 ) ;
#180 =( CONVERSION_BASED_UNIT ( 'INCH', #247 ) LENGTH_UNIT ( ) NAMED_UNIT ( #58 ) );
#181 = AXIS2_PLACEMENT_3D ( 'NONE', #322, #164, #51 ) ;
#182 = SPHERICAL_SURFACE ( 'NONE', #49, 0.2359842795000000049 ) ;
#183 = DIRECTION ( 'NONE',  ( -1.224646799147353454E-16, -0.0000000000000000000, -1.000000000000000000 ) ) ;
#184 = AXIS2_PLACEMENT_3D ( 'NONE', #281, #304, #87 ) ;
#185 = DIRECTION ( 'NONE',  ( 0.0000000000000000000, 0.0000000000000000000, -1.000000000000000000 ) ) ;
#186 =( LENGTH_UNIT ( ) NAMED_UNIT ( * ) SI_UNIT ( $, .METRE. ) );
#187 = CARTESIAN_POINT ( 'NONE',  ( -0.2212205000000019295, 0.0000000000000000000, 3.267717000000000649 ) ) ;
#188 = ORIENTED_EDGE ( 'NONE', *, *, #155, .F. ) ;
#189 = DIRECTION ( 'NONE',  ( -1.224646799147353454E-16, -0.0000000000000000000, -1.000000000000000000 ) ) ;
#190 = AXIS2_PLACEMENT_3D ( 'NONE', #236, #183, #109 ) ;
#191 = EDGE_LOOP ( 'NONE', ( #7, #221, #237 ) ) ;
#192 = PRESENTATION_STYLE_ASSIGNMENT (( #175 ) ) ;
#193 = ORIENTED_EDGE ( 'NONE', *, *, #301, .T. ) ;
#194 = EDGE_CURVE ( 'NONE', #195, #27, #278, .T. ) ;
#195 = VERTEX_POINT ( 'NONE', #258 ) ;
#196 = ORIENTED_EDGE ( 'NONE', *, *, #6, .F. ) ;
#197 = CARTESIAN_POINT ( 'NONE',  ( 0.2359842795000001159, 0.0000000000000000000, 1.181102000000000096 ) ) ;
#198 =( NAMED_UNIT ( * ) SI_UNIT ( $, .STERADIAN. ) SOLID_ANGLE_UNIT ( ) );
#199 = VECTOR ( 'NONE', #277, 39.37007874015748854 ) ;
#200 = FACE_OUTER_BOUND ( 'NONE', #142, .T. ) ;
#201 = SURFACE_SIDE_STYLE ('',( #276 ) ) ;
#202 = DIRECTION ( 'NONE',  ( 1.224646799147353454E-16, 0.0000000000000000000, 1.000000000000000000 ) ) ;
#203 = PRESENTATION_LAYER_ASSIGNMENT (  '', '', ( #143 ) ) ;
#204 = AXIS2_PLACEMENT_3D ( 'NONE', #231, #114, #298 ) ;
#205 = CYLINDRICAL_SURFACE ( 'NONE', #100, 0.2359842794999999771 ) ;
#206 = DIRECTION ( 'NONE',  ( -1.000000000000000000, 1.224646799147353207E-16, 0.0000000000000000000 ) ) ;
#207 = DIRECTION ( 'NONE',  ( 1.224646799147353207E-16, 1.000000000000000000, -0.0000000000000000000 ) ) ;
#208 = PRODUCT_DEFINITION_CONTEXT ( 'detailed design', #230, 'design' ) ;
#209 = CONICAL_SURFACE ( 'NONE', #227, 0.2212205000000019295, 0.7853981633974482790 ) ;
#210 = DIRECTION ( 'NONE',  ( -0.7071067811865474617, 0.0000000000000000000, -0.7071067811865474617 ) ) ;
#211 = DIRECTION ( 'NONE',  ( -0.0000000000000000000, -0.0000000000000000000, -1.000000000000000000 ) ) ;
#212 = ORIENTED_EDGE ( 'NONE', *, *, #267, .T. ) ;
#213 = FACE_OUTER_BOUND ( 'NONE', #145, .T. ) ;
#214 = AXIS2_PLACEMENT_3D ( 'NONE', #15, #202, #46 ) ;
#215 =( GEOMETRIC_REPRESENTATION_CONTEXT ( 3 ) GLOBAL_UNCERTAINTY_ASSIGNED_CONTEXT ( ( #323 ) ) GLOBAL_UNIT_ASSIGNED_CONTEXT ( ( #140, #151, #63 ) ) REPRESENTATION_CONTEXT ( 'NONE', 'WORKASPACE' ) );
#216 = ORIENTED_EDGE ( 'NONE', *, *, #321, .T. ) ;
#217 = LENGTH_MEASURE_WITH_UNIT ( LENGTH_MEASURE( 0.02539999999999999897 ), #40 );
#218 = DIRECTION ( 'NONE',  ( 1.224646799147353454E-16, 0.0000000000000000000, 1.000000000000000000 ) ) ;
#219 = ORIENTED_EDGE ( 'NONE', *, *, #279, .T. ) ;
#220 = AXIS2_PLACEMENT_3D ( 'NONE', #173, #222, #31 ) ;
#221 = ORIENTED_EDGE ( 'NONE', *, *, #234, .T. ) ;
#222 = DIRECTION ( 'NONE',  ( 0.0000000000000000000, 0.0000000000000000000, -1.000000000000000000 ) ) ;
#223 = CARTESIAN_POINT ( 'NONE',  ( 0.0000000000000000000, 0.0000000000000000000, 3.267717000000000649 ) ) ;
#224 = DIRECTION ( 'NONE',  ( -1.224646799147353454E-16, -0.0000000000000000000, -1.000000000000000000 ) ) ;
#225 = DIRECTION ( 'NONE',  ( -1.000000000000000000, 0.0000000000000000000, 1.447049777771459222E-16 ) ) ;
#226 = DIRECTION ( 'NONE',  ( -0.0000000000000000000, -0.0000000000000000000, -1.000000000000000000 ) ) ;
#227 = AXIS2_PLACEMENT_3D ( 'NONE', #57, #300, #22 ) ;
#228 = LINE ( 'NONE', #272, #286 ) ;
#229 = LINE ( 'NONE', #166, #263 ) ;
#230 = APPLICATION_CONTEXT ( 'automotive_design' ) ;
#231 = CARTESIAN_POINT ( 'NONE',  ( 2.889973925387694330E-17, 0.0000000000000000000, 0.2359842795000000049 ) ) ;
#232 = CARTESIAN_POINT ( 'NONE',  ( 0.0000000000000000000, 0.0000000000000000000, 3.267717000000000649 ) ) ;
#233 = ORIENTED_EDGE ( 'NONE', *, *, #267, .F. ) ;
#234 = EDGE_CURVE ( 'NONE', #25, #246, #249, .T. ) ;
#235 = DIRECTION ( 'NONE',  ( -1.224646799147353454E-16, -0.0000000000000000000, -1.000000000000000000 ) ) ;
#236 = CARTESIAN_POINT ( 'NONE',  ( 1.448073410051044337E-16, 0.0000000000000000000, 1.182441673027071261 ) ) ;
#237 = ORIENTED_EDGE ( 'NONE', *, *, #239, .F. ) ;
#238 = EDGE_LOOP ( 'NONE', ( #14, #216 ) ) ;
#239 = EDGE_CURVE ( 'NONE', #33, #246, #89, .T. ) ;
#240 = DIRECTION ( 'NONE',  ( 1.000000000000000000, 0.0000000000000000000, 0.0000000000000000000 ) ) ;
#241 = ADVANCED_FACE ( 'NONE', ( #136 ), #161, .T. ) ;
#242 = EDGE_LOOP ( 'NONE', ( #169, #266, #193, #55 ) ) ;
#243 = CIRCLE ( 'NONE', #65, 0.2359842794999999771 ) ;
#244 = COLOUR_RGB ( '',0.7921568627450980005, 0.8196078431372548767, 0.9333333333333333481 ) ;
#245 = VERTEX_POINT ( 'NONE', #187 ) ;
#246 = VERTEX_POINT ( 'NONE', #26 ) ;
#247 = LENGTH_MEASURE_WITH_UNIT ( LENGTH_MEASURE( 0.02539999999999999897 ), #79 );
#248 = DIRECTION ( 'NONE',  ( -1.000000000000000000, 0.0000000000000000000, 0.0000000000000000000 ) ) ;
#249 = CIRCLE ( 'NONE', #39, 0.2359842795000000049 ) ;
#250 = CARTESIAN_POINT ( 'NONE',  ( -0.2359842794999999771, 0.0000000000000000000, 2.889973925387693713E-17 ) ) ;
#251 = DIRECTION ( 'NONE',  ( -1.224646799147353454E-16, -0.0000000000000000000, -1.000000000000000000 ) ) ;
#252 = VECTOR ( 'NONE', #133, 39.37007874015748143 ) ;
#253 = LINE ( 'NONE', #112, #199 ) ;
#254 = FACE_OUTER_BOUND ( 'NONE', #242, .T. ) ;
#255 = COLOUR_RGB ( '',0.7921568627450980005, 0.8196078431372548767, 0.9333333333333333481 ) ;
#256 = CARTESIAN_POINT ( 'NONE',  ( 2.889973925387694330E-17, 0.0000000000000000000, 0.2359842795000000049 ) ) ;
#257 = ORIENTED_EDGE ( 'NONE', *, *, #11, .T. ) ;
#258 = CARTESIAN_POINT ( 'NONE',  ( 0.2359842795000001159, 0.0000000000000000000, 1.181102000000000096 ) ) ;
#259 = ORIENTED_EDGE ( 'NONE', *, *, #132, .F. ) ;
#260 =( NAMED_UNIT ( * ) PLANE_ANGLE_UNIT ( ) SI_UNIT ( $, .RADIAN. ) );
#261 = EDGE_LOOP ( 'NONE', ( #233, #12, #219, #90 ) ) ;
#262 = CIRCLE ( 'NONE', #77, 0.2359842795000000049 ) ;
#263 = VECTOR ( 'NONE', #210, 39.37007874015748854 ) ;
#264 = ORIENTED_EDGE ( 'NONE', *, *, #234, .F. ) ;
#265 = DIRECTION ( 'NONE',  ( 0.0000000000000000000, -1.000000000000000000, 0.0000000000000000000 ) ) ;
#266 = ORIENTED_EDGE ( 'NONE', *, *, #28, .T. ) ;
#267 = EDGE_CURVE ( 'NONE', #97, #92, #253, .T. ) ;
#268 = VECTOR ( 'NONE', #75, 39.37007874015748143 ) ;
#269 = CIRCLE ( 'NONE', #78, 0.2362204999999999999 ) ;
#270 = ORIENTED_EDGE ( 'NONE', *, *, #62, .T. ) ;
#271 = CARTESIAN_POINT ( 'NONE',  ( 0.2362204999999999999, 2.892866792179872647E-17, 3.252717000000002301 ) ) ;
#272 = CARTESIAN_POINT ( 'NONE',  ( -0.2359842794999998383, 2.889973925387693713E-17, 1.181102000000000096 ) ) ;
#273 = AXIS2_PLACEMENT_3D ( 'NONE', #223, #314, #91 ) ;
#274 = VECTOR ( 'NONE', #211, 39.37007874015748143 ) ;
#275 = CARTESIAN_POINT ( 'NONE',  ( 1.446432783766537492E-16, 0.0000000000000000000, 1.181102000000000096 ) ) ;
#276 = SURFACE_STYLE_FILL_AREA ( #104 ) ;
#277 = DIRECTION ( 'NONE',  ( 0.7071067811865474617, 8.659560562354932858E-17, -0.7071067811865474617 ) ) ;
#278 = CIRCLE ( 'NONE', #20, 0.2359842794999999771 ) ;
#279 = EDGE_CURVE ( 'NONE', #245, #118, #229, .T. ) ;
#280 = DIRECTION ( 'NONE',  ( -1.000000000000000000, 0.0000000000000000000, 1.447049777771459222E-16 ) ) ;
#281 = CARTESIAN_POINT ( 'NONE',  ( 0.0000000000000000000, 0.0000000000000000000, 3.267717000000000649 ) ) ;
#282 = CARTESIAN_POINT ( 'NONE',  ( 0.0000000000000000000, 0.0000000000000000000, 0.0000000000000000000 ) ) ;
#283 = CARTESIAN_POINT ( 'NONE',  ( 0.0000000000000000000, 0.0000000000000000000, 3.252717000000002301 ) ) ;
#284 = SURFACE_STYLE_FILL_AREA ( #149 ) ;
#285 = CARTESIAN_POINT ( 'NONE',  ( -0.2359842794999998383, 2.891420358783783796E-17, 1.181102000000000096 ) ) ;
#286 = VECTOR ( 'NONE', #135, 39.37007874015747433 ) ;
#287 = SHAPE_DEFINITION_REPRESENTATION ( #38, #30 ) ;
#288 = ORIENTED_EDGE ( 'NONE', *, *, #72, .T. ) ;
#289 = DIRECTION ( 'NONE',  ( 1.000000000000000000, 0.0000000000000000000, 0.0000000000000000000 ) ) ;
#290 = DIRECTION ( 'NONE',  ( 0.1736481776669313859, 0.0000000000000000000, 0.9848077530122077983 ) ) ;
#291 = FACE_OUTER_BOUND ( 'NONE', #53, .T. ) ;
#292 = CARTESIAN_POINT ( 'NONE',  ( 0.2212205000000019295, 2.801018282243833685E-17, 3.267717000000000649 ) ) ;
#293 = EDGE_CURVE ( 'NONE', #245, #97, #306, .T. ) ;
#294 = DIMENSIONAL_EXPONENTS ( 1.000000000000000000, 0.0000000000000000000, 0.0000000000000000000, 0.0000000000000000000, 0.0000000000000000000, 0.0000000000000000000, 0.0000000000000000000 ) ;
#295 = CARTESIAN_POINT ( 'NONE',  ( -0.2362204999999998611, 0.0000000000000000000, 1.182441673027071261 ) ) ;
#296 = FACE_OUTER_BOUND ( 'NONE', #303, .T. ) ;
#297 = CARTESIAN_POINT ( 'NONE',  ( 1.448073410051044337E-16, 0.0000000000000000000, 1.182441673027071261 ) ) ;
#298 = DIRECTION ( 'NONE',  ( 1.000000000000000000, 0.0000000000000000000, 0.0000000000000000000 ) ) ;
#299 = AXIS2_PLACEMENT_3D ( 'NONE', #47, #17, #225 ) ;
#300 = DIRECTION ( 'NONE',  ( 0.0000000000000000000, 0.0000000000000000000, -1.000000000000000000 ) ) ;
#301 = EDGE_CURVE ( 'NONE', #118, #50, #85, .T. ) ;
#302 = DIRECTION ( 'NONE',  ( -1.000000000000000000, 0.0000000000000000000, 0.0000000000000000000 ) ) ;
#303 = EDGE_LOOP ( 'NONE', ( #115, #163, #188, #312 ) ) ;
#304 = DIRECTION ( 'NONE',  ( 0.0000000000000000000, 0.0000000000000000000, 1.000000000000000000 ) ) ;
#305 = CIRCLE ( 'NONE', #220, 0.2362204999999999999 ) ;
#306 = CIRCLE ( 'NONE', #181, 0.2212205000000019295 ) ;
#307 = APPLICATION_PROTOCOL_DEFINITION ( 'draft international standard', 'automotive_design', 1998, #230 ) ;
#308 = ORIENTED_EDGE ( 'NONE', *, *, #194, .T. ) ;
#309 = ORIENTED_EDGE ( 'NONE', *, *, #103, .F. ) ;
#310 = CIRCLE ( 'NONE', #177, 0.2362204999999999999 ) ;
#311 = APPLICATION_PROTOCOL_DEFINITION ( 'draft international standard', 'automotive_design', 1998, #13 ) ;
#312 = ORIENTED_EDGE ( 'NONE', *, *, #301, .F. ) ;
#313 = ORIENTED_EDGE ( 'NONE', *, *, #194, .F. ) ;
#314 = DIRECTION ( 'NONE',  ( 0.0000000000000000000, 0.0000000000000000000, 1.000000000000000000 ) ) ;
#315 = DIRECTION ( 'NONE',  ( -1.000000000000000000, 0.0000000000000000000, 1.224646799147353454E-16 ) ) ;
#316 = DIMENSIONAL_EXPONENTS ( 1.000000000000000000, 0.0000000000000000000, 0.0000000000000000000, 0.0000000000000000000, 0.0000000000000000000, 0.0000000000000000000, 0.0000000000000000000 ) ;
#317 = DIRECTION ( 'NONE',  ( 1.000000000000000000, 0.0000000000000000000, 0.0000000000000000000 ) ) ;
#318 = UNCERTAINTY_MEASURE_WITH_UNIT (LENGTH_MEASURE( 1.000000000000000082E-05 ), #180, 'distance_accuracy_value', 'NONE');
#319 = SURFACE_STYLE_USAGE ( .BOTH. , #201 ) ;
#320 = FILL_AREA_STYLE_COLOUR ( '', #255 ) ;
#321 = EDGE_CURVE ( 'NONE', #97, #245, #146, .T. ) ;
#322 = CARTESIAN_POINT ( 'NONE',  ( 0.0000000000000000000, 0.0000000000000000000, 3.267717000000000649 ) ) ;
#323 = UNCERTAINTY_MEASURE_WITH_UNIT (LENGTH_MEASURE( 1.000000000000000082E-05 ), #140, 'distance_accuracy_value', 'NONE');
#324 = DIRECTION ( 'NONE',  ( -1.000000000000000000, 0.0000000000000000000, 1.224646799147353454E-16 ) ) ;
#325 = AXIS2_PLACEMENT_3D ( 'NONE', #282, #29, #171 ) ;
ENDSEC;
END-ISO-10303-21;
