ISO-10303-21;
HEADER;
FILE_DESCRIPTION (( 'STEP AP214' ),
    '1' );
FILE_NAME ('59262.STEP',
    '2023-06-22T22:26:32',
    ( '' ),
    ( '' ),
    'SwSTEP 2.0',
    'SolidWorks 2023',
    '' );
FILE_SCHEMA (( 'AUTOMOTIVE_DESIGN' ));
ENDSEC;

DATA;
#1 = ADVANCED_FACE ( 'NONE', ( #4 ), #230, .T. ) ;
#2 =( GEOMETRIC_REPRESENTATION_CONTEXT ( 3 ) GLOBAL_UNCERTAINTY_ASSIGNED_CONTEXT ( ( #147 ) ) GLOBAL_UNIT_ASSIGNED_CONTEXT ( ( #44, #140, #22 ) ) REPRESENTATION_CONTEXT ( 'NONE', 'WORKASPACE' ) );
#3 = FILL_AREA_STYLE ('',( #71 ) ) ;
#4 = FACE_OUTER_BOUND ( 'NONE', #136, .T. ) ;
#5 = EDGE_CURVE ( 'NONE', #46, #304, #149, .T. ) ;
#6 = CYLINDRICAL_SURFACE ( 'NONE', #223, 0.2499999999999998890 ) ;
#7 =( CONVERSION_BASED_UNIT ( 'INCH', #60 ) LENGTH_UNIT ( ) NAMED_UNIT ( #206 ) );
#8 =( NAMED_UNIT ( * ) PLANE_ANGLE_UNIT ( ) SI_UNIT ( $, .RADIAN. ) );
#9 = STYLED_ITEM ( 'NONE', ( #270 ), #31 ) ;
#10 = FACE_OUTER_BOUND ( 'NONE', #254, .T. ) ;
#11 = ORIENTED_EDGE ( 'NONE', *, *, #127, .T. ) ;
#12 = PRODUCT_DEFINITION ( 'UNKNOWN', '', #231, #242 ) ;
#13 = CARTESIAN_POINT ( 'NONE',  ( 0.000000000000000000, 0.6250000000000000000, 0.000000000000000000 ) ) ;
#14 = STYLED_ITEM ( 'NONE', ( #209 ), #142 ) ;
#15 = CIRCLE ( 'NONE', #28, 0.2499999999999999722 ) ;
#16 = ORIENTED_EDGE ( 'NONE', *, *, #203, .T. ) ;
#17 = VERTEX_POINT ( 'NONE', #53 ) ;
#18 = SURFACE_SIDE_STYLE ('',( #187 ) ) ;
#19 =( LENGTH_UNIT ( ) NAMED_UNIT ( * ) SI_UNIT ( $, .METRE. ) );
#20 = FILL_AREA_STYLE_COLOUR ( '', #298 ) ;
#21 = ORIENTED_EDGE ( 'NONE', *, *, #5, .F. ) ;
#22 =( NAMED_UNIT ( * ) SI_UNIT ( $, .STERADIAN. ) SOLID_ANGLE_UNIT ( ) );
#23 = VERTEX_POINT ( 'NONE', #128 ) ;
#24 = PRESENTATION_LAYER_ASSIGNMENT (  '', '', ( #166 ) ) ;
#25 = DIMENSIONAL_EXPONENTS ( 1.000000000000000000, 0.000000000000000000, 0.000000000000000000, 0.000000000000000000, 0.000000000000000000, 0.000000000000000000, 0.000000000000000000 ) ;
#26 = CARTESIAN_POINT ( 'NONE',  ( 1.224646799147353207E-16, 2.500000000000000000, 0.000000000000000000 ) ) ;
#27 =( GEOMETRIC_REPRESENTATION_CONTEXT ( 3 ) GLOBAL_UNCERTAINTY_ASSIGNED_CONTEXT ( ( #267 ) ) GLOBAL_UNIT_ASSIGNED_CONTEXT ( ( #7, #295, #59 ) ) REPRESENTATION_CONTEXT ( 'NONE', 'WORKASPACE' ) );
#28 = AXIS2_PLACEMENT_3D ( 'NONE', #255, #146, #257 ) ;
#29 = ORIENTED_EDGE ( 'NONE', *, *, #61, .T. ) ;
#30 = CARTESIAN_POINT ( 'NONE',  ( -0.2499999999999999722, 0.6250000000000000000, 0.000000000000000000 ) ) ;
#31 = ADVANCED_FACE ( 'NONE', ( #246 ), #176, .T. ) ;
#32 = LENGTH_MEASURE_WITH_UNIT ( LENGTH_MEASURE( 0.02539999999999999897 ), #148 );
#33 =( GEOMETRIC_REPRESENTATION_CONTEXT ( 3 ) GLOBAL_UNCERTAINTY_ASSIGNED_CONTEXT ( ( #157 ) ) GLOBAL_UNIT_ASSIGNED_CONTEXT ( ( #215, #131, #171 ) ) REPRESENTATION_CONTEXT ( 'NONE', 'WORKASPACE' ) );
#34 = DIRECTION ( 'NONE',  ( 6.531449595452550356E-17, 1.000000000000000000, -0.000000000000000000 ) ) ;
#35 = DIRECTION ( 'NONE',  ( 6.531449595452550356E-17, 1.000000000000000000, -0.000000000000000000 ) ) ;
#36 = AXIS2_PLACEMENT_3D ( 'NONE', #13, #35, #41 ) ;
#37 = FILL_AREA_STYLE ('',( #133 ) ) ;
#38 = ORIENTED_EDGE ( 'NONE', *, *, #153, .T. ) ;
#39 = EDGE_CURVE ( 'NONE', #228, #43, #107, .T. ) ;
#40 = CARTESIAN_POINT ( 'NONE',  ( 1.224646799147353207E-16, 2.500000000000000000, 0.000000000000000000 ) ) ;
#41 = DIRECTION ( 'NONE',  ( -1.000000000000000000, 0.000000000000000000, 0.000000000000000000 ) ) ;
#42 = AXIS2_PLACEMENT_3D ( 'NONE', #106, #297, #101 ) ;
#43 = VERTEX_POINT ( 'NONE', #294 ) ;
#44 =( CONVERSION_BASED_UNIT ( 'INCH', #45 ) LENGTH_UNIT ( ) NAMED_UNIT ( #51 ) );
#45 = LENGTH_MEASURE_WITH_UNIT ( LENGTH_MEASURE( 0.02539999999999999897 ), #301 );
#46 = VERTEX_POINT ( 'NONE', #271 ) ;
#47 = LENGTH_MEASURE_WITH_UNIT ( LENGTH_MEASURE( 0.02539999999999999897 ), #88 );
#48 = CARTESIAN_POINT ( 'NONE',  ( 0.000000000000000000, 0.000000000000000000, -0.2500000000000000000 ) ) ;
#49 = DIRECTION ( 'NONE',  ( 0.000000000000000000, 0.000000000000000000, -1.000000000000000000 ) ) ;
#50 = SURFACE_STYLE_FILL_AREA ( #3 ) ;
#51 = DIMENSIONAL_EXPONENTS ( 1.000000000000000000, 0.000000000000000000, 0.000000000000000000, 0.000000000000000000, 0.000000000000000000, 0.000000000000000000, 0.000000000000000000 ) ;
#52 =( GEOMETRIC_REPRESENTATION_CONTEXT ( 3 ) GLOBAL_UNCERTAINTY_ASSIGNED_CONTEXT ( ( #97 ) ) GLOBAL_UNIT_ASSIGNED_CONTEXT ( ( #152, #91, #67 ) ) REPRESENTATION_CONTEXT ( 'NONE', 'WORKASPACE' ) );
#53 = CARTESIAN_POINT ( 'NONE',  ( -0.2499999999999996947, 2.500000000000000000, 0.000000000000000000 ) ) ;
#54 = PRESENTATION_LAYER_ASSIGNMENT (  '', '', ( #288 ) ) ;
#55 = LENGTH_MEASURE_WITH_UNIT ( LENGTH_MEASURE( 0.02539999999999999897 ), #75 );
#56 = MECHANICAL_DESIGN_GEOMETRIC_PRESENTATION_REPRESENTATION (  '', ( #288 ), #218 ) ;
#57 = ORIENTED_EDGE ( 'NONE', *, *, #203, .F. ) ;
#58 = CARTESIAN_POINT ( 'NONE',  ( 0.000000000000000000, 0.000000000000000000, 0.000000000000000000 ) ) ;
#59 =( NAMED_UNIT ( * ) SI_UNIT ( $, .STERADIAN. ) SOLID_ANGLE_UNIT ( ) );
#60 = LENGTH_MEASURE_WITH_UNIT ( LENGTH_MEASURE( 0.02539999999999999897 ), #19 );
#61 = EDGE_CURVE ( 'NONE', #228, #17, #135, .T. ) ;
#62 = SURFACE_STYLE_USAGE ( .BOTH. , #18 ) ;
#63 = CLOSED_SHELL ( 'NONE', ( #142, #236, #31, #1 ) ) ;
#64 = LENGTH_MEASURE_WITH_UNIT ( LENGTH_MEASURE( 0.02539999999999999897 ), #155 );
#65 = PRODUCT_CONTEXT ( 'NONE', #243, 'mechanical' ) ;
#66 = AXIS2_PLACEMENT_3D ( 'NONE', #300, #82, #274 ) ;
#67 =( NAMED_UNIT ( * ) SI_UNIT ( $, .STERADIAN. ) SOLID_ANGLE_UNIT ( ) );
#68 = DIRECTION ( 'NONE',  ( 6.531449595452550356E-17, 1.000000000000000000, -0.000000000000000000 ) ) ;
#69 = DIRECTION ( 'NONE',  ( -0.000000000000000000, -1.000000000000000000, -0.000000000000000000 ) ) ;
#70 = MECHANICAL_DESIGN_GEOMETRIC_PRESENTATION_REPRESENTATION (  '', ( #191 ), #2 ) ;
#71 = FILL_AREA_STYLE_COLOUR ( '', #99 ) ;
#72 = CARTESIAN_POINT ( 'NONE',  ( 0.000000000000000000, 0.000000000000000000, 0.000000000000000000 ) ) ;
#73 =( NAMED_UNIT ( * ) SI_UNIT ( $, .STERADIAN. ) SOLID_ANGLE_UNIT ( ) );
#74 = AXIS2_PLACEMENT_3D ( 'NONE', #95, #289, #192 ) ;
#75 =( LENGTH_UNIT ( ) NAMED_UNIT ( * ) SI_UNIT ( $, .METRE. ) );
#76 = DIRECTION ( 'NONE',  ( 1.000000000000000000, -6.531449595452550356E-17, 0.000000000000000000 ) ) ;
#77 = DIRECTION ( 'NONE',  ( 0.000000000000000000, 0.000000000000000000, -1.000000000000000000 ) ) ;
#78 = EDGE_CURVE ( 'NONE', #17, #23, #244, .T. ) ;
#79 = PRODUCT_DEFINITION_SHAPE ( 'NONE', 'NONE',  #12 ) ;
#80 = AXIS2_PLACEMENT_3D ( 'NONE', #111, #305, #163 ) ;
#81 = SURFACE_SIDE_STYLE ('',( #199 ) ) ;
#82 = DIRECTION ( 'NONE',  ( 6.531449595452550356E-17, 1.000000000000000000, -0.000000000000000000 ) ) ;
#83 = SURFACE_STYLE_USAGE ( .BOTH. , #102 ) ;
#84 = ORIENTED_EDGE ( 'NONE', *, *, #258, .F. ) ;
#85 = STYLED_ITEM ( 'NONE', ( #184 ), #1 ) ;
#86 = CIRCLE ( 'NONE', #207, 0.2500000000000000000 ) ;
#87 = ORIENTED_EDGE ( 'NONE', *, *, #153, .F. ) ;
#88 =( LENGTH_UNIT ( ) NAMED_UNIT ( * ) SI_UNIT ( $, .METRE. ) );
#89 = EDGE_LOOP ( 'NONE', ( #21, #38, #162, #172 ) ) ;
#90 = DIRECTION ( 'NONE',  ( -1.000000000000000000, 0.000000000000000000, 0.000000000000000000 ) ) ;
#91 =( NAMED_UNIT ( * ) PLANE_ANGLE_UNIT ( ) SI_UNIT ( $, .RADIAN. ) );
#92 = DIRECTION ( 'NONE',  ( -0.000000000000000000, -1.000000000000000000, -0.000000000000000000 ) ) ;
#93 = FACE_OUTER_BOUND ( 'NONE', #225, .T. ) ;
#94 = DIMENSIONAL_EXPONENTS ( 1.000000000000000000, 0.000000000000000000, 0.000000000000000000, 0.000000000000000000, 0.000000000000000000, 0.000000000000000000, 0.000000000000000000 ) ;
#95 = CARTESIAN_POINT ( 'NONE',  ( 0.000000000000000000, 0.6250000000000000000, 0.000000000000000000 ) ) ;
#96 = DIRECTION ( 'NONE',  ( -6.531449595452550356E-17, -1.000000000000000000, 0.000000000000000000 ) ) ;
#97 = UNCERTAINTY_MEASURE_WITH_UNIT (LENGTH_MEASURE( 1.000000000000000082E-05 ), #152, 'distance_accuracy_value', 'NONE');
#98 = PRESENTATION_LAYER_ASSIGNMENT (  '', '', ( #85 ) ) ;
#99 = COLOUR_RGB ( '',1.000000000000000000, 0.000000000000000000, 0.000000000000000000 ) ;
#100 = CARTESIAN_POINT ( 'NONE',  ( 3.061616997868383018E-17, 0.000000000000000000, 0.2500000000000000000 ) ) ;
#101 = DIRECTION ( 'NONE',  ( -1.000000000000000000, 6.531449595452550356E-17, 0.000000000000000000 ) ) ;
#102 = SURFACE_SIDE_STYLE ('',( #251 ) ) ;
#103 = CARTESIAN_POINT ( 'NONE',  ( 1.224646799147353207E-16, 2.500000000000000000, 0.000000000000000000 ) ) ;
#104 = MECHANICAL_DESIGN_GEOMETRIC_PRESENTATION_REPRESENTATION (  '', ( #166 ), #33 ) ;
#105 = SURFACE_STYLE_FILL_AREA ( #37 ) ;
#106 = CARTESIAN_POINT ( 'NONE',  ( 5.332479227242159300E-34, 0.6250000000000000000, 0.000000000000000000 ) ) ;
#107 = CIRCLE ( 'NONE', #36, 0.2499999999999999722 ) ;
#108 = CYLINDRICAL_SURFACE ( 'NONE', #66, 0.2499999999999998890 ) ;
#109 = ORIENTED_EDGE ( 'NONE', *, *, #61, .F. ) ;
#110 = DIMENSIONAL_EXPONENTS ( 1.000000000000000000, 0.000000000000000000, 0.000000000000000000, 0.000000000000000000, 0.000000000000000000, 0.000000000000000000, 0.000000000000000000 ) ;
#111 = CARTESIAN_POINT ( 'NONE',  ( 0.000000000000000000, 0.000000000000000000, 0.000000000000000000 ) ) ;
#112 = ORIENTED_EDGE ( 'NONE', *, *, #264, .T. ) ;
#113 = ORIENTED_EDGE ( 'NONE', *, *, #264, .F. ) ;
#114 = MECHANICAL_DESIGN_GEOMETRIC_PRESENTATION_REPRESENTATION (  '', ( #9 ), #272 ) ;
#115 = DIRECTION ( 'NONE',  ( -0.000000000000000000, -1.000000000000000000, -0.000000000000000000 ) ) ;
#116 = AXIS2_PLACEMENT_3D ( 'NONE', #194, #214, #290 ) ;
#117 = ORIENTED_EDGE ( 'NONE', *, *, #233, .F. ) ;
#118 = DIMENSIONAL_EXPONENTS ( 1.000000000000000000, 0.000000000000000000, 0.000000000000000000, 0.000000000000000000, 0.000000000000000000, 0.000000000000000000, 0.000000000000000000 ) ;
#119 = ADVANCED_FACE ( 'NONE', ( #10 ), #108, .T. ) ;
#120 = DIRECTION ( 'NONE',  ( -1.000000000000000000, 0.000000000000000000, 0.000000000000000000 ) ) ;
#121 = MECHANICAL_DESIGN_GEOMETRIC_PRESENTATION_REPRESENTATION (  '', ( #85 ), #27 ) ;
#122 = CARTESIAN_POINT ( 'NONE',  ( 0.2499999999999999722, 2.500000000000000000, 0.000000000000000000 ) ) ;
#123 = SURFACE_SIDE_STYLE ('',( #50 ) ) ;
#124 = DIRECTION ( 'NONE',  ( 0.000000000000000000, -1.000000000000000000, -0.000000000000000000 ) ) ;
#125 = COLOUR_RGB ( '',1.000000000000000000, 0.000000000000000000, 0.000000000000000000 ) ;
#126 = AXIS2_PLACEMENT_3D ( 'NONE', #284, #115, #49 ) ;
#127 = EDGE_CURVE ( 'NONE', #304, #141, #229, .T. ) ;
#128 = CARTESIAN_POINT ( 'NONE',  ( 0.2500000000000000000, 2.500000000000000000, 3.061616997868382402E-17 ) ) ;
#129 = PLANE ( 'NONE',  #42 ) ;
#130 = DIRECTION ( 'NONE',  ( 6.531449595452550356E-17, 1.000000000000000000, -0.000000000000000000 ) ) ;
#131 =( NAMED_UNIT ( * ) PLANE_ANGLE_UNIT ( ) SI_UNIT ( $, .RADIAN. ) );
#132 = PRODUCT ( '59262', '59262', '', ( #65 ) ) ;
#133 = FILL_AREA_STYLE_COLOUR ( '', #150 ) ;
#134 = ORIENTED_EDGE ( 'NONE', *, *, #180, .F. ) ;
#135 = LINE ( 'NONE', #158, #283 ) ;
#136 = EDGE_LOOP ( 'NONE', ( #186, #11 ) ) ;
#137 = AXIS2_PLACEMENT_3D ( 'NONE', #40, #130, #221 ) ;
#138 = EDGE_LOOP ( 'NONE', ( #139, #161, #84, #183 ) ) ;
#139 = ORIENTED_EDGE ( 'NONE', *, *, #233, .T. ) ;
#140 =( NAMED_UNIT ( * ) PLANE_ANGLE_UNIT ( ) SI_UNIT ( $, .RADIAN. ) );
#141 = VERTEX_POINT ( 'NONE', #188 ) ;
#142 = ADVANCED_FACE ( 'NONE', ( #167 ), #276, .T. ) ;
#143 =( CONVERSION_BASED_UNIT ( 'INCH', #47 ) LENGTH_UNIT ( ) NAMED_UNIT ( #307 ) );
#144 = MECHANICAL_DESIGN_GEOMETRIC_PRESENTATION_REPRESENTATION (  '', ( #14 ), #239 ) ;
#145 = DIRECTION ( 'NONE',  ( -1.000000000000000000, 0.000000000000000000, 0.000000000000000000 ) ) ;
#146 = DIRECTION ( 'NONE',  ( -0.000000000000000000, -1.000000000000000000, -0.000000000000000000 ) ) ;
#147 = UNCERTAINTY_MEASURE_WITH_UNIT (LENGTH_MEASURE( 1.000000000000000082E-05 ), #44, 'distance_accuracy_value', 'NONE');
#148 =( LENGTH_UNIT ( ) NAMED_UNIT ( * ) SI_UNIT ( $, .METRE. ) );
#149 = LINE ( 'NONE', #100, #168 ) ;
#150 = COLOUR_RGB ( '',1.000000000000000000, 0.000000000000000000, 0.000000000000000000 ) ;
#151 = AXIS2_PLACEMENT_3D ( 'NONE', #222, #249, #273 ) ;
#152 =( CONVERSION_BASED_UNIT ( 'INCH', #259 ) LENGTH_UNIT ( ) NAMED_UNIT ( #94 ) );
#153 = EDGE_CURVE ( 'NONE', #46, #261, #15, .T. ) ;
#154 = ORIENTED_EDGE ( 'NONE', *, *, #39, .T. ) ;
#155 =( LENGTH_UNIT ( ) NAMED_UNIT ( * ) SI_UNIT ( $, .METRE. ) );
#156 = AXIS2_PLACEMENT_3D ( 'NONE', #281, #237, #120 ) ;
#157 = UNCERTAINTY_MEASURE_WITH_UNIT (LENGTH_MEASURE( 1.000000000000000082E-05 ), #215, 'distance_accuracy_value', 'NONE');
#158 = CARTESIAN_POINT ( 'NONE',  ( -0.2499999999999997502, 2.500000000000000000, 0.000000000000000000 ) ) ;
#159 = EDGE_LOOP ( 'NONE', ( #189, #57 ) ) ;
#160 = EDGE_LOOP ( 'NONE', ( #219, #208 ) ) ;
#161 = ORIENTED_EDGE ( 'NONE', *, *, #5, .T. ) ;
#162 = ORIENTED_EDGE ( 'NONE', *, *, #291, .T. ) ;
#163 = DIRECTION ( 'NONE',  ( 0.000000000000000000, 0.000000000000000000, -1.000000000000000000 ) ) ;
#164 = APPLICATION_CONTEXT ( 'automotive_design' ) ;
#165 = FILL_AREA_STYLE ('',( #20 ) ) ;
#166 = STYLED_ITEM ( 'NONE', ( #170 ), #236 ) ;
#167 = FACE_OUTER_BOUND ( 'NONE', #138, .T. ) ;
#168 = VECTOR ( 'NONE', #263, 39.37007874015748143 ) ;
#169 = UNCERTAINTY_MEASURE_WITH_UNIT (LENGTH_MEASURE( 1.000000000000000082E-05 ), #143, 'distance_accuracy_value', 'NONE');
#170 = PRESENTATION_STYLE_ASSIGNMENT (( #211 ) ) ;
#171 =( NAMED_UNIT ( * ) SI_UNIT ( $, .STERADIAN. ) SOLID_ANGLE_UNIT ( ) );
#172 = ORIENTED_EDGE ( 'NONE', *, *, #127, .F. ) ;
#173 = PRESENTATION_LAYER_ASSIGNMENT (  '', '', ( #14 ) ) ;
#174 =( LENGTH_UNIT ( ) NAMED_UNIT ( * ) SI_UNIT ( $, .METRE. ) );
#175 = CARTESIAN_POINT ( 'NONE',  ( 0.2500000000000000555, 2.500000000000000000, 3.061616997868381785E-17 ) ) ;
#176 = CYLINDRICAL_SURFACE ( 'NONE', #238, 0.2500000000000000000 ) ;
#177 = DIRECTION ( 'NONE',  ( -0.000000000000000000, -1.000000000000000000, -0.000000000000000000 ) ) ;
#178 = AXIS2_PLACEMENT_3D ( 'NONE', #26, #68, #90 ) ;
#179 = FILL_AREA_STYLE ('',( #248 ) ) ;
#180 = EDGE_CURVE ( 'NONE', #23, #17, #266, .T. ) ;
#181 = MANIFOLD_SOLID_BREP ( 'Revolve - Tool Body (Straight Shanked)', #250 ) ;
#182 = APPLICATION_PROTOCOL_DEFINITION ( 'draft international standard', 'automotive_design', 1998, #164 ) ;
#183 = ORIENTED_EDGE ( 'NONE', *, *, #291, .F. ) ;
#184 = PRESENTATION_STYLE_ASSIGNMENT (( #83 ) ) ;
#185 =( NAMED_UNIT ( * ) SI_UNIT ( $, .STERADIAN. ) SOLID_ANGLE_UNIT ( ) );
#186 = ORIENTED_EDGE ( 'NONE', *, *, #258, .T. ) ;
#187 = SURFACE_STYLE_FILL_AREA ( #232 ) ;
#188 = CARTESIAN_POINT ( 'NONE',  ( 0.000000000000000000, 0.000000000000000000, -0.2500000000000000000 ) ) ;
#189 = ORIENTED_EDGE ( 'NONE', *, *, #39, .F. ) ;
#190 =( NAMED_UNIT ( * ) PLANE_ANGLE_UNIT ( ) SI_UNIT ( $, .RADIAN. ) );
#191 = STYLED_ITEM ( 'NONE', ( #253 ), #181 ) ;
#192 = DIRECTION ( 'NONE',  ( 0.000000000000000000, 0.000000000000000000, -1.000000000000000000 ) ) ;
#193 = DIRECTION ( 'NONE',  ( 6.531449595452550356E-17, 1.000000000000000000, -0.000000000000000000 ) ) ;
#194 = CARTESIAN_POINT ( 'NONE',  ( 0.000000000000000000, 0.6250000000000000000, 0.000000000000000000 ) ) ;
#195 = VECTOR ( 'NONE', #34, 39.37007874015748143 ) ;
#196 = PLANE ( 'NONE',  #306 ) ;
#197 = FACE_OUTER_BOUND ( 'NONE', #160, .T. ) ;
#198 = SURFACE_SIDE_STYLE ('',( #105 ) ) ;
#199 = SURFACE_STYLE_FILL_AREA ( #179 ) ;
#200 = LINE ( 'NONE', #175, #195 ) ;
#201 = DIRECTION ( 'NONE',  ( 0.000000000000000000, 0.000000000000000000, -1.000000000000000000 ) ) ;
#202 = VECTOR ( 'NONE', #69, 39.37007874015748143 ) ;
#203 = EDGE_CURVE ( 'NONE', #43, #228, #252, .T. ) ;
#204 = SURFACE_STYLE_USAGE ( .BOTH. , #256 ) ;
#205 = FILL_AREA_STYLE ('',( #234 ) ) ;
#206 = DIMENSIONAL_EXPONENTS ( 1.000000000000000000, 0.000000000000000000, 0.000000000000000000, 0.000000000000000000, 0.000000000000000000, 0.000000000000000000, 0.000000000000000000 ) ;
#207 = AXIS2_PLACEMENT_3D ( 'NONE', #72, #92, #77 ) ;
#208 = ORIENTED_EDGE ( 'NONE', *, *, #180, .T. ) ;
#209 = PRESENTATION_STYLE_ASSIGNMENT (( #204 ) ) ;
#210 = PRODUCT_RELATED_PRODUCT_CATEGORY ( 'part', '', ( #132 ) ) ;
#211 = SURFACE_STYLE_USAGE ( .BOTH. , #123 ) ;
#212 = PLANE ( 'NONE',  #116 ) ;
#213 = UNCERTAINTY_MEASURE_WITH_UNIT (LENGTH_MEASURE( 1.000000000000000082E-05 ), #269, 'distance_accuracy_value', 'NONE');
#214 = DIRECTION ( 'NONE',  ( 0.000000000000000000, 1.000000000000000000, 0.000000000000000000 ) ) ;
#215 =( CONVERSION_BASED_UNIT ( 'INCH', #32 ) LENGTH_UNIT ( ) NAMED_UNIT ( #25 ) );
#216 = EDGE_LOOP ( 'NONE', ( #117, #87 ) ) ;
#217 =( CONVERSION_BASED_UNIT ( 'INCH', #64 ) LENGTH_UNIT ( ) NAMED_UNIT ( #118 ) );
#218 =( GEOMETRIC_REPRESENTATION_CONTEXT ( 3 ) GLOBAL_UNCERTAINTY_ASSIGNED_CONTEXT ( ( #213 ) ) GLOBAL_UNIT_ASSIGNED_CONTEXT ( ( #269, #8, #241 ) ) REPRESENTATION_CONTEXT ( 'NONE', 'WORKASPACE' ) );
#219 = ORIENTED_EDGE ( 'NONE', *, *, #78, .T. ) ;
#220 = PRESENTATION_STYLE_ASSIGNMENT (( #268 ) ) ;
#221 = DIRECTION ( 'NONE',  ( -1.000000000000000000, 0.000000000000000000, 0.000000000000000000 ) ) ;
#222 = CARTESIAN_POINT ( 'NONE',  ( 0.000000000000000000, 0.000000000000000000, 0.000000000000000000 ) ) ;
#223 = AXIS2_PLACEMENT_3D ( 'NONE', #103, #193, #145 ) ;
#224 = FACE_OUTER_BOUND ( 'NONE', #159, .T. ) ;
#225 = EDGE_LOOP ( 'NONE', ( #154, #112, #279, #109 ) ) ;
#226 = CARTESIAN_POINT ( 'NONE',  ( 0.000000000000000000, 0.6250000000000000000, -0.2499999999999999722 ) ) ;
#227 = APPLICATION_PROTOCOL_DEFINITION ( 'draft international standard', 'automotive_design', 1998, #243 ) ;
#228 = VERTEX_POINT ( 'NONE', #30 ) ;
#229 = CIRCLE ( 'NONE', #80, 0.2500000000000000000 ) ;
#230 = PLANE ( 'NONE',  #287 ) ;
#231 = PRODUCT_DEFINITION_FORMATION_WITH_SPECIFIED_SOURCE ( 'ANY', '', #132, .NOT_KNOWN. ) ;
#232 = FILL_AREA_STYLE ('',( #302 ) ) ;
#233 = EDGE_CURVE ( 'NONE', #261, #46, #245, .T. ) ;
#234 = FILL_AREA_STYLE_COLOUR ( '', #125 ) ;
#235 = COLOUR_RGB ( '',0.7921568627450980005, 0.8196078431372548767, 0.9333333333333333481 ) ;
#236 = ADVANCED_FACE ( 'NONE', ( #308 ), #212, .T. ) ;
#237 = DIRECTION ( 'NONE',  ( 6.531449595452550356E-17, 1.000000000000000000, -0.000000000000000000 ) ) ;
#238 = AXIS2_PLACEMENT_3D ( 'NONE', #58, #177, #201 ) ;
#239 =( GEOMETRIC_REPRESENTATION_CONTEXT ( 3 ) GLOBAL_UNCERTAINTY_ASSIGNED_CONTEXT ( ( #169 ) ) GLOBAL_UNIT_ASSIGNED_CONTEXT ( ( #143, #190, #185 ) ) REPRESENTATION_CONTEXT ( 'NONE', 'WORKASPACE' ) );
#240 = CARTESIAN_POINT ( 'NONE',  ( 0.000000000000000000, 0.000000000000000000, 0.000000000000000000 ) ) ;
#241 =( NAMED_UNIT ( * ) SI_UNIT ( $, .STERADIAN. ) SOLID_ANGLE_UNIT ( ) );
#242 = PRODUCT_DEFINITION_CONTEXT ( 'detailed design', #164, 'design' ) ;
#243 = APPLICATION_CONTEXT ( 'automotive_design' ) ;
#244 = CIRCLE ( 'NONE', #137, 0.2499999999999998335 ) ;
#245 = CIRCLE ( 'NONE', #74, 0.2499999999999999722 ) ;
#246 = FACE_OUTER_BOUND ( 'NONE', #89, .T. ) ;
#247 = DIRECTION ( 'NONE',  ( 6.531449595452550356E-17, 1.000000000000000000, -0.000000000000000000 ) ) ;
#248 = FILL_AREA_STYLE_COLOUR ( '', #277 ) ;
#249 = DIRECTION ( 'NONE',  ( 0.000000000000000000, 0.000000000000000000, 1.000000000000000000 ) ) ;
#250 = CLOSED_SHELL ( 'NONE', ( #303, #280, #119, #285 ) ) ;
#251 = SURFACE_STYLE_FILL_AREA ( #205 ) ;
#252 = CIRCLE ( 'NONE', #156, 0.2499999999999999722 ) ;
#253 = PRESENTATION_STYLE_ASSIGNMENT (( #62 ) ) ;
#254 = EDGE_LOOP ( 'NONE', ( #113, #16, #29, #134 ) ) ;
#255 = CARTESIAN_POINT ( 'NONE',  ( 0.000000000000000000, 0.6250000000000000000, 0.000000000000000000 ) ) ;
#256 = SURFACE_SIDE_STYLE ('',( #278 ) ) ;
#257 = DIRECTION ( 'NONE',  ( 0.000000000000000000, 0.000000000000000000, -1.000000000000000000 ) ) ;
#258 = EDGE_CURVE ( 'NONE', #141, #304, #86, .T. ) ;
#259 = LENGTH_MEASURE_WITH_UNIT ( LENGTH_MEASURE( 0.02539999999999999897 ), #174 );
#260 = UNCERTAINTY_MEASURE_WITH_UNIT (LENGTH_MEASURE( 1.000000000000000082E-05 ), #217, 'distance_accuracy_value', 'NONE');
#261 = VERTEX_POINT ( 'NONE', #226 ) ;
#262 =( NAMED_UNIT ( * ) PLANE_ANGLE_UNIT ( ) SI_UNIT ( $, .RADIAN. ) );
#263 = DIRECTION ( 'NONE',  ( -0.000000000000000000, -1.000000000000000000, -0.000000000000000000 ) ) ;
#264 = EDGE_CURVE ( 'NONE', #43, #23, #200, .T. ) ;
#265 = PRESENTATION_LAYER_ASSIGNMENT (  '', '', ( #9 ) ) ;
#266 = CIRCLE ( 'NONE', #178, 0.2499999999999998335 ) ;
#267 = UNCERTAINTY_MEASURE_WITH_UNIT (LENGTH_MEASURE( 1.000000000000000082E-05 ), #7, 'distance_accuracy_value', 'NONE');
#268 = SURFACE_STYLE_USAGE ( .BOTH. , #81 ) ;
#269 =( CONVERSION_BASED_UNIT ( 'INCH', #55 ) LENGTH_UNIT ( ) NAMED_UNIT ( #110 ) );
#270 = PRESENTATION_STYLE_ASSIGNMENT (( #296 ) ) ;
#271 = CARTESIAN_POINT ( 'NONE',  ( 3.061616997868382402E-17, 0.6250000000000000000, 0.2499999999999999722 ) ) ;
#272 =( GEOMETRIC_REPRESENTATION_CONTEXT ( 3 ) GLOBAL_UNCERTAINTY_ASSIGNED_CONTEXT ( ( #260 ) ) GLOBAL_UNIT_ASSIGNED_CONTEXT ( ( #217, #262, #73 ) ) REPRESENTATION_CONTEXT ( 'NONE', 'WORKASPACE' ) );
#273 = DIRECTION ( 'NONE',  ( 1.000000000000000000, 0.000000000000000000, 0.000000000000000000 ) ) ;
#274 = DIRECTION ( 'NONE',  ( -1.000000000000000000, 0.000000000000000000, 0.000000000000000000 ) ) ;
#275 = SHAPE_DEFINITION_REPRESENTATION ( #79, #293 ) ;
#276 = CYLINDRICAL_SURFACE ( 'NONE', #126, 0.2500000000000000000 ) ;
#277 = COLOUR_RGB ( '',0.7921568627450980005, 0.8196078431372548767, 0.9333333333333333481 ) ;
#278 = SURFACE_STYLE_FILL_AREA ( #165 ) ;
#279 = ORIENTED_EDGE ( 'NONE', *, *, #78, .F. ) ;
#280 = ADVANCED_FACE ( 'NONE', ( #224 ), #129, .F. ) ;
#281 = CARTESIAN_POINT ( 'NONE',  ( 0.000000000000000000, 0.6250000000000000000, 0.000000000000000000 ) ) ;
#282 = MANIFOLD_SOLID_BREP ( 'Revolve - Cutting Edge', #63 ) ;
#283 = VECTOR ( 'NONE', #247, 39.37007874015748143 ) ;
#284 = CARTESIAN_POINT ( 'NONE',  ( 0.000000000000000000, 0.000000000000000000, 0.000000000000000000 ) ) ;
#285 = ADVANCED_FACE ( 'NONE', ( #197 ), #196, .F. ) ;
#286 = CARTESIAN_POINT ( 'NONE',  ( 3.061616997868383018E-17, 0.000000000000000000, 0.2500000000000000000 ) ) ;
#287 = AXIS2_PLACEMENT_3D ( 'NONE', #240, #124, #309 ) ;
#288 = STYLED_ITEM ( 'NONE', ( #220 ), #282 ) ;
#289 = DIRECTION ( 'NONE',  ( -0.000000000000000000, -1.000000000000000000, -0.000000000000000000 ) ) ;
#290 = DIRECTION ( 'NONE',  ( 0.000000000000000000, -0.000000000000000000, 1.000000000000000000 ) ) ;
#291 = EDGE_CURVE ( 'NONE', #261, #141, #292, .T. ) ;
#292 = LINE ( 'NONE', #48, #202 ) ;
#293 = ADVANCED_BREP_SHAPE_REPRESENTATION ( '59262', ( #282, #181, #151 ), #52 ) ;
#294 = CARTESIAN_POINT ( 'NONE',  ( 0.2500000000000000000, 0.6250000000000000000, 3.061616997868382402E-17 ) ) ;
#295 =( NAMED_UNIT ( * ) PLANE_ANGLE_UNIT ( ) SI_UNIT ( $, .RADIAN. ) );
#296 = SURFACE_STYLE_USAGE ( .BOTH. , #198 ) ;
#297 = DIRECTION ( 'NONE',  ( 6.531449595452550356E-17, 1.000000000000000000, -0.000000000000000000 ) ) ;
#298 = COLOUR_RGB ( '',1.000000000000000000, 0.000000000000000000, 0.000000000000000000 ) ;
#299 = PRESENTATION_LAYER_ASSIGNMENT (  '', '', ( #191 ) ) ;
#300 = CARTESIAN_POINT ( 'NONE',  ( 1.224646799147353207E-16, 2.500000000000000000, 0.000000000000000000 ) ) ;
#301 =( LENGTH_UNIT ( ) NAMED_UNIT ( * ) SI_UNIT ( $, .METRE. ) );
#302 = FILL_AREA_STYLE_COLOUR ( '', #235 ) ;
#303 = ADVANCED_FACE ( 'NONE', ( #93 ), #6, .T. ) ;
#304 = VERTEX_POINT ( 'NONE', #286 ) ;
#305 = DIRECTION ( 'NONE',  ( -0.000000000000000000, -1.000000000000000000, -0.000000000000000000 ) ) ;
#306 = AXIS2_PLACEMENT_3D ( 'NONE', #122, #96, #76 ) ;
#307 = DIMENSIONAL_EXPONENTS ( 1.000000000000000000, 0.000000000000000000, 0.000000000000000000, 0.000000000000000000, 0.000000000000000000, 0.000000000000000000, 0.000000000000000000 ) ;
#308 = FACE_OUTER_BOUND ( 'NONE', #216, .T. ) ;
#309 = DIRECTION ( 'NONE',  ( 0.000000000000000000, 0.000000000000000000, -1.000000000000000000 ) ) ;
ENDSEC;
END-ISO-10303-21;
