ISO-10303-21;
HEADER;
FILE_DESCRIPTION (( 'STEP AP214' ),
    '1' );
FILE_NAME ('Micro_RTCM-040-1.STEP',
    '2021-09-03T18:19:58',
    ( '' ),
    ( '' ),
    'SwSTEP 2.0',
    'SolidWorks 2020',
    '' );
FILE_SCHEMA (( 'AUTOMOTIVE_DESIGN' ));
ENDSEC;

DATA;
#1 = FACE_OUTER_BOUND ( 'NONE', #230, .T. ) ;
#2 = ADVANCED_FACE ( 'NONE', ( #1 ), #199, .T. ) ;
#3 = CARTESIAN_POINT ( 'NONE',  ( 0.0000000000000000000, 0.0000000000000000000, 0.2791685965585736229 ) ) ;
#4 = CARTESIAN_POINT ( 'NONE',  ( -0.07874000000000000443, 0.0000000000000000000, 1.953504000000000129 ) ) ;
#5 = DIRECTION ( 'NONE',  ( -0.2588190451025217387, 3.169619151431776651E-17, 0.9659258262890679791 ) ) ;
#6 = EDGE_CURVE ( 'NONE', #207, #32, #79, .T. ) ;
#7 = AXIS2_PLACEMENT_3D ( 'NONE', #45, #88, #67 ) ;
#8 = PRESENTATION_STYLE_ASSIGNMENT (( #128 ) ) ;
#9 =( NAMED_UNIT ( * ) PLANE_ANGLE_UNIT ( ) SI_UNIT ( $, .RADIAN. ) );
#10 = DIRECTION ( 'NONE',  ( 0.2588190451025217387, 0.0000000000000000000, 0.9659258262890679791 ) ) ;
#11 = CIRCLE ( 'NONE', #76, 0.06374000000000018540 ) ;
#12 = EDGE_CURVE ( 'NONE', #25, #245, #166, .T. ) ;
#13 = ORIENTED_EDGE ( 'NONE', *, *, #116, .T. ) ;
#14 = APPLICATION_CONTEXT ( 'automotive_design' ) ;
#15 = ORIENTED_EDGE ( 'NONE', *, *, #138, .T. ) ;
#16 = DIRECTION ( 'NONE',  ( 0.0000000000000000000, 0.0000000000000000000, 1.000000000000000000 ) ) ;
#17 = CARTESIAN_POINT ( 'NONE',  ( 0.003936999999999995191, 0.0000000000000000000, 0.0000000000000000000 ) ) ;
#18 = PRESENTATION_LAYER_ASSIGNMENT (  '', '', ( #137 ) ) ;
#19 = CARTESIAN_POINT ( 'NONE',  ( 0.06374000000000018540, 7.805898697765251255E-18, 1.968503999999999809 ) ) ;
#20 = ORIENTED_EDGE ( 'NONE', *, *, #178, .F. ) ;
#21 = CIRCLE ( 'NONE', #41, 0.003936999999999995191 ) ;
#22 = CARTESIAN_POINT ( 'NONE',  ( -0.003936999999999995191, 5.062506170655285717E-18, 0.0000000000000000000 ) ) ;
#23 = CARTESIAN_POINT ( 'NONE',  ( 0.0000000000000000000, 0.0000000000000000000, 1.953504000000000129 ) ) ;
#24 = CARTESIAN_POINT ( 'NONE',  ( -0.06374000000000018540, 0.0000000000000000000, 1.968503999999999809 ) ) ;
#25 = VERTEX_POINT ( 'NONE', #83 ) ;
#26 = ADVANCED_BREP_SHAPE_REPRESENTATION ( 'Micro_RTCM-040-1', ( #195, #90 ), #85 ) ;
#27 = LENGTH_MEASURE_WITH_UNIT ( LENGTH_MEASURE( 0.02539999999999999897 ), #134 );
#28 = SURFACE_SIDE_STYLE ('',( #176 ) ) ;
#29 = DIMENSIONAL_EXPONENTS ( 1.000000000000000000, 0.0000000000000000000, 0.0000000000000000000, 0.0000000000000000000, 0.0000000000000000000, 0.0000000000000000000, 0.0000000000000000000 ) ;
#30 = COLOUR_RGB ( '',0.7921568627450980005, 0.8196078431372548767, 0.9333333333333333481 ) ;
#31 = CARTESIAN_POINT ( 'NONE',  ( 0.0000000000000000000, 0.0000000000000000000, 0.0000000000000000000 ) ) ;
#32 = VERTEX_POINT ( 'NONE', #181 ) ;
#33 = PRODUCT_DEFINITION ( 'UNKNOWN', '', #125, #61 ) ;
#34 = APPLICATION_CONTEXT ( 'automotive_design' ) ;
#35 = ORIENTED_EDGE ( 'NONE', *, *, #74, .T. ) ;
#36 = DIRECTION ( 'NONE',  ( -0.0000000000000000000, -0.0000000000000000000, -1.000000000000000000 ) ) ;
#37 = AXIS2_PLACEMENT_3D ( 'NONE', #126, #38, #144 ) ;
#38 = DIRECTION ( 'NONE',  ( -0.0000000000000000000, -0.0000000000000000000, -1.000000000000000000 ) ) ;
#39 = ORIENTED_EDGE ( 'NONE', *, *, #82, .F. ) ;
#40 = FACE_OUTER_BOUND ( 'NONE', #146, .T. ) ;
#41 = AXIS2_PLACEMENT_3D ( 'NONE', #183, #164, #216 ) ;
#42 = FACE_OUTER_BOUND ( 'NONE', #214, .T. ) ;
#43 = SURFACE_STYLE_FILL_AREA ( #236 ) ;
#44 = AXIS2_PLACEMENT_3D ( 'NONE', #225, #224, #206 ) ;
#45 = CARTESIAN_POINT ( 'NONE',  ( 0.0000000000000000000, 0.0000000000000000000, 0.0000000000000000000 ) ) ;
#46 = EDGE_CURVE ( 'NONE', #180, #32, #241, .T. ) ;
#47 = ORIENTED_EDGE ( 'NONE', *, *, #204, .T. ) ;
#48 = DIRECTION ( 'NONE',  ( -1.000000000000000000, 0.0000000000000000000, 0.0000000000000000000 ) ) ;
#49 = ORIENTED_EDGE ( 'NONE', *, *, #217, .F. ) ;
#50 = DIRECTION ( 'NONE',  ( -0.0000000000000000000, -0.0000000000000000000, -1.000000000000000000 ) ) ;
#51 = CARTESIAN_POINT ( 'NONE',  ( 0.003936999999999995191, 0.0000000000000000000, 0.0000000000000000000 ) ) ;
#52 = PRESENTATION_STYLE_ASSIGNMENT (( #75 ) ) ;
#53 = VECTOR ( 'NONE', #36, 39.37007874015748143 ) ;
#54 = FILL_AREA_STYLE_COLOUR ( '', #103 ) ;
#55 = PRESENTATION_LAYER_ASSIGNMENT (  '', '', ( #70 ) ) ;
#56 = EDGE_CURVE ( 'NONE', #245, #25, #11, .T. ) ;
#57 = LENGTH_MEASURE_WITH_UNIT ( LENGTH_MEASURE( 0.02539999999999999897 ), #95 );
#58 = ORIENTED_EDGE ( 'NONE', *, *, #12, .F. ) ;
#59 = CARTESIAN_POINT ( 'NONE',  ( 0.0000000000000000000, 0.0000000000000000000, 1.968503999999999809 ) ) ;
#60 = AXIS2_PLACEMENT_3D ( 'NONE', #3, #149, #112 ) ;
#61 = PRODUCT_DEFINITION_CONTEXT ( 'detailed design', #14, 'design' ) ;
#62 = DIRECTION ( 'NONE',  ( 1.000000000000000000, 0.0000000000000000000, -0.0000000000000000000 ) ) ;
#63 = PLANE ( 'NONE',  #108 ) ;
#64 = EDGE_LOOP ( 'NONE', ( #107, #15, #160, #201 ) ) ;
#65 = VECTOR ( 'NONE', #72, 39.37007874015748854 ) ;
#66 = FACE_OUTER_BOUND ( 'NONE', #190, .T. ) ;
#67 = DIRECTION ( 'NONE',  ( 1.000000000000000000, 0.0000000000000000000, 0.0000000000000000000 ) ) ;
#68 = PRODUCT_RELATED_PRODUCT_CATEGORY ( 'part', '', ( #209 ) ) ;
#69 = FACE_OUTER_BOUND ( 'NONE', #64, .T. ) ;
#70 = STYLED_ITEM ( 'NONE', ( #8 ), #195 ) ;
#71 = CARTESIAN_POINT ( 'NONE',  ( 0.0000000000000000000, 0.0000000000000000000, 1.968503999999999809 ) ) ;
#72 = DIRECTION ( 'NONE',  ( -0.7071067811865502373, 0.0000000000000000000, -0.7071067811865446862 ) ) ;
#73 = APPLICATION_PROTOCOL_DEFINITION ( 'draft international standard', 'automotive_design', 1998, #34 ) ;
#74 = EDGE_CURVE ( 'NONE', #25, #207, #198, .T. ) ;
#75 = SURFACE_STYLE_USAGE ( .BOTH. , #28 ) ;
#76 = AXIS2_PLACEMENT_3D ( 'NONE', #197, #16, #102 ) ;
#77 = ADVANCED_FACE ( 'NONE', ( #246 ), #63, .F. ) ;
#78 = VERTEX_POINT ( 'NONE', #17 ) ;
#79 = LINE ( 'NONE', #141, #53 ) ;
#80 =( GEOMETRIC_REPRESENTATION_CONTEXT ( 3 ) GLOBAL_UNCERTAINTY_ASSIGNED_CONTEXT ( ( #105 ) ) GLOBAL_UNIT_ASSIGNED_CONTEXT ( ( #129, #9, #109 ) ) REPRESENTATION_CONTEXT ( 'NONE', 'WORKASPACE' ) );
#81 = ORIENTED_EDGE ( 'NONE', *, *, #116, .F. ) ;
#82 = EDGE_CURVE ( 'NONE', #163, #78, #21, .T. ) ;
#83 = CARTESIAN_POINT ( 'NONE',  ( 0.06374000000000018540, 8.724383797125754882E-18, 1.968503999999999809 ) ) ;
#84 = DIRECTION ( 'NONE',  ( 1.000000000000000000, 0.0000000000000000000, 0.0000000000000000000 ) ) ;
#85 =( GEOMETRIC_REPRESENTATION_CONTEXT ( 3 ) GLOBAL_UNCERTAINTY_ASSIGNED_CONTEXT ( ( #235 ) ) GLOBAL_UNIT_ASSIGNED_CONTEXT ( ( #177, #243, #98 ) ) REPRESENTATION_CONTEXT ( 'NONE', 'WORKASPACE' ) );
#86 = DIRECTION ( 'NONE',  ( 0.0000000000000000000, 0.0000000000000000000, -1.000000000000000000 ) ) ;
#87 = ADVANCED_FACE ( 'NONE', ( #40 ), #192, .T. ) ;
#88 = DIRECTION ( 'NONE',  ( 0.0000000000000000000, 0.0000000000000000000, 1.000000000000000000 ) ) ;
#89 = CARTESIAN_POINT ( 'NONE',  ( 0.0000000000000000000, 0.0000000000000000000, 1.953504000000000129 ) ) ;
#90 = AXIS2_PLACEMENT_3D ( 'NONE', #31, #135, #210 ) ;
#91 = PLANE ( 'NONE',  #174 ) ;
#92 = DIRECTION ( 'NONE',  ( -1.000000000000000000, 0.0000000000000000000, 0.0000000000000000000 ) ) ;
#93 =( CONVERSION_BASED_UNIT ( 'INCH', #136 ) LENGTH_UNIT ( ) NAMED_UNIT ( #118 ) );
#94 = AXIS2_PLACEMENT_3D ( 'NONE', #71, #50, #48 ) ;
#95 =( LENGTH_UNIT ( ) NAMED_UNIT ( * ) SI_UNIT ( $, .METRE. ) );
#96 = DIRECTION ( 'NONE',  ( -0.0000000000000000000, -0.0000000000000000000, -1.000000000000000000 ) ) ;
#97 = ORIENTED_EDGE ( 'NONE', *, *, #12, .T. ) ;
#98 =( NAMED_UNIT ( * ) SI_UNIT ( $, .STERADIAN. ) SOLID_ANGLE_UNIT ( ) );
#99 = VECTOR ( 'NONE', #170, 39.37007874015748143 ) ;
#100 = DIRECTION ( 'NONE',  ( 1.000000000000000000, 0.0000000000000000000, 0.0000000000000000000 ) ) ;
#101 = ORIENTED_EDGE ( 'NONE', *, *, #138, .F. ) ;
#102 = DIRECTION ( 'NONE',  ( 1.000000000000000000, 0.0000000000000000000, 0.0000000000000000000 ) ) ;
#103 = COLOUR_RGB ( '',0.7921568627450980005, 0.8196078431372548767, 0.9333333333333333481 ) ;
#104 = EDGE_CURVE ( 'NONE', #32, #180, #121, .T. ) ;
#105 = UNCERTAINTY_MEASURE_WITH_UNIT (LENGTH_MEASURE( 1.000000000000000082E-05 ), #129, 'distance_accuracy_value', 'NONE');
#106 = CARTESIAN_POINT ( 'NONE',  ( 0.0000000000000000000, 0.0000000000000000000, 1.968503999999999809 ) ) ;
#107 = ORIENTED_EDGE ( 'NONE', *, *, #6, .F. ) ;
#108 = AXIS2_PLACEMENT_3D ( 'NONE', #184, #232, #62 ) ;
#109 =( NAMED_UNIT ( * ) SI_UNIT ( $, .STERADIAN. ) SOLID_ANGLE_UNIT ( ) );
#110 = DIRECTION ( 'NONE',  ( -1.000000000000000000, 0.0000000000000000000, 0.0000000000000000000 ) ) ;
#111 = ORIENTED_EDGE ( 'NONE', *, *, #46, .F. ) ;
#112 = DIRECTION ( 'NONE',  ( -1.000000000000000000, 0.0000000000000000000, 0.0000000000000000000 ) ) ;
#113 = CIRCLE ( 'NONE', #187, 0.07874000000000000443 ) ;
#114 = CYLINDRICAL_SURFACE ( 'NONE', #94, 0.07874000000000000443 ) ;
#115 =( NAMED_UNIT ( * ) PLANE_ANGLE_UNIT ( ) SI_UNIT ( $, .RADIAN. ) );
#116 = EDGE_CURVE ( 'NONE', #163, #180, #188, .T. ) ;
#117 = AXIS2_PLACEMENT_3D ( 'NONE', #132, #96, #92 ) ;
#118 = DIMENSIONAL_EXPONENTS ( 1.000000000000000000, 0.0000000000000000000, 0.0000000000000000000, 0.0000000000000000000, 0.0000000000000000000, 0.0000000000000000000, 0.0000000000000000000 ) ;
#119 = APPLICATION_PROTOCOL_DEFINITION ( 'draft international standard', 'automotive_design', 1998, #14 ) ;
#120 = EDGE_LOOP ( 'NONE', ( #47, #139 ) ) ;
#121 = CIRCLE ( 'NONE', #60, 0.07874000000000000443 ) ;
#122 = ORIENTED_EDGE ( 'NONE', *, *, #74, .F. ) ;
#123 = VERTEX_POINT ( 'NONE', #4 ) ;
#124 = ORIENTED_EDGE ( 'NONE', *, *, #178, .T. ) ;
#125 = PRODUCT_DEFINITION_FORMATION_WITH_SPECIFIED_SOURCE ( 'ANY', '', #209, .NOT_KNOWN. ) ;
#126 = CARTESIAN_POINT ( 'NONE',  ( 0.0000000000000000000, 0.0000000000000000000, 0.2791685965585736229 ) ) ;
#127 = CARTESIAN_POINT ( 'NONE',  ( 0.0000000000000000000, 0.0000000000000000000, 0.0000000000000000000 ) ) ;
#128 = SURFACE_STYLE_USAGE ( .BOTH. , #148 ) ;
#129 =( CONVERSION_BASED_UNIT ( 'INCH', #27 ) LENGTH_UNIT ( ) NAMED_UNIT ( #231 ) );
#130 = AXIS2_PLACEMENT_3D ( 'NONE', #106, #249, #165 ) ;
#131 = DIRECTION ( 'NONE',  ( 1.000000000000000000, 0.0000000000000000000, 0.0000000000000000000 ) ) ;
#132 = CARTESIAN_POINT ( 'NONE',  ( 0.0000000000000000000, 0.0000000000000000000, 0.0000000000000000000 ) ) ;
#133 = EDGE_CURVE ( 'NONE', #123, #207, #203, .T. ) ;
#134 =( LENGTH_UNIT ( ) NAMED_UNIT ( * ) SI_UNIT ( $, .METRE. ) );
#135 = DIRECTION ( 'NONE',  ( 0.0000000000000000000, 0.0000000000000000000, 1.000000000000000000 ) ) ;
#136 = LENGTH_MEASURE_WITH_UNIT ( LENGTH_MEASURE( 0.02539999999999999897 ), #179 );
#137 = STYLED_ITEM ( 'NONE', ( #52 ), #26 ) ;
#138 = EDGE_CURVE ( 'NONE', #207, #123, #113, .T. ) ;
#139 = ORIENTED_EDGE ( 'NONE', *, *, #82, .T. ) ;
#140 = AXIS2_PLACEMENT_3D ( 'NONE', #127, #215, #84 ) ;
#141 = CARTESIAN_POINT ( 'NONE',  ( 0.07874000000000000443, 9.642868896486258509E-18, 1.968503999999999809 ) ) ;
#142 = ADVANCED_FACE ( 'NONE', ( #66 ), #239, .T. ) ;
#143 = ORIENTED_EDGE ( 'NONE', *, *, #217, .T. ) ;
#144 = DIRECTION ( 'NONE',  ( -1.000000000000000000, 0.0000000000000000000, 0.0000000000000000000 ) ) ;
#145 = CONICAL_SURFACE ( 'NONE', #193, 0.06374000000000018540, 0.7853981633974522758 ) ;
#146 = EDGE_LOOP ( 'NONE', ( #122, #219, #124, #101 ) ) ;
#147 = ADVANCED_FACE ( 'NONE', ( #223 ), #213, .T. ) ;
#148 = SURFACE_SIDE_STYLE ('',( #43 ) ) ;
#149 = DIRECTION ( 'NONE',  ( -0.0000000000000000000, -0.0000000000000000000, -1.000000000000000000 ) ) ;
#150 = MECHANICAL_DESIGN_GEOMETRIC_PRESENTATION_REPRESENTATION (  '', ( #70 ), #80 ) ;
#151 = CARTESIAN_POINT ( 'NONE',  ( 0.0000000000000000000, 0.0000000000000000000, 1.968503999999999809 ) ) ;
#152 = ADVANCED_FACE ( 'NONE', ( #240 ), #91, .T. ) ;
#153 = ORIENTED_EDGE ( 'NONE', *, *, #204, .F. ) ;
#154 = ORIENTED_EDGE ( 'NONE', *, *, #56, .T. ) ;
#155 =( GEOMETRIC_REPRESENTATION_CONTEXT ( 3 ) GLOBAL_UNCERTAINTY_ASSIGNED_CONTEXT ( ( #185 ) ) GLOBAL_UNIT_ASSIGNED_CONTEXT ( ( #93, #115, #228 ) ) REPRESENTATION_CONTEXT ( 'NONE', 'WORKASPACE' ) );
#156 = PRODUCT_CONTEXT ( 'NONE', #34, 'mechanical' ) ;
#157 = EDGE_LOOP ( 'NONE', ( #154, #97 ) ) ;
#158 = AXIS2_PLACEMENT_3D ( 'NONE', #59, #196, #100 ) ;
#159 = EDGE_CURVE ( 'NONE', #123, #180, #205, .T. ) ;
#160 = ORIENTED_EDGE ( 'NONE', *, *, #159, .T. ) ;
#161 = ADVANCED_FACE ( 'NONE', ( #69 ), #114, .T. ) ;
#162 = AXIS2_PLACEMENT_3D ( 'NONE', #23, #171, #175 ) ;
#163 = VERTEX_POINT ( 'NONE', #22 ) ;
#164 = DIRECTION ( 'NONE',  ( -0.0000000000000000000, -0.0000000000000000000, -1.000000000000000000 ) ) ;
#165 = DIRECTION ( 'NONE',  ( -1.000000000000000000, 0.0000000000000000000, 0.0000000000000000000 ) ) ;
#166 = CIRCLE ( 'NONE', #158, 0.06374000000000018540 ) ;
#167 = DIRECTION ( 'NONE',  ( 0.0000000000000000000, 0.0000000000000000000, 1.000000000000000000 ) ) ;
#168 = ADVANCED_FACE ( 'NONE', ( #42 ), #145, .T. ) ;
#169 = CARTESIAN_POINT ( 'NONE',  ( -0.07874000000000000443, 0.0000000000000000000, 1.968503999999999809 ) ) ;
#170 = DIRECTION ( 'NONE',  ( -0.0000000000000000000, -0.0000000000000000000, -1.000000000000000000 ) ) ;
#171 = DIRECTION ( 'NONE',  ( 0.0000000000000000000, 0.0000000000000000000, -1.000000000000000000 ) ) ;
#172 = CLOSED_SHELL ( 'NONE', ( #2, #168, #142, #161, #152, #87, #147, #77 ) ) ;
#173 = PRODUCT_DEFINITION_SHAPE ( 'NONE', 'NONE',  #33 ) ;
#174 = AXIS2_PLACEMENT_3D ( 'NONE', #220, #167, #221 ) ;
#175 = DIRECTION ( 'NONE',  ( 1.000000000000000000, 0.0000000000000000000, 0.0000000000000000000 ) ) ;
#176 = SURFACE_STYLE_FILL_AREA ( #211 ) ;
#177 =( CONVERSION_BASED_UNIT ( 'INCH', #57 ) LENGTH_UNIT ( ) NAMED_UNIT ( #29 ) );
#178 = EDGE_CURVE ( 'NONE', #245, #123, #202, .T. ) ;
#179 =( LENGTH_UNIT ( ) NAMED_UNIT ( * ) SI_UNIT ( $, .METRE. ) );
#180 = VERTEX_POINT ( 'NONE', #189 ) ;
#181 = CARTESIAN_POINT ( 'NONE',  ( 0.07874000000000000443, 9.642868896486258509E-18, 0.2791685965585736229 ) ) ;
#182 = DIRECTION ( 'NONE',  ( 0.7071067811865502373, 8.659560562354966138E-17, -0.7071067811865446862 ) ) ;
#183 = CARTESIAN_POINT ( 'NONE',  ( 0.0000000000000000000, 0.0000000000000000000, 0.0000000000000000000 ) ) ;
#184 = CARTESIAN_POINT ( 'NONE',  ( 0.0000000000000000000, 0.0000000000000000000, 0.0000000000000000000 ) ) ;
#185 = UNCERTAINTY_MEASURE_WITH_UNIT (LENGTH_MEASURE( 1.000000000000000082E-05 ), #93, 'distance_accuracy_value', 'NONE');
#186 = ORIENTED_EDGE ( 'NONE', *, *, #133, .F. ) ;
#187 = AXIS2_PLACEMENT_3D ( 'NONE', #89, #86, #131 ) ;
#188 = LINE ( 'NONE', #208, #218 ) ;
#189 = CARTESIAN_POINT ( 'NONE',  ( -0.07874000000000000443, 0.0000000000000000000, 0.2791685965585736229 ) ) ;
#190 = EDGE_LOOP ( 'NONE', ( #229, #233, #111, #244 ) ) ;
#191 = FILL_AREA_STYLE_COLOUR ( '', #30 ) ;
#192 = CONICAL_SURFACE ( 'NONE', #130, 0.06374000000000018540, 0.7853981633974522758 ) ;
#193 = AXIS2_PLACEMENT_3D ( 'NONE', #151, #237, #110 ) ;
#194 = CARTESIAN_POINT ( 'NONE',  ( -0.06374000000000018540, 0.0000000000000000000, 1.968503999999999809 ) ) ;
#195 = MANIFOLD_SOLID_BREP ( 'Cut-Revolve1', #172 ) ;
#196 = DIRECTION ( 'NONE',  ( 0.0000000000000000000, 0.0000000000000000000, 1.000000000000000000 ) ) ;
#197 = CARTESIAN_POINT ( 'NONE',  ( 0.0000000000000000000, 0.0000000000000000000, 1.968503999999999809 ) ) ;
#198 = LINE ( 'NONE', #19, #238 ) ;
#199 = CONICAL_SURFACE ( 'NONE', #140, 0.003936999999999995191, 0.2617993877991504625 ) ;
#200 = MECHANICAL_DESIGN_GEOMETRIC_PRESENTATION_REPRESENTATION (  '', ( #137 ), #155 ) ;
#201 = ORIENTED_EDGE ( 'NONE', *, *, #104, .F. ) ;
#202 = LINE ( 'NONE', #24, #65 ) ;
#203 = CIRCLE ( 'NONE', #162, 0.07874000000000000443 ) ;
#204 = EDGE_CURVE ( 'NONE', #78, #163, #222, .T. ) ;
#205 = LINE ( 'NONE', #169, #99 ) ;
#206 = DIRECTION ( 'NONE',  ( -1.000000000000000000, 0.0000000000000000000, 0.0000000000000000000 ) ) ;
#207 = VERTEX_POINT ( 'NONE', #226 ) ;
#208 = CARTESIAN_POINT ( 'NONE',  ( -0.003936999999999995191, 4.821434448243123477E-19, 0.0000000000000000000 ) ) ;
#209 = PRODUCT ( 'Micro_RTCM-040-1', 'Micro_RTCM-040-1', '', ( #156 ) ) ;
#210 = DIRECTION ( 'NONE',  ( 1.000000000000000000, 0.0000000000000000000, 0.0000000000000000000 ) ) ;
#211 = FILL_AREA_STYLE ('',( #54 ) ) ;
#212 = ORIENTED_EDGE ( 'NONE', *, *, #46, .T. ) ;
#213 = CONICAL_SURFACE ( 'NONE', #7, 0.003936999999999995191, 0.2617993877991504625 ) ;
#214 = EDGE_LOOP ( 'NONE', ( #58, #35, #186, #20 ) ) ;
#215 = DIRECTION ( 'NONE',  ( 0.0000000000000000000, 0.0000000000000000000, 1.000000000000000000 ) ) ;
#216 = DIRECTION ( 'NONE',  ( -1.000000000000000000, 0.0000000000000000000, 0.0000000000000000000 ) ) ;
#217 = EDGE_CURVE ( 'NONE', #78, #32, #242, .T. ) ;
#218 = VECTOR ( 'NONE', #5, 39.37007874015748854 ) ;
#219 = ORIENTED_EDGE ( 'NONE', *, *, #56, .F. ) ;
#220 = CARTESIAN_POINT ( 'NONE',  ( 0.0000000000000000000, 0.0000000000000000000, 1.968503999999999809 ) ) ;
#221 = DIRECTION ( 'NONE',  ( 1.000000000000000000, 0.0000000000000000000, -0.0000000000000000000 ) ) ;
#222 = CIRCLE ( 'NONE', #117, 0.003936999999999995191 ) ;
#223 = FACE_OUTER_BOUND ( 'NONE', #248, .T. ) ;
#224 = DIRECTION ( 'NONE',  ( -0.0000000000000000000, -0.0000000000000000000, -1.000000000000000000 ) ) ;
#225 = CARTESIAN_POINT ( 'NONE',  ( 0.0000000000000000000, 0.0000000000000000000, 1.968503999999999809 ) ) ;
#226 = CARTESIAN_POINT ( 'NONE',  ( 0.07874000000000000443, 9.642868896486258509E-18, 1.953504000000000129 ) ) ;
#227 = SHAPE_DEFINITION_REPRESENTATION ( #173, #26 ) ;
#228 =( NAMED_UNIT ( * ) SI_UNIT ( $, .STERADIAN. ) SOLID_ANGLE_UNIT ( ) );
#229 = ORIENTED_EDGE ( 'NONE', *, *, #133, .T. ) ;
#230 = EDGE_LOOP ( 'NONE', ( #39, #13, #212, #49 ) ) ;
#231 = DIMENSIONAL_EXPONENTS ( 1.000000000000000000, 0.0000000000000000000, 0.0000000000000000000, 0.0000000000000000000, 0.0000000000000000000, 0.0000000000000000000, 0.0000000000000000000 ) ;
#232 = DIRECTION ( 'NONE',  ( 0.0000000000000000000, 0.0000000000000000000, 1.000000000000000000 ) ) ;
#233 = ORIENTED_EDGE ( 'NONE', *, *, #6, .T. ) ;
#234 = ORIENTED_EDGE ( 'NONE', *, *, #104, .T. ) ;
#235 = UNCERTAINTY_MEASURE_WITH_UNIT (LENGTH_MEASURE( 1.000000000000000082E-05 ), #177, 'distance_accuracy_value', 'NONE');
#236 = FILL_AREA_STYLE ('',( #191 ) ) ;
#237 = DIRECTION ( 'NONE',  ( 0.0000000000000000000, 0.0000000000000000000, -1.000000000000000000 ) ) ;
#238 = VECTOR ( 'NONE', #182, 39.37007874015748854 ) ;
#239 = CYLINDRICAL_SURFACE ( 'NONE', #44, 0.07874000000000000443 ) ;
#240 = FACE_OUTER_BOUND ( 'NONE', #157, .T. ) ;
#241 = CIRCLE ( 'NONE', #37, 0.07874000000000000443 ) ;
#242 = LINE ( 'NONE', #51, #247 ) ;
#243 =( NAMED_UNIT ( * ) PLANE_ANGLE_UNIT ( ) SI_UNIT ( $, .RADIAN. ) );
#244 = ORIENTED_EDGE ( 'NONE', *, *, #159, .F. ) ;
#245 = VERTEX_POINT ( 'NONE', #194 ) ;
#246 = FACE_OUTER_BOUND ( 'NONE', #120, .T. ) ;
#247 = VECTOR ( 'NONE', #10, 39.37007874015748854 ) ;
#248 = EDGE_LOOP ( 'NONE', ( #81, #153, #143, #234 ) ) ;
#249 = DIRECTION ( 'NONE',  ( 0.0000000000000000000, 0.0000000000000000000, -1.000000000000000000 ) ) ;
ENDSEC;
END-ISO-10303-21;
